  0
SECTION
  2
HEADER
  9
$ACADVER
  1
AC1006
  9
$DWGCODEPAGE
  3
ansi_932
  9
$INSBASE
 10
0.0
 20
0.0
 30
0.0
  9
$EXTMIN
 10
-171.0
 20
519.840909090909
  9
$EXTMAX
 10
82.84999999999994
 20
759.5
  9
$LIMMIN
 10
0.0
 20
0.0
  9
$LIMMAX
 10
12.0
 20
9.0
  9
$ORTHOMODE
 70
     0
  9
$REGENMODE
 70
     1
  9
$FILLMODE
 70
     1
  9
$QTEXTMODE
 70
     0
  9
$MIRRTEXT
 70
     1
  9
$DRAGMODE
 70
     2
  9
$LTSCALE
 40
1.0
  9
$OSMODE
 70
    37
  9
$ATTMODE
 70
     1
  9
$TEXTSIZE
 40
0.2
  9
$TRACEWID
 40
0.05
  9
$TEXTSTYLE
  7
STANDARD
  9
$CLAYER
  8
0
  9
$CELTYPE
  6
BYLAYER
  9
$CECOLOR
 62
   256
  9
$DIMSCALE
 40
1.0
  9
$DIMASZ
 40
3.0
  9
$DIMEXO
 40
0.0625
  9
$DIMDLI
 40
0.38
  9
$DIMRND
 40
0.0
  9
$DIMDLE
 40
0.0
  9
$DIMEXE
 40
1.5
  9
$DIMTP
 40
0.0
  9
$DIMTM
 40
0.0
  9
$DIMTXT
 40
3.0
  9
$DIMCEN
 40
0.09
  9
$DIMTSZ
 40
0.0
  9
$DIMTOL
 70
     0
  9
$DIMLIM
 70
     0
  9
$DIMTIH
 70
     1
  9
$DIMTOH
 70
     1
  9
$DIMSE1
 70
     0
  9
$DIMSE2
 70
     0
  9
$DIMTAD
 70
     1
  9
$DIMZIN
 70
     0
  9
$DIMBLK
  1

  9
$DIMASO
 70
     1
  9
$DIMSHO
 70
     1
  9
$DIMPOST
  1

  9
$DIMAPOST
  1

  9
$DIMALT
 70
     0
  9
$DIMALTD
 70
     2
  9
$DIMALTF
 40
25.4
  9
$DIMLFAC
 40
1.0
  9
$DIMTOFL
 70
     0
  9
$DIMTVP
 40
0.0
  9
$DIMTIX
 70
     0
  9
$DIMSOXD
 70
     0
  9
$DIMSAH
 70
     0
  9
$DIMBLK1
  1

  9
$DIMBLK2
  1

  9
$LUNITS
 70
     2
  9
$LUPREC
 70
     4
  9
$SKETCHINC
 40
0.1
  9
$FILLETRAD
 40
0.5
  9
$AUNITS
 70
     0
  9
$AUPREC
 70
     0
  9
$MENU
  1
.
  9
$ELEVATION
 40
0.0
  9
$THICKNESS
 40
0.0
  9
$LIMCHECK
 70
     0
  9
$CHAMFERA
 40
0.0
  9
$CHAMFERB
 40
0.0
  9
$SKPOLY
 70
     0
  9
$TDCREATE
 40
2459201.48734316
  9
$TDUPDATE
 40
2459201.48734353
  9
$TDINDWG
 40
0.0000000116
  9
$TDUSRTIMER
 40
0.0000000116
  9
$USRTIMER
 70
     1
  9
$ANGBASE
 50
0.0
  9
$ANGDIR
 70
     0
  9
$PDMODE
 70
     0
  9
$PDSIZE
 40
0.0
  9
$PLINEWID
 40
0.0
  9
$COORDS
 70
     1
  9
$SPLFRAME
 70
     0
  9
$SPLINETYPE
 70
     6
  9
$SPLINESEGS
 70
     8
  9
$ATTDIA
 70
     0
  9
$ATTREQ
 70
     1
  9
$HANDLING
 70
     1
  9
$HANDSEED
  5
315
  9
$SURFTAB1
 70
     6
  9
$SURFTAB2
 70
     6
  9
$SURFTYPE
 70
     6
  9
$SURFU
 70
     6
  9
$SURFV
 70
     6
  9
$UCSNAME
  2

  9
$UCSORG
 10
0.0
 20
0.0
 30
0.0
  9
$UCSXDIR
 10
1.0
 20
0.0
 30
0.0
  9
$UCSYDIR
 10
0.0
 20
1.0
 30
0.0
  9
$USERI1
 70
     0
  9
$USERI2
 70
     0
  9
$USERI3
 70
     0
  9
$USERI4
 70
     0
  9
$USERI5
 70
     0
  9
$USERR1
 40
0.0
  9
$USERR2
 40
0.0
  9
$USERR3
 40
0.0
  9
$USERR4
 40
0.0
  9
$USERR5
 40
0.0
  9
$WORLDVIEW
 70
     1
  0
ENDSEC
  0
SECTION
  2
TABLES
  0
TABLE
  2
VPORT
 70
     1
  0
VPORT
  2
*ACTIVE
 70
     0
 10
0.0
 20
0.0
 11
1.0
 21
1.0
 12
-44.07500000000005
 22
639.6704545454545
 13
0.0
 23
0.0
 14
0.5
 24
0.5
 15
0.5
 25
0.5
 16
0.0
 26
0.0
 36
1.0
 17
0.0
 27
0.0
 37
0.0
 40
239.659090909091
 41
1.6
 42
50.0
 43
0.0
 44
0.0
 50
0.0
 51
0.0
 71
     0
 72
   100
 73
     1
 74
     3
 75
     0
 76
     0
 77
     0
 78
     0
  0
ENDTAB
  0
TABLE
  2
LTYPE
 70
     1
  0
LTYPE
  2
CONTINUOUS
 70
     0
  3
Solid line
 72
    65
 73
     0
 40
0.0
  0
ENDTAB
  0
TABLE
  2
LAYER
 70
     2
  0
LAYER
  2
0
 70
     0
 62
     7
  6
CONTINUOUS
  0
LAYER
  2
3
 70
     0
 62
     7
  6
CONTINUOUS
  0
ENDTAB
  0
TABLE
  2
STYLE
 70
     2
  0
STYLE
  2
STANDARD
 70
     0
 40
0.0
 41
1.0
 50
0.0
 71
     0
 42
0.2
  3
txt
  4

  0
STYLE
  2
ＭＳ_ゴシック
 70
     0
 40
0.0
 41
1.0
 50
0.0
 71
     0
 42
0.2
  3
ＭＳ ゴシック.shx
  4

  0
ENDTAB
  0
TABLE
  2
VIEW
 70
     0
  0
ENDTAB
  0
TABLE
  2
UCS
 70
     0
  0
ENDTAB
  0
ENDSEC
  0
SECTION
  2
BLOCKS
  0
BLOCK
  8
0
  2
D_FRAME_VIEW_5521
 70
     0
 10
0.0
 20
0.0
 30
0.0
  0
CIRCLE
  5
88
  8
3
  6
CONTINUOUS
 62
     7
 10
-133.0
 20
565.6500000000001
 30
0.0
 40
13.54999999999999
  0
CIRCLE
  5
89
  8
3
  6
CONTINUOUS
 62
     7
 10
-133.0
 20
565.6500000000001
 30
0.0
 40
15.54999999999998
  0
CIRCLE
  5
8A
  8
3
  6
CONTINUOUS
 62
     7
 10
-80.0
 20
565.6500000000001
 30
0.0
 40
13.54999999999999
  0
CIRCLE
  5
8B
  8
3
  6
CONTINUOUS
 62
     7
 10
-80.00000000000001
 20
565.6500000000001
 30
0.0
 40
15.54999999999998
  0
CIRCLE
  5
8C
  8
3
  6
CONTINUOUS
 62
     7
 10
-27.00000000000001
 20
565.6500000000001
 30
0.0
 40
15.54999999999998
  0
CIRCLE
  5
8D
  8
3
  6
CONTINUOUS
 62
     7
 10
-27.0
 20
565.6500000000001
 30
0.0
 40
13.54999999999998
  0
LINE
  5
8E
  8
3
  6
CONTINUOUS
 62
     7
 10
-160.75
 20
553.0500000000001
 30
0.0
 11
-161.5372213573609
 21
553.0500000000001
 31
0.0
  0
ARC
  5
8F
  8
3
  6
CONTINUOUS
 62
     7
 10
-160.75
 20
553.5500000000001
 30
0.0
 40
0.5000000000000004
 50
270.0
 51
0.0
  0
LINE
  5
90
  8
3
  6
CONTINUOUS
 62
     7
 10
-160.25
 20
554.7500000000001
 30
0.0
 11
-160.25
 21
553.5500000000001
 31
0.0
  0
ARC
  5
91
  8
3
  6
CONTINUOUS
 62
     7
 10
-160.75
 20
554.7500000000001
 30
0.0
 40
0.4999999999999449
 50
0.0
 51
90.0
  0
LINE
  5
92
  8
3
  6
CONTINUOUS
 62
     7
 10
-161.5372213573609
 20
555.25
 30
0.0
 11
-160.75
 21
555.25
 31
0.0
  0
LINE
  5
93
  8
3
  6
CONTINUOUS
 62
     7
 10
-166.25
 20
555.25
 30
0.0
 11
-165.462778642639
 21
555.25
 31
0.0
  0
ARC
  5
94
  8
3
  6
CONTINUOUS
 62
     7
 10
-166.25
 20
554.7500000000001
 30
0.0
 40
0.5000000000000004
 50
90.0
 51
180.0
  0
LINE
  5
95
  8
3
  6
CONTINUOUS
 62
     7
 10
-166.75
 20
553.5500000000001
 30
0.0
 11
-166.75
 21
554.7500000000001
 31
0.0
  0
ARC
  5
96
  8
3
  6
CONTINUOUS
 62
     7
 10
-166.25
 20
553.5500000000001
 30
0.0
 40
0.500000000000056
 50
180.0
 51
270.0
  0
LINE
  5
97
  8
3
  6
CONTINUOUS
 62
     7
 10
-165.462778642639
 20
553.0500000000001
 30
0.0
 11
-166.25
 21
553.0500000000001
 31
0.0
  0
LINE
  5
98
  8
3
  6
CONTINUOUS
 62
     7
 10
5.462778642639041
 20
553.0500000000001
 30
0.0
 11
6.250000000000005
 21
553.0500000000001
 31
0.0
  0
ARC
  5
99
  8
3
  6
CONTINUOUS
 62
     7
 10
6.250000000000005
 20
553.5500000000001
 30
0.0
 40
0.500000000000056
 50
270.0
 51
0.0
  0
LINE
  5
9A
  8
3
  6
CONTINUOUS
 62
     7
 10
6.750000000000006
 20
553.5500000000001
 30
0.0
 11
6.750000000000006
 21
554.7500000000001
 31
0.0
  0
ARC
  5
9B
  8
3
  6
CONTINUOUS
 62
     7
 10
6.250000000000005
 20
554.7500000000001
 30
0.0
 40
0.5000000000000004
 50
0.0
 51
90.0
  0
LINE
  5
9C
  8
3
  6
CONTINUOUS
 62
     7
 10
6.250000000000005
 20
555.25
 30
0.0
 11
5.462778642639041
 21
555.25
 31
0.0
  0
LINE
  5
9D
  8
3
  6
CONTINUOUS
 62
     7
 10
1.537221357360938
 20
555.25
 30
0.0
 11
0.7500000000000007
 21
555.25
 31
0.0
  0
ARC
  5
9E
  8
3
  6
CONTINUOUS
 62
     7
 10
0.7500000000000007
 20
554.7500000000001
 30
0.0
 40
0.4999999999999449
 50
90.0
 51
180.0
  0
LINE
  5
9F
  8
3
  6
CONTINUOUS
 62
     7
 10
0.2500000000000002
 20
554.7500000000001
 30
0.0
 11
0.2500000000000002
 21
553.5500000000001
 31
0.0
  0
ARC
  5
A0
  8
3
  6
CONTINUOUS
 62
     7
 10
0.7500000000000007
 20
553.5500000000001
 30
0.0
 40
0.5000000000000004
 50
180.0
 51
270.0
  0
LINE
  5
A1
  8
3
  6
CONTINUOUS
 62
     7
 10
0.7500000000000007
 20
553.0500000000001
 30
0.0
 11
1.537221357360938
 21
553.0500000000001
 31
0.0
  0
LINE
  5
A2
  8
3
  6
CONTINUOUS
 62
     9
 10
4.500000000000018
 20
585.35
 30
0.0
 11
4.500000000000018
 21
557.1500000000001
 31
0.0
  0
LINE
  5
A3
  8
3
  6
CONTINUOUS
 62
     9
 10
-164.5
 20
585.35
 30
0.0
 11
-164.5
 21
557.1500000000001
 31
0.0
  0
ARC
  5
A4
  8
3
  6
CONTINUOUS
 62
     7
 10
-167.6386261821832
 20
547.9568690890828
 30
0.0
 40
9.714145884057432
 50
71.14958572122674
 51
86.2305493307357
  0
ARC
  5
A5
  8
3
  6
CONTINUOUS
 62
     7
 10
9.999999999999995
 20
550.6500000000001
 30
0.0
 40
1.000000000000001
 50
270.0
 51
0.0000000000000568
  0
ARC
  5
A6
  8
3
  6
CONTINUOUS
 62
     7
 10
7.783639804283501
 20
547.2318009785815
 30
0.0
 40
10.44762950112334
 50
94.3015940309296
 51
108.3182709171084
  0
ARC
  5
A7
  8
3
  6
CONTINUOUS
 62
     7
 10
-170.5
 20
557.15
 30
0.0
 40
0.500000000000056
 50
90.0
 51
179.9999999999999
  0
ARC
  5
A8
  8
3
  6
CONTINUOUS
 62
     7
 10
-170.0
 20
550.6500000000001
 30
0.0
 40
1.000000000000001
 50
180.0000000000005
 51
270.0
  0
ARC
  5
A9
  8
3
  6
CONTINUOUS
 62
     7
 10
10.49999999999999
 20
557.15
 30
0.0
 40
0.5000000000000004
 50
0.0000000000000994
 51
90.0
  0
ENDBLK
  8
0
  0
BLOCK
  8
0
  2
D_FRAME_VIEW_5215
 70
     0
 10
0.0
 20
0.0
 30
0.0
  0
LINE
  5
AE
  8
3
  6
CONTINUOUS
 62
     9
 10
37.14999999999995
 20
752.0
 30
0.0
 11
65.34999999999994
 21
752.0
 31
0.0
  0
LINE
  5
AF
  8
3
  6
CONTINUOUS
 62
     7
 10
64.64999999999996
 20
701.5
 30
0.0
 11
64.64999999999996
 21
693.5
 31
0.0
  0
LINE
  5
B0
  8
3
  6
CONTINUOUS
 62
     9
 10
37.14999999999995
 20
643.0
 30
0.0
 11
65.34999999999994
 21
643.0
 31
0.0
  0
CIRCLE
  5
B1
  8
3
  6
CONTINUOUS
 62
     7
 10
57.14999999999993
 20
667.5
 30
0.0
 40
3.500000000000059
  0
LINE
  5
B2
  8
3
  6
CONTINUOUS
 62
     7
 10
46.64999999999994
 20
698.5
 30
0.0
 11
42.84999999999994
 21
698.5
 31
0.0
  0
CIRCLE
  5
B3
  8
3
  6
CONTINUOUS
 62
     7
 10
57.14999999999993
 20
727.5
 30
0.0
 40
3.499999999999948
  0
LINE
  5
B4
  8
3
  6
CONTINUOUS
 62
     7
 10
42.84999999999994
 20
696.5
 30
0.0
 11
46.64999999999995
 21
696.5
 31
0.0
  0
CIRCLE
  5
B5
  8
3
  6
CONTINUOUS
 62
     7
 10
57.14999999999993
 20
727.5
 30
0.0
 40
1.767949192431062
  0
CIRCLE
  5
B6
  8
3
  6
CONTINUOUS
 62
     7
 10
57.14999999999993
 20
667.5
 30
0.0
 40
1.767949192431173
  0
ARC
  5
B7
  8
3
  6
CONTINUOUS
 62
     7
 10
65.34999999999995
 20
758.0
 30
0.0
 40
0.4999999999999449
 50
90.00000000000009
 51
180.0
  0
ARC
  5
B8
  8
3
  6
CONTINUOUS
 62
     7
 10
75.26787717748373
 20
755.2835754354967
 30
0.0
 40
10.44730373580913
 50
184.3013744021098
 51
198.3184905459301
  0
ARC
  5
B9
  8
3
  6
CONTINUOUS
 62
     7
 10
71.84999999999994
 20
757.5
 30
0.0
 40
0.9999999999998899
 50
0.0
 51
90.00000000000006
  0
ARC
  5
BA
  8
3
  6
CONTINUOUS
 62
     7
 10
75.25396938733303
 20
639.7192061225334
 30
0.0
 40
10.43322663856456
 50
161.6720055673073
 51
175.7081294846528
  0
ARC
  5
BB
  8
3
  6
CONTINUOUS
 62
     7
 10
71.84999999999994
 20
637.4999999999999
 30
0.0
 40
0.9999999999998899
 50
270.0000000000005
 51
0.0
  0
ARC
  5
BC
  8
3
  6
CONTINUOUS
 62
     7
 10
65.34999999999995
 20
637.0
 30
0.0
 40
0.5000000000000004
 50
180.0
 51
269.9999999999999
  0
CIRCLE
  5
BD
  8
3
  6
CONTINUOUS
 62
     7
 10
57.14999999999993
 20
667.5
 30
0.0
 40
0.7679491924310611
  0
CIRCLE
  5
BE
  8
3
  6
CONTINUOUS
 62
     7
 10
57.14999999999993
 20
727.5
 30
0.0
 40
0.7679491924310611
  0
LINE
  5
BF
  8
3
  6
CONTINUOUS
 62
     7
 10
41.29999999999999
 20
759.5
 30
0.0
 11
72.3999999999999
 21
759.5
 31
0.0
  0
LINE
  5
C0
  8
3
  6
CONTINUOUS
 62
     7
 10
41.29999999999995
 20
759.4999999999998
 30
0.0
 11
41.29999999999995
 21
758.4999999999997
 31
0.0
  0
LINE
  5
C1
  8
3
  6
CONTINUOUS
 62
     7
 10
72.39999999999993
 20
758.4999999999997
 30
0.0
 11
72.39999999999993
 21
759.4999999999998
 31
0.0
  0
LINE
  5
C2
  8
3
  6
CONTINUOUS
 62
     7
 10
72.39999999999993
 20
635.5000000000001
 30
0.0
 11
72.39999999999993
 21
636.5000000000002
 31
0.0
  0
LINE
  5
C3
  8
3
  6
CONTINUOUS
 62
     7
 10
41.29999999999995
 20
636.5000000000002
 30
0.0
 11
41.29999999999995
 21
635.5000000000001
 31
0.0
  0
ARC
  5
C4
  8
3
  6
CONTINUOUS
 62
     7
 10
71.84999999999994
 20
757.6648353455755
 30
0.0
 40
1.000000000000001
 50
0.0
 51
56.63298703076812
  0
ARC
  5
C5
  8
3
  6
CONTINUOUS
 62
     7
 10
71.84999999999994
 20
637.3351646544245
 30
0.0
 40
0.9999999999999636
 50
303.3670129692318
 51
0.0
  0
ENDBLK
  8
0
  0
BLOCK
  8
0
  2
D_FRAME_VIEW_3845
 70
     0
 10
0.0
 20
0.0
 30
0.0
  0
CIRCLE
  5
102
  8
3
  6
CONTINUOUS
 62
     7
 10
-126.0
 20
655.75
 30
0.0
 40
1.649999999999999
  0
CIRCLE
  5
103
  8
3
  6
CONTINUOUS
 62
     7
 10
-79.99999999999999
 20
655.75
 30
0.0
 40
1.65
  0
CIRCLE
  5
104
  8
3
  6
CONTINUOUS
 62
     7
 10
-33.99999999999999
 20
655.75
 30
0.0
 40
1.649999999999999
  0
CIRCLE
  5
105
  8
3
  6
CONTINUOUS
 62
     7
 10
-33.99999999999999
 20
739.2500000000001
 30
0.0
 40
1.649999999999999
  0
CIRCLE
  5
106
  8
3
  6
CONTINUOUS
 62
     7
 10
-79.99999999999999
 20
739.2500000000001
 30
0.0
 40
1.65
  0
CIRCLE
  5
107
  8
3
  6
CONTINUOUS
 62
     7
 10
-126.0
 20
739.2500000000001
 30
0.0
 40
1.649999999999999
  0
ARC
  5
108
  8
3
  6
CONTINUOUS
 62
     7
 10
-156.0
 20
645.0
 30
0.0
 40
2.250000000000005
 50
77.16041159309587
 51
102.8395884069042
  0
LINE
  5
109
  8
3
  6
CONTINUOUS
 62
     7
 10
-156.5
 20
647.193741096848
 30
0.0
 11
-156.5
 21
646.3
 31
0.0
  0
ARC
  5
10A
  8
3
  6
CONTINUOUS
 62
     7
 10
-157.3
 20
646.3
 30
0.0
 40
0.800000000000009
 50
270.0
 51
0.0
  0
LINE
  5
10B
  8
3
  6
CONTINUOUS
 62
     7
 10
-157.3
 20
645.5
 30
0.0
 11
-158.193741096848
 21
645.5
 31
0.0
  0
ARC
  5
10C
  8
3
  6
CONTINUOUS
 62
     7
 10
-156.0
 20
645.0
 30
0.0
 40
2.249999999999998
 50
167.1604115930958
 51
192.8395884069042
  0
LINE
  5
10D
  8
3
  6
CONTINUOUS
 62
     7
 10
-158.193741096848
 20
644.5
 30
0.0
 11
-157.3
 21
644.5
 31
0.0
  0
ARC
  5
10E
  8
3
  6
CONTINUOUS
 62
     7
 10
-157.3
 20
643.7
 30
0.0
 40
0.800000000000002
 50
0.0
 51
89.99999999999898
  0
LINE
  5
10F
  8
3
  6
CONTINUOUS
 62
     7
 10
-156.5
 20
643.7
 30
0.0
 11
-156.5
 21
642.806258903152
 31
0.0
  0
ARC
  5
110
  8
3
  6
CONTINUOUS
 62
     7
 10
-156.0
 20
645.0
 30
0.0
 40
2.250000000000005
 50
257.1604115930959
 51
282.8395884069041
  0
LINE
  5
111
  8
3
  6
CONTINUOUS
 62
     7
 10
-155.5
 20
642.806258903152
 30
0.0
 11
-155.5
 21
643.7
 31
0.0
  0
ARC
  5
112
  8
3
  6
CONTINUOUS
 62
     7
 10
-154.7
 20
643.7
 30
0.0
 40
0.800000000000009
 50
90.0
 51
179.9999999999995
  0
LINE
  5
113
  8
3
  6
CONTINUOUS
 62
     7
 10
-154.7
 20
644.5
 30
0.0
 11
-153.8062589031519
 21
644.5
 31
0.0
  0
ARC
  5
114
  8
3
  6
CONTINUOUS
 62
     7
 10
-156.0
 20
645.0
 30
0.0
 40
2.249999999999998
 50
347.1604115930958
 51
12.83958840690417
  0
LINE
  5
115
  8
3
  6
CONTINUOUS
 62
     7
 10
-153.8062589031519
 20
645.5
 30
0.0
 11
-154.7
 21
645.5
 31
0.0
  0
ARC
  5
116
  8
3
  6
CONTINUOUS
 62
     7
 10
-154.6999999999999
 20
646.3
 30
0.0
 40
0.800000000000002
 50
180.0
 51
269.999999999999
  0
LINE
  5
117
  8
3
  6
CONTINUOUS
 62
     7
 10
-155.5
 20
646.3
 30
0.0
 11
-155.5
 21
647.193741096848
 31
0.0
  0
ARC
  5
118
  8
3
  6
CONTINUOUS
 62
     7
 10
-3.999999999999976
 20
645.0
 30
0.0
 40
2.250000000000005
 50
77.16041159309587
 51
102.8395884069042
  0
LINE
  5
119
  8
3
  6
CONTINUOUS
 62
     7
 10
-4.499999999999976
 20
647.193741096848
 30
0.0
 11
-4.499999999999976
 21
646.3
 31
0.0
  0
ARC
  5
11A
  8
3
  6
CONTINUOUS
 62
     7
 10
-5.299999999999971
 20
646.3
 30
0.0
 40
0.800000000000009
 50
270.0
 51
0.0
  0
LINE
  5
11B
  8
3
  6
CONTINUOUS
 62
     7
 10
-5.299999999999971
 20
645.5
 30
0.0
 11
-6.193741096848004
 21
645.5
 31
0.0
  0
ARC
  5
11C
  8
3
  6
CONTINUOUS
 62
     7
 10
-3.999999999999976
 20
645.0
 30
0.0
 40
2.249999999999998
 50
167.1604115930958
 51
192.8395884069042
  0
LINE
  5
11D
  8
3
  6
CONTINUOUS
 62
     7
 10
-6.193741096848004
 20
644.5
 30
0.0
 11
-5.299999999999971
 21
644.5
 31
0.0
  0
ARC
  5
11E
  8
3
  6
CONTINUOUS
 62
     7
 10
-5.299999999999986
 20
643.7
 30
0.0
 40
0.800000000000002
 50
0.0
 51
89.99999999999898
  0
LINE
  5
11F
  8
3
  6
CONTINUOUS
 62
     7
 10
-4.499999999999976
 20
643.7
 30
0.0
 11
-4.499999999999976
 21
642.806258903152
 31
0.0
  0
ARC
  5
120
  8
3
  6
CONTINUOUS
 62
     7
 10
-3.999999999999976
 20
645.0
 30
0.0
 40
2.250000000000005
 50
257.1604115930959
 51
282.8395884069041
  0
LINE
  5
121
  8
3
  6
CONTINUOUS
 62
     7
 10
-3.499999999999975
 20
642.806258903152
 30
0.0
 11
-3.499999999999975
 21
643.7
 31
0.0
  0
ARC
  5
122
  8
3
  6
CONTINUOUS
 62
     7
 10
-2.69999999999998
 20
643.7
 30
0.0
 40
0.800000000000009
 50
90.0
 51
179.9999999999995
  0
LINE
  5
123
  8
3
  6
CONTINUOUS
 62
     7
 10
-2.69999999999998
 20
644.5
 30
0.0
 11
-1.806258903151947
 21
644.5
 31
0.0
  0
ARC
  5
124
  8
3
  6
CONTINUOUS
 62
     7
 10
-3.999999999999976
 20
645.0
 30
0.0
 40
2.249999999999998
 50
347.1604115930958
 51
12.83958840690417
  0
LINE
  5
125
  8
3
  6
CONTINUOUS
 62
     7
 10
-1.806258903151947
 20
645.5
 30
0.0
 11
-2.69999999999998
 21
645.5
 31
0.0
  0
ARC
  5
126
  8
3
  6
CONTINUOUS
 62
     7
 10
-2.699999999999966
 20
646.3
 30
0.0
 40
0.800000000000002
 50
180.0
 51
269.999999999999
  0
LINE
  5
127
  8
3
  6
CONTINUOUS
 62
     7
 10
-3.499999999999975
 20
646.3
 30
0.0
 11
-3.499999999999975
 21
647.193741096848
 31
0.0
  0
ARC
  5
128
  8
3
  6
CONTINUOUS
 62
     7
 10
-3.999999999999976
 20
750.0
 30
0.0
 40
2.250000000000005
 50
77.16041159309587
 51
102.8395884069042
  0
LINE
  5
129
  8
3
  6
CONTINUOUS
 62
     7
 10
-4.499999999999976
 20
752.1937410968479
 30
0.0
 11
-4.499999999999976
 21
751.3
 31
0.0
  0
ARC
  5
12A
  8
3
  6
CONTINUOUS
 62
     7
 10
-5.299999999999971
 20
751.3
 30
0.0
 40
0.800000000000009
 50
270.0
 51
0.0
  0
LINE
  5
12B
  8
3
  6
CONTINUOUS
 62
     7
 10
-5.299999999999971
 20
750.5
 30
0.0
 11
-6.193741096848004
 21
750.5
 31
0.0
  0
ARC
  5
12C
  8
3
  6
CONTINUOUS
 62
     7
 10
-3.999999999999976
 20
750.0
 30
0.0
 40
2.249999999999998
 50
167.1604115930958
 51
192.8395884069042
  0
LINE
  5
12D
  8
3
  6
CONTINUOUS
 62
     7
 10
-6.193741096848004
 20
749.5
 30
0.0
 11
-5.299999999999971
 21
749.5
 31
0.0
  0
ARC
  5
12E
  8
3
  6
CONTINUOUS
 62
     7
 10
-5.299999999999986
 20
748.7
 30
0.0
 40
0.800000000000002
 50
0.0
 51
89.99999999999898
  0
LINE
  5
12F
  8
3
  6
CONTINUOUS
 62
     7
 10
-4.499999999999976
 20
748.7
 30
0.0
 11
-4.499999999999976
 21
747.806258903152
 31
0.0
  0
ARC
  5
130
  8
3
  6
CONTINUOUS
 62
     7
 10
-3.999999999999976
 20
750.0
 30
0.0
 40
2.250000000000005
 50
257.1604115930959
 51
282.8395884069041
  0
LINE
  5
131
  8
3
  6
CONTINUOUS
 62
     7
 10
-3.499999999999975
 20
747.806258903152
 30
0.0
 11
-3.499999999999975
 21
748.7
 31
0.0
  0
ARC
  5
132
  8
3
  6
CONTINUOUS
 62
     7
 10
-2.69999999999998
 20
748.7
 30
0.0
 40
0.800000000000009
 50
90.0
 51
179.9999999999995
  0
LINE
  5
133
  8
3
  6
CONTINUOUS
 62
     7
 10
-2.69999999999998
 20
749.5
 30
0.0
 11
-1.806258903151947
 21
749.5
 31
0.0
  0
ARC
  5
134
  8
3
  6
CONTINUOUS
 62
     7
 10
-3.999999999999976
 20
750.0
 30
0.0
 40
2.249999999999998
 50
347.1604115930958
 51
12.83958840690417
  0
LINE
  5
135
  8
3
  6
CONTINUOUS
 62
     7
 10
-1.806258903151947
 20
750.5
 30
0.0
 11
-2.69999999999998
 21
750.5
 31
0.0
  0
ARC
  5
136
  8
3
  6
CONTINUOUS
 62
     7
 10
-2.699999999999966
 20
751.3
 30
0.0
 40
0.800000000000002
 50
180.0
 51
269.999999999999
  0
LINE
  5
137
  8
3
  6
CONTINUOUS
 62
     7
 10
-3.499999999999975
 20
751.3
 30
0.0
 11
-3.499999999999975
 21
752.1937410968479
 31
0.0
  0
ARC
  5
138
  8
3
  6
CONTINUOUS
 62
     7
 10
-156.0
 20
750.0
 30
0.0
 40
2.250000000000005
 50
77.16041159309587
 51
102.8395884069042
  0
LINE
  5
139
  8
3
  6
CONTINUOUS
 62
     7
 10
-156.5
 20
752.1937410968479
 30
0.0
 11
-156.5
 21
751.3
 31
0.0
  0
ARC
  5
13A
  8
3
  6
CONTINUOUS
 62
     7
 10
-157.3
 20
751.3
 30
0.0
 40
0.800000000000009
 50
270.0
 51
0.0
  0
LINE
  5
13B
  8
3
  6
CONTINUOUS
 62
     7
 10
-157.3
 20
750.5
 30
0.0
 11
-158.193741096848
 21
750.5
 31
0.0
  0
ARC
  5
13C
  8
3
  6
CONTINUOUS
 62
     7
 10
-156.0
 20
750.0
 30
0.0
 40
2.249999999999998
 50
167.1604115930958
 51
192.8395884069042
  0
LINE
  5
13D
  8
3
  6
CONTINUOUS
 62
     7
 10
-158.193741096848
 20
749.5
 30
0.0
 11
-157.3
 21
749.5
 31
0.0
  0
ARC
  5
13E
  8
3
  6
CONTINUOUS
 62
     7
 10
-157.3
 20
748.7
 30
0.0
 40
0.800000000000002
 50
0.0
 51
89.99999999999898
  0
LINE
  5
13F
  8
3
  6
CONTINUOUS
 62
     7
 10
-156.5
 20
748.7
 30
0.0
 11
-156.5
 21
747.806258903152
 31
0.0
  0
ARC
  5
140
  8
3
  6
CONTINUOUS
 62
     7
 10
-156.0
 20
750.0
 30
0.0
 40
2.250000000000005
 50
257.1604115930959
 51
282.8395884069041
  0
LINE
  5
141
  8
3
  6
CONTINUOUS
 62
     7
 10
-155.5
 20
747.806258903152
 30
0.0
 11
-155.5
 21
748.7
 31
0.0
  0
ARC
  5
142
  8
3
  6
CONTINUOUS
 62
     7
 10
-154.7
 20
748.7
 30
0.0
 40
0.800000000000009
 50
90.0
 51
179.9999999999995
  0
LINE
  5
143
  8
3
  6
CONTINUOUS
 62
     7
 10
-154.7
 20
749.5
 30
0.0
 11
-153.8062589031519
 21
749.5
 31
0.0
  0
ARC
  5
144
  8
3
  6
CONTINUOUS
 62
     7
 10
-156.0
 20
750.0
 30
0.0
 40
2.249999999999998
 50
347.1604115930958
 51
12.83958840690417
  0
LINE
  5
145
  8
3
  6
CONTINUOUS
 62
     7
 10
-153.8062589031519
 20
750.5
 30
0.0
 11
-154.7
 21
750.5
 31
0.0
  0
ARC
  5
146
  8
3
  6
CONTINUOUS
 62
     7
 10
-154.6999999999999
 20
751.3
 30
0.0
 40
0.800000000000002
 50
180.0
 51
269.999999999999
  0
LINE
  5
147
  8
3
  6
CONTINUOUS
 62
     7
 10
-155.5
 20
751.3
 30
0.0
 11
-155.5
 21
752.1937410968479
 31
0.0
  0
LINE
  5
148
  8
3
  6
CONTINUOUS
 62
     9
 10
-55.75
 20
662.5
 30
0.0
 11
-55.65000000000001
 21
662.5
 31
0.0
  0
CIRCLE
  5
149
  8
3
  6
CONTINUOUS
 62
     7
 10
-156.0
 20
645.0
 30
0.0
 40
4.000000000000004
  0
ARC
  5
14A
  8
3
  6
CONTINUOUS
 62
     7
 10
6.150000000000002
 20
669.8000000000001
 30
0.0
 40
1.000000000000001
 50
270.0
 51
0.0
  0
LINE
  5
14B
  8
3
  6
CONTINUOUS
 62
     7
 10
5.150000000000002
 20
668.8000000000001
 30
0.0
 11
6.150000000000002
 21
668.8000000000001
 31
0.0
  0
ARC
  5
14C
  8
3
  6
CONTINUOUS
 62
     7
 10
5.150000000000002
 20
667.8000000000001
 30
0.0
 40
1.000000000000001
 50
90.0
 51
180.0
  0
LINE
  5
14D
  8
3
  6
CONTINUOUS
 62
     7
 10
4.150000000000001
 20
655.2
 30
0.0
 11
4.150000000000001
 21
667.8
 31
0.0
  0
ARC
  5
14E
  8
3
  6
CONTINUOUS
 62
     7
 10
5.150000000000002
 20
655.2
 30
0.0
 40
1.000000000000001
 50
180.0
 51
270.0
  0
LINE
  5
14F
  8
3
  6
CONTINUOUS
 62
     7
 10
6.150000000000002
 20
654.2
 30
0.0
 11
5.150000000000002
 21
654.2
 31
0.0
  0
ARC
  5
150
  8
3
  6
CONTINUOUS
 62
     7
 10
6.150000000000002
 20
653.2
 30
0.0
 40
1.000000000000001
 50
0.0
 51
90.0
  0
LINE
  5
151
  8
3
  6
CONTINUOUS
 62
     7
 10
7.150000000000003
 20
643.3499999999999
 30
0.0
 11
7.150000000000003
 21
653.2
 31
0.0
  0
ARC
  5
152
  8
3
  6
CONTINUOUS
 62
     7
 10
4.150000000000001
 20
643.3499999999999
 30
0.0
 40
3.000000000000003
 50
270.0000000000005
 51
0.0
  0
LINE
  5
153
  8
3
  6
CONTINUOUS
 62
     7
 10
-164.15
 20
640.3499999999999
 30
0.0
 11
4.150000000000015
 21
640.3499999999999
 31
0.0
  0
ARC
  5
154
  8
3
  6
CONTINUOUS
 62
     7
 10
-164.15
 20
643.3499999999999
 30
0.0
 40
3.000000000000003
 50
180.0
 51
270.0
  0
LINE
  5
155
  8
3
  6
CONTINUOUS
 62
     7
 10
-167.15
 20
653.2
 30
0.0
 11
-167.15
 21
643.3499999999999
 31
0.0
  0
ARC
  5
156
  8
3
  6
CONTINUOUS
 62
     7
 10
-166.15
 20
653.2
 30
0.0
 40
1.000000000000001
 50
90.0
 51
180.0
  0
LINE
  5
157
  8
3
  6
CONTINUOUS
 62
     7
 10
-165.15
 20
654.2
 30
0.0
 11
-166.15
 21
654.2
 31
0.0
  0
ARC
  5
158
  8
3
  6
CONTINUOUS
 62
     7
 10
-165.15
 20
655.2
 30
0.0
 40
1.000000000000001
 50
270.0
 51
0.0
  0
LINE
  5
159
  8
3
  6
CONTINUOUS
 62
     7
 10
-164.15
 20
667.8000000000001
 30
0.0
 11
-164.15
 21
655.2
 31
0.0
  0
ARC
  5
15A
  8
3
  6
CONTINUOUS
 62
     7
 10
-165.15
 20
667.8000000000001
 30
0.0
 40
1.000000000000001
 50
0.0
 51
90.0
  0
LINE
  5
15B
  8
3
  6
CONTINUOUS
 62
     7
 10
-166.15
 20
668.8000000000001
 30
0.0
 11
-165.15
 21
668.8000000000001
 31
0.0
  0
ARC
  5
15C
  8
3
  6
CONTINUOUS
 62
     7
 10
-166.15
 20
669.8000000000001
 30
0.0
 40
1.000000000000001
 50
180.0
 51
270.0
  0
LINE
  5
15D
  8
3
  6
CONTINUOUS
 62
     7
 10
-167.15
 20
725.1999999999999
 30
0.0
 11
-167.15
 21
669.8
 31
0.0
  0
ARC
  5
15E
  8
3
  6
CONTINUOUS
 62
     7
 10
-166.15
 20
725.1999999999999
 30
0.0
 40
1.000000000000001
 50
90.0
 51
180.0
  0
LINE
  5
15F
  8
3
  6
CONTINUOUS
 62
     7
 10
-165.15
 20
726.1999999999999
 30
0.0
 11
-166.15
 21
726.1999999999999
 31
0.0
  0
ARC
  5
160
  8
3
  6
CONTINUOUS
 62
     7
 10
-165.15
 20
727.1999999999999
 30
0.0
 40
1.000000000000001
 50
270.0
 51
0.0
  0
LINE
  5
161
  8
3
  6
CONTINUOUS
 62
     7
 10
-164.15
 20
739.8
 30
0.0
 11
-164.15
 21
727.2
 31
0.0
  0
ARC
  5
162
  8
3
  6
CONTINUOUS
 62
     7
 10
-165.15
 20
739.8
 30
0.0
 40
1.000000000000001
 50
0.0
 51
90.0
  0
LINE
  5
163
  8
3
  6
CONTINUOUS
 62
     7
 10
-166.15
 20
740.8
 30
0.0
 11
-165.15
 21
740.8
 31
0.0
  0
ARC
  5
164
  8
3
  6
CONTINUOUS
 62
     7
 10
-166.15
 20
741.8
 30
0.0
 40
1.000000000000001
 50
180.0
 51
270.0
  0
LINE
  5
165
  8
3
  6
CONTINUOUS
 62
     7
 10
-167.15
 20
751.65
 30
0.0
 11
-167.15
 21
741.8
 31
0.0
  0
ARC
  5
166
  8
3
  6
CONTINUOUS
 62
     7
 10
-164.15
 20
751.65
 30
0.0
 40
3.000000000000003
 50
90.00000000000054
 51
180.0
  0
LINE
  5
167
  8
3
  6
CONTINUOUS
 62
     7
 10
4.150000000000001
 20
754.65
 30
0.0
 11
-164.15
 21
754.65
 31
0.0
  0
ARC
  5
168
  8
3
  6
CONTINUOUS
 62
     7
 10
4.150000000000001
 20
751.65
 30
0.0
 40
3.000000000000003
 50
0.0
 51
90.0
  0
LINE
  5
169
  8
3
  6
CONTINUOUS
 62
     7
 10
7.150000000000003
 20
741.8
 30
0.0
 11
7.150000000000003
 21
751.65
 31
0.0
  0
ARC
  5
16A
  8
3
  6
CONTINUOUS
 62
     7
 10
6.150000000000002
 20
741.8
 30
0.0
 40
1.000000000000001
 50
270.0
 51
0.0
  0
LINE
  5
16B
  8
3
  6
CONTINUOUS
 62
     7
 10
5.150000000000002
 20
740.8
 30
0.0
 11
6.150000000000002
 21
740.8
 31
0.0
  0
ARC
  5
16C
  8
3
  6
CONTINUOUS
 62
     7
 10
5.150000000000002
 20
739.8
 30
0.0
 40
1.000000000000001
 50
90.0
 51
180.0
  0
LINE
  5
16D
  8
3
  6
CONTINUOUS
 62
     7
 10
4.150000000000001
 20
727.1999999999999
 30
0.0
 11
4.150000000000001
 21
739.8
 31
0.0
  0
ARC
  5
16E
  8
3
  6
CONTINUOUS
 62
     7
 10
5.150000000000002
 20
727.1999999999999
 30
0.0
 40
1.000000000000001
 50
180.0
 51
270.0
  0
LINE
  5
16F
  8
3
  6
CONTINUOUS
 62
     7
 10
6.150000000000002
 20
726.1999999999999
 30
0.0
 11
5.150000000000002
 21
726.1999999999999
 31
0.0
  0
ARC
  5
170
  8
3
  6
CONTINUOUS
 62
     7
 10
6.150000000000002
 20
725.1999999999999
 30
0.0
 40
1.000000000000001
 50
0.0
 51
90.0
  0
LINE
  5
171
  8
3
  6
CONTINUOUS
 62
     7
 10
7.150000000000003
 20
669.8000000000001
 30
0.0
 11
7.150000000000003
 21
725.2
 31
0.0
  0
CIRCLE
  5
172
  8
3
  6
CONTINUOUS
 62
     7
 10
-156.0
 20
750.0
 30
0.0
 40
4.000000000000004
  0
ARC
  5
173
  8
3
  6
CONTINUOUS
 62
     7
 10
-157.7
 20
745.5
 30
0.0
 40
0.5000000000000004
 50
90.0
 51
180.0
  0
LINE
  5
174
  8
3
  6
CONTINUOUS
 62
     7
 10
-158.2
 20
745.5
 30
0.0
 11
-158.2
 21
744.8
 31
0.0
  0
ARC
  5
175
  8
3
  6
CONTINUOUS
 62
     7
 10
-157.7
 20
744.8
 30
0.0
 40
0.5000000000000004
 50
180.0000000000024
 51
270.0
  0
LINE
  5
176
  8
3
  6
CONTINUOUS
 62
     7
 10
-157.7
 20
744.3
 30
0.0
 11
-154.3
 21
744.3
 31
0.0
  0
CIRCLE
  5
177
  8
3
  6
CONTINUOUS
 62
     7
 10
-3.999999999999976
 20
750.0
 30
0.0
 40
4.000000000000004
  0
LINE
  5
178
  8
3
  6
CONTINUOUS
 62
     7
 10
-1.799999999999982
 20
744.8
 30
0.0
 11
-1.799999999999982
 21
745.5
 31
0.0
  0
LINE
  5
179
  8
3
  6
CONTINUOUS
 62
     7
 10
-2.299999999999983
 20
650.7
 30
0.0
 11
-5.699999999999969
 21
650.7
 31
0.0
  0
ARC
  5
17A
  8
3
  6
CONTINUOUS
 62
     7
 10
-5.699999999999969
 20
650.1999999999999
 30
0.0
 40
0.5000000000000004
 50
90.0
 51
180.0
  0
CIRCLE
  5
17B
  8
3
  6
CONTINUOUS
 62
     7
 10
-3.999999999999976
 20
645.0
 30
0.0
 40
4.000000000000004
  0
ARC
  5
17C
  8
3
  6
CONTINUOUS
 62
     7
 10
-2.299999999999983
 20
650.1999999999999
 30
0.0
 40
0.5000000000000004
 50
359.9999999999993
 51
90.0
  0
ARC
  5
17D
  8
3
  6
CONTINUOUS
 62
     7
 10
-154.3
 20
650.1999999999999
 30
0.0
 40
0.5000000000000004
 50
359.9999999999993
 51
90.0
  0
ARC
  5
17E
  8
3
  6
CONTINUOUS
 62
     7
 10
-86.60000000000001
 20
653.0
 30
0.0
 40
1.5
 50
270.0
 51
0.0
  0
LINE
  5
17F
  8
3
  6
CONTINUOUS
 62
     7
 10
-85.10000000000001
 20
653.0
 30
0.0
 11
-85.10000000000001
 21
655.75
 31
0.0
  0
ARC
  5
180
  8
3
  6
CONTINUOUS
 62
     7
 10
-80.0
 20
655.75
 30
0.0
 40
5.100000000000001
 50
0.0
 51
180.0000000000001
  0
LINE
  5
181
  8
3
  6
CONTINUOUS
 62
     7
 10
-74.89999999999999
 20
655.75
 30
0.0
 11
-74.89999999999999
 21
653.0
 31
0.0
  0
ARC
  5
182
  8
3
  6
CONTINUOUS
 62
     7
 10
-73.4
 20
653.0
 30
0.0
 40
1.500000000000001
 50
180.0
 51
270.0
  0
LINE
  5
183
  8
3
  6
CONTINUOUS
 62
     7
 10
-73.4
 20
651.5
 30
0.0
 11
-40.60000000000001
 21
651.5
 31
0.0
  0
ARC
  5
184
  8
3
  6
CONTINUOUS
 62
     7
 10
-40.60000000000001
 20
653.0
 30
0.0
 40
1.500000000000001
 50
270.0
 51
0.0
  0
LINE
  5
185
  8
3
  6
CONTINUOUS
 62
     7
 10
-39.1
 20
653.0
 30
0.0
 11
-39.1
 21
655.75
 31
0.0
  0
ARC
  5
186
  8
3
  6
CONTINUOUS
 62
     7
 10
-34.0
 20
655.75
 30
0.0
 40
5.100000000000001
 50
0.0
 51
180.0000000000001
  0
LINE
  5
187
  8
3
  6
CONTINUOUS
 62
     7
 10
-28.9
 20
655.75
 30
0.0
 11
-28.9
 21
653.0
 31
0.0
  0
ARC
  5
188
  8
3
  6
CONTINUOUS
 62
     7
 10
-27.39999999999999
 20
653.0
 30
0.0
 40
1.500000000000001
 50
180.0
 51
270.0
  0
LINE
  5
189
  8
3
  6
CONTINUOUS
 62
     7
 10
-27.39999999999999
 20
651.5
 30
0.0
 11
-12.0
 21
651.5
 31
0.0
  0
ARC
  5
18A
  8
3
  6
CONTINUOUS
 62
     7
 10
-12.0
 20
653.0
 30
0.0
 40
1.500000000000001
 50
270.0
 51
0.0
  0
LINE
  5
18B
  8
3
  6
CONTINUOUS
 62
     7
 10
-10.49999999999999
 20
653.0
 30
0.0
 11
-10.49999999999999
 21
742.0
 31
0.0
  0
ARC
  5
18C
  8
3
  6
CONTINUOUS
 62
     7
 10
-12.0
 20
742.0
 30
0.0
 40
1.500000000000001
 50
0.0000000000010602
 51
90.00000000000001
  0
LINE
  5
18D
  8
3
  6
CONTINUOUS
 62
     7
 10
-12.0
 20
743.5
 30
0.0
 11
-27.4
 21
743.5
 31
0.0
  0
ARC
  5
18E
  8
3
  6
CONTINUOUS
 62
     7
 10
-27.4
 20
742.0
 30
0.0
 40
1.500000000000001
 50
90.0
 51
180.0
  0
LINE
  5
18F
  8
3
  6
CONTINUOUS
 62
     7
 10
-28.9
 20
739.25
 30
0.0
 11
-28.9
 21
742.0
 31
0.0
  0
ARC
  5
190
  8
3
  6
CONTINUOUS
 62
     7
 10
-34.0
 20
739.25
 30
0.0
 40
5.100000000000001
 50
179.9999999999999
 51
0.0
  0
LINE
  5
191
  8
3
  6
CONTINUOUS
 62
     7
 10
-39.1
 20
742.0
 30
0.0
 11
-39.1
 21
739.25
 31
0.0
  0
ARC
  5
192
  8
3
  6
CONTINUOUS
 62
     7
 10
-40.6
 20
742.0
 30
0.0
 40
1.500000000000001
 50
0.0
 51
90.0
  0
LINE
  5
193
  8
3
  6
CONTINUOUS
 62
     7
 10
-40.6
 20
743.5
 30
0.0
 11
-73.39999999999999
 21
743.5
 31
0.0
  0
ARC
  5
194
  8
3
  6
CONTINUOUS
 62
     7
 10
-73.39999999999999
 20
742.0
 30
0.0
 40
1.5
 50
90.0
 51
180.0
  0
LINE
  5
195
  8
3
  6
CONTINUOUS
 62
     7
 10
-74.89999999999999
 20
739.25
 30
0.0
 11
-74.89999999999999
 21
742.0
 31
0.0
  0
ARC
  5
196
  8
3
  6
CONTINUOUS
 62
     7
 10
-80.0
 20
739.25
 30
0.0
 40
5.100000000000001
 50
179.9999999999999
 51
0.0
  0
LINE
  5
197
  8
3
  6
CONTINUOUS
 62
     7
 10
-85.10000000000001
 20
742.0
 30
0.0
 11
-85.10000000000001
 21
739.25
 31
0.0
  0
ARC
  5
198
  8
3
  6
CONTINUOUS
 62
     7
 10
-86.6
 20
742.0
 30
0.0
 40
1.500000000000001
 50
0.0
 51
90.0
  0
LINE
  5
199
  8
3
  6
CONTINUOUS
 62
     7
 10
-86.6
 20
743.5
 30
0.0
 11
-119.4
 21
743.5
 31
0.0
  0
ARC
  5
19A
  8
3
  6
CONTINUOUS
 62
     7
 10
-119.4
 20
742.0
 30
0.0
 40
1.500000000000001
 50
90.0
 51
180.0
  0
LINE
  5
19B
  8
3
  6
CONTINUOUS
 62
     7
 10
-120.9
 20
739.25
 30
0.0
 11
-120.9
 21
742.0
 31
0.0
  0
ARC
  5
19C
  8
3
  6
CONTINUOUS
 62
     7
 10
-126.0
 20
739.25
 30
0.0
 40
5.100000000000001
 50
179.9999999999999
 51
0.0
  0
LINE
  5
19D
  8
3
  6
CONTINUOUS
 62
     7
 10
-131.1
 20
742.0
 30
0.0
 11
-131.1
 21
739.25
 31
0.0
  0
ARC
  5
19E
  8
3
  6
CONTINUOUS
 62
     7
 10
-132.6
 20
742.0
 30
0.0
 40
1.500000000000001
 50
0.0
 51
90.0
  0
LINE
  5
19F
  8
3
  6
CONTINUOUS
 62
     7
 10
-132.6
 20
743.5
 30
0.0
 11
-148.0
 21
743.5
 31
0.0
  0
ARC
  5
1A0
  8
3
  6
CONTINUOUS
 62
     7
 10
-148.0
 20
742.0
 30
0.0
 40
1.500000000000001
 50
90.0
 51
180.0
  0
LINE
  5
1A1
  8
3
  6
CONTINUOUS
 62
     7
 10
-149.5
 20
742.0
 30
0.0
 11
-149.5
 21
653.0
 31
0.0
  0
ARC
  5
1A2
  8
3
  6
CONTINUOUS
 62
     7
 10
-148.0
 20
653.0
 30
0.0
 40
1.500000000000001
 50
180.0000000000008
 51
270.0
  0
LINE
  5
1A3
  8
3
  6
CONTINUOUS
 62
     7
 10
-148.0
 20
651.5
 30
0.0
 11
-132.6
 21
651.5
 31
0.0
  0
ARC
  5
1A4
  8
3
  6
CONTINUOUS
 62
     7
 10
-132.6
 20
653.0
 30
0.0
 40
1.500000000000001
 50
270.0
 51
0.0
  0
LINE
  5
1A5
  8
3
  6
CONTINUOUS
 62
     7
 10
-131.1
 20
653.0
 30
0.0
 11
-131.1
 21
655.75
 31
0.0
  0
ARC
  5
1A6
  8
3
  6
CONTINUOUS
 62
     7
 10
-126.0
 20
655.75
 30
0.0
 40
5.100000000000001
 50
0.0
 51
180.0000000000001
  0
LINE
  5
1A7
  8
3
  6
CONTINUOUS
 62
     7
 10
-120.9
 20
655.75
 30
0.0
 11
-120.9
 21
653.0
 31
0.0
  0
ARC
  5
1A8
  8
3
  6
CONTINUOUS
 62
     7
 10
-119.4
 20
653.0
 30
0.0
 40
1.500000000000001
 50
180.0
 51
270.0
  0
LINE
  5
1A9
  8
3
  6
CONTINUOUS
 62
     7
 10
-119.4
 20
651.5
 30
0.0
 11
-86.60000000000001
 21
651.5
 31
0.0
  0
CIRCLE
  5
1AA
  8
3
  6
CONTINUOUS
 62
     7
 10
-126.0
 20
655.75
 30
0.0
 40
3.999999999999996
  0
CIRCLE
  5
1AB
  8
3
  6
CONTINUOUS
 62
     7
 10
-79.99999999999999
 20
655.75
 30
0.0
 40
3.999999999999997
  0
CIRCLE
  5
1AC
  8
3
  6
CONTINUOUS
 62
     7
 10
-33.99999999999999
 20
655.75
 30
0.0
 40
3.999999999999996
  0
CIRCLE
  5
1AD
  8
3
  6
CONTINUOUS
 62
     7
 10
-126.0
 20
739.2500000000001
 30
0.0
 40
3.999999999999996
  0
CIRCLE
  5
1AE
  8
3
  6
CONTINUOUS
 62
     7
 10
-79.99999999999999
 20
739.2500000000001
 30
0.0
 40
3.999999999999997
  0
CIRCLE
  5
1AF
  8
3
  6
CONTINUOUS
 62
     7
 10
-33.99999999999999
 20
739.2500000000001
 30
0.0
 40
3.999999999999996
  0
ARC
  5
1B0
  8
3
  6
CONTINUOUS
 62
     7
 10
-154.3
 20
745.5
 30
0.0
 40
0.5000000000000004
 50
359.9999999999993
 51
90.0
  0
LINE
  5
1B1
  8
3
  6
CONTINUOUS
 62
     7
 10
-153.8
 20
649.5
 30
0.0
 11
-153.8
 21
650.1999999999999
 31
0.0
  0
ARC
  5
1B2
  8
3
  6
CONTINUOUS
 62
     7
 10
-154.3
 20
649.5
 30
0.0
 40
0.5000000000000004
 50
270.0
 51
0.0
  0
ARC
  5
1B3
  8
3
  6
CONTINUOUS
 62
     7
 10
-157.7
 20
649.5
 30
0.0
 40
0.5000000000000004
 50
180.0000000000024
 51
270.0
  0
LINE
  5
1B4
  8
3
  6
CONTINUOUS
 62
     7
 10
-158.2
 20
650.1999999999999
 30
0.0
 11
-158.2
 21
649.5
 31
0.0
  0
ARC
  5
1B5
  8
3
  6
CONTINUOUS
 62
     7
 10
-157.7
 20
650.1999999999999
 30
0.0
 40
0.5000000000000004
 50
90.0
 51
180.0
  0
LINE
  5
1B6
  8
3
  6
CONTINUOUS
 62
     7
 10
-154.3
 20
650.7
 30
0.0
 11
-157.7
 21
650.7
 31
0.0
  0
LINE
  5
1B7
  8
3
  6
CONTINUOUS
 62
     7
 10
-1.799999999999982
 20
649.5
 30
0.0
 11
-1.799999999999982
 21
650.1999999999999
 31
0.0
  0
ARC
  5
1B8
  8
3
  6
CONTINUOUS
 62
     7
 10
-2.299999999999983
 20
649.5
 30
0.0
 40
0.5000000000000004
 50
270.0
 51
0.0
  0
ARC
  5
1B9
  8
3
  6
CONTINUOUS
 62
     7
 10
-5.699999999999969
 20
649.5
 30
0.0
 40
0.5000000000000004
 50
180.0000000000024
 51
270.0
  0
LINE
  5
1BA
  8
3
  6
CONTINUOUS
 62
     7
 10
-6.199999999999969
 20
650.1999999999999
 30
0.0
 11
-6.199999999999969
 21
649.5
 31
0.0
  0
ARC
  5
1BB
  8
3
  6
CONTINUOUS
 62
     7
 10
-2.299999999999983
 20
744.8
 30
0.0
 40
0.5000000000000004
 50
270.0
 51
0.0
  0
LINE
  5
1BC
  8
3
  6
CONTINUOUS
 62
     7
 10
-5.699999999999969
 20
744.3
 30
0.0
 11
-2.299999999999983
 21
744.3
 31
0.0
  0
ARC
  5
1BD
  8
3
  6
CONTINUOUS
 62
     7
 10
-5.699999999999969
 20
744.8
 30
0.0
 40
0.5000000000000004
 50
180.0000000000024
 51
270.0
  0
LINE
  5
1BE
  8
3
  6
CONTINUOUS
 62
     7
 10
-6.199999999999969
 20
745.5
 30
0.0
 11
-6.199999999999969
 21
744.8
 31
0.0
  0
ARC
  5
1BF
  8
3
  6
CONTINUOUS
 62
     7
 10
-5.699999999999969
 20
745.5
 30
0.0
 40
0.5000000000000004
 50
90.0
 51
180.0
  0
ARC
  5
1C0
  8
3
  6
CONTINUOUS
 62
     7
 10
-2.299999999999983
 20
745.5
 30
0.0
 40
0.5000000000000004
 50
359.9999999999993
 51
90.0
  0
LINE
  5
1C1
  8
3
  6
CONTINUOUS
 62
     7
 10
-153.8
 20
744.8
 30
0.0
 11
-153.8
 21
745.5
 31
0.0
  0
ARC
  5
1C2
  8
3
  6
CONTINUOUS
 62
     7
 10
-154.3
 20
744.8
 30
0.0
 40
0.5000000000000004
 50
270.0
 51
0.0
  0
CIRCLE
  5
1C3
  8
3
  6
CONTINUOUS
 62
     7
 10
-33.99999999999999
 20
739.2500000000001
 30
0.0
 40
2.099999999999998
  0
CIRCLE
  5
1C4
  8
3
  6
CONTINUOUS
 62
     7
 10
-79.99999999999999
 20
655.75
 30
0.0
 40
2.099999999999998
  0
CIRCLE
  5
1C5
  8
3
  6
CONTINUOUS
 62
     7
 10
-126.0
 20
655.75
 30
0.0
 40
2.099999999999998
  0
CIRCLE
  5
1C6
  8
3
  6
CONTINUOUS
 62
     7
 10
-79.99999999999999
 20
739.2500000000001
 30
0.0
 40
2.099999999999998
  0
CIRCLE
  5
1C7
  8
3
  6
CONTINUOUS
 62
     7
 10
-126.0
 20
739.2500000000001
 30
0.0
 40
2.099999999999998
  0
CIRCLE
  5
1C8
  8
3
  6
CONTINUOUS
 62
     7
 10
-33.99999999999999
 20
655.75
 30
0.0
 40
2.099999999999998
  0
LINE
  5
1C9
  8
3
  6
CONTINUOUS
 62
     7
 10
4.49999999999999
 20
755.2810051428625
 30
0.0
 11
-164.5
 21
755.2810051428625
 31
0.0
  0
LINE
  5
1CA
  8
3
  6
CONTINUOUS
 62
     7
 10
7.781005142862424
 20
643.0
 30
0.0
 11
7.781005142862424
 21
752.0
 31
0.0
  0
ARC
  5
1CB
  8
3
  6
CONTINUOUS
 62
     7
 10
4.49999999999999
 20
752.0
 30
0.0
 40
3.281005142862434
 50
359.9999999999998
 51
90.0
  0
ARC
  5
1CC
  8
3
  6
CONTINUOUS
 62
     7
 10
-164.5
 20
752.0
 30
0.0
 40
3.28100514286244
 50
90.0000000000005
 51
180.0
  0
LINE
  5
1CD
  8
3
  6
CONTINUOUS
 62
     7
 10
-167.7810051428624
 20
752.0
 30
0.0
 11
-167.7810051428624
 21
643.0
 31
0.0
  0
ARC
  5
1CE
  8
3
  6
CONTINUOUS
 62
     7
 10
-164.5
 20
643.0
 30
0.0
 40
3.281005142862434
 50
179.9999999999999
 51
270.0
  0
LINE
  5
1CF
  8
3
  6
CONTINUOUS
 62
     7
 10
-164.5
 20
639.7189948571375
 30
0.0
 11
4.500000000000032
 21
639.7189948571375
 31
0.0
  0
ARC
  5
1D0
  8
3
  6
CONTINUOUS
 62
     7
 10
4.49999999999999
 20
643.0
 30
0.0
 40
3.281005142862434
 50
270.0000000000005
 51
0.0
  0
ARC
  5
1D1
  8
3
  6
CONTINUOUS
 62
     7
 10
-164.5
 20
752.0
 30
0.0
 40
6.500000000000005
 50
90.00000000000026
 51
180.0
  0
ARC
  5
1D2
  8
3
  6
CONTINUOUS
 62
     7
 10
4.49999999999999
 20
752.0
 30
0.0
 40
6.500000000000005
 50
359.9999999999998
 51
90.0
  0
ARC
  5
1D3
  8
3
  6
CONTINUOUS
 62
     7
 10
-164.5
 20
643.0
 30
0.0
 40
6.500000000000005
 50
179.9999999999998
 51
270.0
  0
ARC
  5
1D4
  8
3
  6
CONTINUOUS
 62
     7
 10
4.49999999999999
 20
643.0
 30
0.0
 40
6.499999999999999
 50
270.0000000000002
 51
0.0
  0
LINE
  5
1D5
  8
3
  6
CONTINUOUS
 62
     7
 10
-158.0
 20
650.0
 30
0.0
 11
-158.0
 21
649.7
 31
0.0
  0
ARC
  5
1D6
  8
3
  6
CONTINUOUS
 62
     7
 10
-154.5
 20
650.0
 30
0.0
 40
0.5000000000000004
 50
0.0
 51
90.0
  0
LINE
  5
1D7
  8
3
  6
CONTINUOUS
 62
     7
 10
-154.0
 20
649.7
 30
0.0
 11
-154.0
 21
650.0
 31
0.0
  0
ARC
  5
1D8
  8
3
  6
CONTINUOUS
 62
     7
 10
-154.5
 20
649.7
 30
0.0
 40
0.5000000000000004
 50
270.0
 51
0.0
  0
LINE
  5
1D9
  8
3
  6
CONTINUOUS
 62
     7
 10
-157.5
 20
649.1999999999999
 30
0.0
 11
-154.5
 21
649.1999999999999
 31
0.0
  0
ARC
  5
1DA
  8
3
  6
CONTINUOUS
 62
     7
 10
-157.5
 20
649.6999999999999
 30
0.0
 40
0.5000000000000004
 50
179.9999999999984
 51
269.9999999999984
  0
ARC
  5
1DB
  8
3
  6
CONTINUOUS
 62
     7
 10
-157.5
 20
650.0
 30
0.0
 40
0.5000000000000004
 50
90.00000000000159
 51
180.0
  0
LINE
  5
1DC
  8
3
  6
CONTINUOUS
 62
     7
 10
-154.5
 20
650.5
 30
0.0
 11
-157.5
 21
650.5
 31
0.0
  0
ARC
  5
1DD
  8
3
  6
CONTINUOUS
 62
     7
 10
-5.499999999999977
 20
745.0
 30
0.0
 40
0.5000000000000004
 50
180.0
 51
270.0
  0
LINE
  5
1DE
  8
3
  6
CONTINUOUS
 62
     7
 10
-5.999999999999991
 20
745.3
 30
0.0
 11
-5.999999999999978
 21
745.0
 31
0.0
  0
ARC
  5
1DF
  8
3
  6
CONTINUOUS
 62
     7
 10
-5.499999999999991
 20
745.3
 30
0.0
 40
0.5000000000000004
 50
90.0
 51
180.0
  0
LINE
  5
1E0
  8
3
  6
CONTINUOUS
 62
     7
 10
-5.499999999999977
 20
744.5
 30
0.0
 11
-2.500000000000003
 21
744.5
 31
0.0
  0
ARC
  5
1E1
  8
3
  6
CONTINUOUS
 62
     7
 10
-2.499999999999974
 20
745.3000000000001
 30
0.0
 40
0.5000000000000004
 50
359.9999999999985
 51
89.99999999999841
  0
LINE
  5
1E2
  8
3
  6
CONTINUOUS
 62
     7
 10
-2.000000000000016
 20
745.0
 30
0.0
 11
-1.999999999999974
 21
745.3
 31
0.0
  0
ARC
  5
1E3
  8
3
  6
CONTINUOUS
 62
     7
 10
-2.500000000000016
 20
745.0
 30
0.0
 40
0.5000000000000004
 50
270.0000000000015
 51
0.0
  0
LINE
  5
1E4
  8
3
  6
CONTINUOUS
 62
     7
 10
-2.49999999999996
 20
745.8
 30
0.0
 11
-5.499999999999991
 21
745.8
 31
0.0
  0
LINE
  5
1E5
  8
3
  6
CONTINUOUS
 62
     7
 10
-2.49999999999996
 20
649.1999999999999
 30
0.0
 11
-5.499999999999991
 21
649.1999999999999
 31
0.0
  0
LINE
  5
1E6
  8
3
  6
CONTINUOUS
 62
     7
 10
-5.999999999999991
 20
649.7
 30
0.0
 11
-5.999999999999978
 21
650.0
 31
0.0
  0
ARC
  5
1E7
  8
3
  6
CONTINUOUS
 62
     7
 10
-5.499999999999977
 20
650.0
 30
0.0
 40
0.5000000000000004
 50
90.0
 51
180.0
  0
ARC
  5
1E8
  8
3
  6
CONTINUOUS
 62
     7
 10
-2.499999999999974
 20
649.6999999999999
 30
0.0
 40
0.5000000000000004
 50
270.0000000000015
 51
0.0000000000015916
  0
ARC
  5
1E9
  8
3
  6
CONTINUOUS
 62
     7
 10
-2.500000000000016
 20
650.0
 30
0.0
 40
0.5000000000000004
 50
0.0
 51
89.99999999999841
  0
LINE
  5
1EA
  8
3
  6
CONTINUOUS
 62
     7
 10
-2.000000000000016
 20
650.0
 30
0.0
 11
-1.999999999999974
 21
649.7
 31
0.0
  0
ARC
  5
1EB
  8
3
  6
CONTINUOUS
 62
     7
 10
-5.499999999999991
 20
649.7
 30
0.0
 40
0.5000000000000004
 50
180.0
 51
270.0
  0
LINE
  5
1EC
  8
3
  6
CONTINUOUS
 62
     7
 10
-5.499999999999977
 20
650.5
 30
0.0
 11
-2.500000000000003
 21
650.5
 31
0.0
  0
LINE
  5
1ED
  8
3
  6
CONTINUOUS
 62
     7
 10
-157.5
 20
745.8
 30
0.0
 11
-154.5
 21
745.8
 31
0.0
  0
ARC
  5
1EE
  8
3
  6
CONTINUOUS
 62
     7
 10
-154.5
 20
745.3
 30
0.0
 40
0.5000000000000004
 50
0.0
 51
90.0
  0
ARC
  5
1EF
  8
3
  6
CONTINUOUS
 62
     7
 10
-157.5
 20
745.0
 30
0.0
 40
0.5000000000000004
 50
180.0
 51
269.9999999999984
  0
ARC
  5
1F0
  8
3
  6
CONTINUOUS
 62
     7
 10
-157.5
 20
745.3000000000001
 30
0.0
 40
0.5000000000000004
 50
90.00000000000159
 51
180.0000000000016
  0
LINE
  5
1F1
  8
3
  6
CONTINUOUS
 62
     7
 10
-154.5
 20
744.5
 30
0.0
 11
-157.5
 21
744.5
 31
0.0
  0
LINE
  5
1F2
  8
3
  6
CONTINUOUS
 62
     7
 10
-158.0
 20
745.0
 30
0.0
 11
-158.0
 21
745.3
 31
0.0
  0
ARC
  5
1F3
  8
3
  6
CONTINUOUS
 62
     7
 10
-154.5
 20
745.0
 30
0.0
 40
0.5000000000000004
 50
270.0
 51
0.0
  0
LINE
  5
1F4
  8
3
  6
CONTINUOUS
 62
     7
 10
-154.0
 20
745.3
 30
0.0
 11
-154.0
 21
745.0
 31
0.0
  0
POLYLINE
  5
1F5
  8
3
  6
CONTINUOUS
 62
     7
 66
     1
 10
0.0
 20
0.0
 30
0.0
  0
VERTEX
  5
289
  8
3
  6
CONTINUOUS
 62
     7
 10
-9.499999999999995
 20
754.7530601267391
 30
0.0
  0
VERTEX
  5
28A
  8
3
  6
CONTINUOUS
 62
     7
 10
-9.509607359798379
 20
754.8506090021094
 30
0.0
  0
VERTEX
  5
28B
  8
3
  6
CONTINUOUS
 62
     7
 10
-9.538060233744352
 20
754.9444091289054
 30
0.0
  0
VERTEX
  5
28C
  8
3
  6
CONTINUOUS
 62
     7
 10
-9.584265193848722
 20
755.0308558208577
 30
0.0
  0
VERTEX
  5
28D
  8
3
  6
CONTINUOUS
 62
     7
 10
-9.646446609406722
 20
755.1066269800748
 30
0.0
  0
VERTEX
  5
28E
  8
3
  6
CONTINUOUS
 62
     7
 10
-9.722214883490194
 20
755.1688107634008
 30
0.0
  0
VERTEX
  5
28F
  8
3
  6
CONTINUOUS
 62
     7
 10
-9.80865828381745
 20
755.2150174829154
 30
0.0
  0
VERTEX
  5
290
  8
3
  6
CONTINUOUS
 62
     7
 10
-9.90245483899193
 20
755.2434714403008
 30
0.0
  0
VERTEX
  5
291
  8
3
  6
CONTINUOUS
 62
     7
 10
-9.999999999999995
 20
755.253079165932
 30
0.0
  0
SEQEND
  5
307
  8
3
  6
CONTINUOUS
 62
     7
  0
POLYLINE
  5
1F6
  8
3
  6
CONTINUOUS
 62
     7
 66
     1
 10
0.0
 20
0.0
 30
0.0
  0
VERTEX
  5
292
  8
3
  6
CONTINUOUS
 62
     7
 10
2.000000000000016
 20
755.253079165932
 30
0.0
  0
VERTEX
  5
293
  8
3
  6
CONTINUOUS
 62
     7
 10
1.902454838991952
 20
755.2434714403008
 30
0.0
  0
VERTEX
  5
294
  8
3
  6
CONTINUOUS
 62
     7
 10
1.808658283817472
 20
755.2150174829154
 30
0.0
  0
VERTEX
  5
295
  8
3
  6
CONTINUOUS
 62
     7
 10
1.722214883490216
 20
755.1688107634008
 30
0.0
  0
VERTEX
  5
296
  8
3
  6
CONTINUOUS
 62
     7
 10
1.646446609406744
 20
755.1066269800748
 30
0.0
  0
VERTEX
  5
297
  8
3
  6
CONTINUOUS
 62
     7
 10
1.584265193848745
 20
755.0308558208577
 30
0.0
  0
VERTEX
  5
298
  8
3
  6
CONTINUOUS
 62
     7
 10
1.538060233744374
 20
754.9444091289054
 30
0.0
  0
VERTEX
  5
299
  8
3
  6
CONTINUOUS
 62
     7
 10
1.509607359798401
 20
754.8506090021094
 30
0.0
  0
VERTEX
  5
29A
  8
3
  6
CONTINUOUS
 62
     7
 10
1.500000000000015
 20
754.7530601267391
 30
0.0
  0
SEQEND
  5
308
  8
3
  6
CONTINUOUS
 62
     7
  0
LINE
  5
1F7
  8
3
  6
CONTINUOUS
 62
     7
 10
1.500000000000015
 20
754.65
 30
0.0
 11
1.500000000000015
 21
754.7530601267391
 31
0.0
  0
LINE
  5
1F8
  8
3
  6
CONTINUOUS
 62
     7
 10
-9.499999999999995
 20
754.7530601267391
 30
0.0
 11
-9.500000000000009
 21
754.65
 31
0.0
  0
POLYLINE
  5
1F9
  8
3
  6
CONTINUOUS
 62
     7
 66
     1
 10
0.0
 20
0.0
 30
0.0
  0
VERTEX
  5
29B
  8
3
  6
CONTINUOUS
 62
     7
 10
-150.5
 20
640.2469398732609
 30
0.0
  0
VERTEX
  5
29C
  8
3
  6
CONTINUOUS
 62
     7
 10
-150.4903926402016
 20
640.1493909978906
 30
0.0
  0
VERTEX
  5
29D
  8
3
  6
CONTINUOUS
 62
     7
 10
-150.4619397662557
 20
640.0555908710946
 30
0.0
  0
VERTEX
  5
29E
  8
3
  6
CONTINUOUS
 62
     7
 10
-150.4157348061513
 20
639.9691441791423
 30
0.0
  0
VERTEX
  5
29F
  8
3
  6
CONTINUOUS
 62
     7
 10
-150.3535533905933
 20
639.8933730199252
 30
0.0
  0
VERTEX
  5
2A0
  8
3
  6
CONTINUOUS
 62
     7
 10
-150.2777851165098
 20
639.8311892365992
 30
0.0
  0
VERTEX
  5
2A1
  8
3
  6
CONTINUOUS
 62
     7
 10
-150.1913417161826
 20
639.7849825170846
 30
0.0
  0
VERTEX
  5
2A2
  8
3
  6
CONTINUOUS
 62
     7
 10
-150.0975451610081
 20
639.7565285596992
 30
0.0
  0
VERTEX
  5
2A3
  8
3
  6
CONTINUOUS
 62
     7
 10
-150.0
 20
639.746920834068
 30
0.0
  0
SEQEND
  5
309
  8
3
  6
CONTINUOUS
 62
     7
  0
POLYLINE
  5
1FA
  8
3
  6
CONTINUOUS
 62
     7
 66
     1
 10
0.0
 20
0.0
 30
0.0
  0
VERTEX
  5
2A4
  8
3
  6
CONTINUOUS
 62
     7
 10
-161.5
 20
754.7530601267391
 30
0.0
  0
VERTEX
  5
2A5
  8
3
  6
CONTINUOUS
 62
     7
 10
-161.5096073597984
 20
754.8506090021094
 30
0.0
  0
VERTEX
  5
2A6
  8
3
  6
CONTINUOUS
 62
     7
 10
-161.5380602337444
 20
754.9444091289054
 30
0.0
  0
VERTEX
  5
2A7
  8
3
  6
CONTINUOUS
 62
     7
 10
-161.5842651938488
 20
755.0308558208577
 30
0.0
  0
VERTEX
  5
2A8
  8
3
  6
CONTINUOUS
 62
     7
 10
-161.6464466094068
 20
755.1066269800748
 30
0.0
  0
VERTEX
  5
2A9
  8
3
  6
CONTINUOUS
 62
     7
 10
-161.7222148834902
 20
755.1688107634008
 30
0.0
  0
VERTEX
  5
2AA
  8
3
  6
CONTINUOUS
 62
     7
 10
-161.8086582838175
 20
755.2150174829154
 30
0.0
  0
VERTEX
  5
2AB
  8
3
  6
CONTINUOUS
 62
     7
 10
-161.902454838992
 20
755.2434714403008
 30
0.0
  0
VERTEX
  5
2AC
  8
3
  6
CONTINUOUS
 62
     7
 10
-162.0
 20
755.253079165932
 30
0.0
  0
SEQEND
  5
30A
  8
3
  6
CONTINUOUS
 62
     7
  0
POLYLINE
  5
1FB
  8
3
  6
CONTINUOUS
 62
     7
 66
     1
 10
0.0
 20
0.0
 30
0.0
  0
VERTEX
  5
2AD
  8
3
  6
CONTINUOUS
 62
     7
 10
-150.0
 20
755.253079165932
 30
0.0
  0
VERTEX
  5
2AE
  8
3
  6
CONTINUOUS
 62
     7
 10
-150.0975451610081
 20
755.2434714403008
 30
0.0
  0
VERTEX
  5
2AF
  8
3
  6
CONTINUOUS
 62
     7
 10
-150.1913417161826
 20
755.2150174829154
 30
0.0
  0
VERTEX
  5
2B0
  8
3
  6
CONTINUOUS
 62
     7
 10
-150.2777851165098
 20
755.1688107634008
 30
0.0
  0
VERTEX
  5
2B1
  8
3
  6
CONTINUOUS
 62
     7
 10
-150.3535533905933
 20
755.1066269800748
 30
0.0
  0
VERTEX
  5
2B2
  8
3
  6
CONTINUOUS
 62
     7
 10
-150.4157348061513
 20
755.0308558208577
 30
0.0
  0
VERTEX
  5
2B3
  8
3
  6
CONTINUOUS
 62
     7
 10
-150.4619397662557
 20
754.9444091289054
 30
0.0
  0
VERTEX
  5
2B4
  8
3
  6
CONTINUOUS
 62
     7
 10
-150.4903926402016
 20
754.8506090021094
 30
0.0
  0
VERTEX
  5
2B5
  8
3
  6
CONTINUOUS
 62
     7
 10
-150.5
 20
754.7530601267391
 30
0.0
  0
SEQEND
  5
30B
  8
3
  6
CONTINUOUS
 62
     7
  0
LINE
  5
1FC
  8
3
  6
CONTINUOUS
 62
     7
 10
-150.5
 20
754.7530601267391
 30
0.0
 11
-150.5
 21
754.65
 31
0.0
  0
LINE
  5
1FD
  8
3
  6
CONTINUOUS
 62
     7
 10
-161.5
 20
754.65
 30
0.0
 11
-161.5
 21
754.7530601267391
 31
0.0
  0
POLYLINE
  5
1FE
  8
3
  6
CONTINUOUS
 62
     7
 66
     1
 10
0.0
 20
0.0
 30
0.0
  0
VERTEX
  5
2B6
  8
3
  6
CONTINUOUS
 62
     7
 10
-162.0
 20
639.746920834068
 30
0.0
  0
VERTEX
  5
2B7
  8
3
  6
CONTINUOUS
 62
     7
 10
-161.902454838992
 20
639.7565285596992
 30
0.0
  0
VERTEX
  5
2B8
  8
3
  6
CONTINUOUS
 62
     7
 10
-161.8086582838175
 20
639.7849825170846
 30
0.0
  0
VERTEX
  5
2B9
  8
3
  6
CONTINUOUS
 62
     7
 10
-161.7222148834902
 20
639.8311892365992
 30
0.0
  0
VERTEX
  5
2BA
  8
3
  6
CONTINUOUS
 62
     7
 10
-161.6464466094068
 20
639.8933730199252
 30
0.0
  0
VERTEX
  5
2BB
  8
3
  6
CONTINUOUS
 62
     7
 10
-161.5842651938488
 20
639.9691441791423
 30
0.0
  0
VERTEX
  5
2BC
  8
3
  6
CONTINUOUS
 62
     7
 10
-161.5380602337444
 20
640.0555908710946
 30
0.0
  0
VERTEX
  5
2BD
  8
3
  6
CONTINUOUS
 62
     7
 10
-161.5096073597984
 20
640.1493909978906
 30
0.0
  0
VERTEX
  5
2BE
  8
3
  6
CONTINUOUS
 62
     7
 10
-161.5
 20
640.2469398732609
 30
0.0
  0
SEQEND
  5
30C
  8
3
  6
CONTINUOUS
 62
     7
  0
LINE
  5
1FF
  8
3
  6
CONTINUOUS
 62
     7
 10
-161.5
 20
640.3499999999999
 30
0.0
 11
-161.5
 21
640.2469398732609
 31
0.0
  0
LINE
  5
200
  8
3
  6
CONTINUOUS
 62
     7
 10
-150.5
 20
640.2469398732609
 30
0.0
 11
-150.5
 21
640.3499999999999
 31
0.0
  0
LINE
  5
201
  8
3
  6
CONTINUOUS
 62
     7
 10
-11.45000000000004
 20
635.4999999999999
 30
0.0
 11
-42.54999999999998
 21
635.4999999999999
 31
0.0
  0
LINE
  5
202
  8
3
  6
CONTINUOUS
 62
     7
 10
-95.54999999999997
 20
759.5
 30
0.0
 11
-64.45000000000002
 21
759.5
 31
0.0
  0
LINE
  5
203
  8
3
  6
CONTINUOUS
 62
     7
 10
-117.45
 20
635.4999999999999
 30
0.0
 11
-148.55
 21
635.4999999999999
 31
0.0
  0
LINE
  5
204
  8
3
  6
CONTINUOUS
 62
     7
 10
-64.45000000000003
 20
635.4999999999999
 30
0.0
 11
-95.54999999999998
 21
635.4999999999999
 31
0.0
  0
LINE
  5
205
  8
3
  6
CONTINUOUS
 62
     7
 10
-148.55
 20
759.5
 30
0.0
 11
-117.45
 21
759.5
 31
0.0
  0
LINE
  5
206
  8
3
  6
CONTINUOUS
 62
     7
 10
-42.54999999999995
 20
759.5
 30
0.0
 11
-11.45000000000003
 21
759.5
 31
0.0
  0
LINE
  5
207
  8
3
  6
CONTINUOUS
 62
     9
 10
-167.1645635902973
 20
704.4
 30
0.0
 11
-167.1499999999999
 21
704.4
 31
0.0
  0
LINE
  5
208
  8
3
  6
CONTINUOUS
 62
     9
 10
-171.0
 20
756.4999999999999
 30
0.0
 11
-170.5
 21
756.4999999999999
 31
0.0
  0
LINE
  5
209
  8
3
  6
CONTINUOUS
 62
     9
 10
-170.5
 20
756.4999999999999
 30
0.0
 11
-170.5
 21
754.4999999999999
 31
0.0
  0
ARC
  5
20A
  8
3
  6
CONTINUOUS
 62
     9
 10
-169.0
 20
756.4999999999999
 30
0.0
 40
1.500000000000001
 50
90.0
 51
180.0
  0
LINE
  5
20B
  8
3
  6
CONTINUOUS
 62
     9
 10
-167.0
 20
758.0
 30
0.0
 11
-169.0
 21
758.0
 31
0.0
  0
LINE
  5
20C
  8
3
  6
CONTINUOUS
 62
     9
 10
-169.0
 20
758.0
 30
0.0
 11
-169.0
 21
758.4999999999999
 31
0.0
  0
ARC
  5
20D
  8
3
  6
CONTINUOUS
 62
     7
 10
-169.0
 20
638.5
 30
0.0
 40
2.000000000000002
 50
180.0
 51
270.0
  0
ARC
  5
20E
  8
3
  6
CONTINUOUS
 62
     7
 10
8.999999999999995
 20
638.5
 30
0.0
 40
2.000000000000002
 50
270.0
 51
0.0
  0
ARC
  5
20F
  8
3
  6
CONTINUOUS
 62
     7
 10
8.999999999999995
 20
756.4999999999999
 30
0.0
 40
2.000000000000002
 50
0.0
 51
90.0
  0
ARC
  5
210
  8
3
  6
CONTINUOUS
 62
     7
 10
-169.0
 20
756.4999999999999
 30
0.0
 40
2.000000000000002
 50
90.0
 51
180.0
  0
LINE
  5
211
  8
3
  6
CONTINUOUS
 62
     7
 10
-101.15
 20
701.0
 30
0.0
 11
-101.65
 21
701.0
 31
0.0
  0
LINE
  5
212
  8
3
  6
CONTINUOUS
 62
     7
 10
-101.15
 20
694.0
 30
0.0
 11
-101.65
 21
694.0
 31
0.0
  0
LINE
  5
213
  8
3
  6
CONTINUOUS
 62
     7
 10
-58.85
 20
693.9999999999999
 30
0.0
 11
-58.35
 21
693.9999999999999
 31
0.0
  0
LINE
  5
214
  8
3
  6
CONTINUOUS
 62
     7
 10
-58.85
 20
701.0
 30
0.0
 11
-58.35
 21
701.0
 31
0.0
  0
POLYLINE
  5
215
  8
3
  6
CONTINUOUS
 62
     7
 66
     1
 10
0.0
 20
0.0
 30
0.0
  0
VERTEX
  5
2BF
  8
3
  6
CONTINUOUS
 62
     7
 10
-55.15000000000001
 20
701.0
 30
0.0
  0
VERTEX
  5
2C0
  8
3
  6
CONTINUOUS
 62
     7
 10
-55.05245483899194
 20
701.0135868585255
 30
0.0
  0
VERTEX
  5
2C1
  8
3
  6
CONTINUOUS
 62
     7
 10
-54.95865828381746
 20
701.0538252987484
 30
0.0
  0
VERTEX
  5
2C2
  8
3
  6
CONTINUOUS
 62
     7
 10
-54.87221488349021
 20
701.1191689799768
 30
0.0
  0
VERTEX
  5
2C3
  8
3
  6
CONTINUOUS
 62
     7
 10
-54.79644660940673
 20
701.2071067811866
 30
0.0
  0
VERTEX
  5
2C4
  8
3
  6
CONTINUOUS
 62
     7
 10
-54.73426519384874
 20
701.314259301993
 30
0.0
  0
VERTEX
  5
2C5
  8
3
  6
CONTINUOUS
 62
     7
 10
-54.68806023374437
 20
701.4365087311135
 30
0.0
  0
VERTEX
  5
2C6
  8
3
  6
CONTINUOUS
 62
     7
 10
-54.65960735979839
 20
701.5691570915451
 30
0.0
  0
VERTEX
  5
2C7
  8
3
  6
CONTINUOUS
 62
     7
 10
-54.65000000000001
 20
701.7071067811866
 30
0.0
  0
SEQEND
  5
30D
  8
3
  6
CONTINUOUS
 62
     7
  0
POLYLINE
  5
216
  8
3
  6
CONTINUOUS
 62
     7
 66
     1
 10
0.0
 20
0.0
 30
0.0
  0
VERTEX
  5
2C8
  8
3
  6
CONTINUOUS
 62
     7
 10
-54.65000000000001
 20
693.2928932188134
 30
0.0
  0
VERTEX
  5
2C9
  8
3
  6
CONTINUOUS
 62
     7
 10
-54.65960735979839
 20
693.4308429084549
 30
0.0
  0
VERTEX
  5
2CA
  8
3
  6
CONTINUOUS
 62
     7
 10
-54.68806023374437
 20
693.5634912688865
 30
0.0
  0
VERTEX
  5
2CB
  8
3
  6
CONTINUOUS
 62
     7
 10
-54.73426519384874
 20
693.685740698007
 30
0.0
  0
VERTEX
  5
2CC
  8
3
  6
CONTINUOUS
 62
     7
 10
-54.79644660940673
 20
693.7928932188134
 30
0.0
  0
VERTEX
  5
2CD
  8
3
  6
CONTINUOUS
 62
     7
 10
-54.8722148834902
 20
693.8808310200232
 30
0.0
  0
VERTEX
  5
2CE
  8
3
  6
CONTINUOUS
 62
     7
 10
-54.95865828381746
 20
693.9461747012516
 30
0.0
  0
VERTEX
  5
2CF
  8
3
  6
CONTINUOUS
 62
     7
 10
-55.05245483899194
 20
693.9864131414745
 30
0.0
  0
VERTEX
  5
2D0
  8
3
  6
CONTINUOUS
 62
     7
 10
-55.15000000000001
 20
694.0
 30
0.0
  0
SEQEND
  5
30E
  8
3
  6
CONTINUOUS
 62
     7
  0
POLYLINE
  5
217
  8
3
  6
CONTINUOUS
 62
     7
 66
     1
 10
0.0
 20
0.0
 30
0.0
  0
VERTEX
  5
2D1
  8
3
  6
CONTINUOUS
 62
     7
 10
-105.35
 20
701.7071067811866
 30
0.0
  0
VERTEX
  5
2D2
  8
3
  6
CONTINUOUS
 62
     7
 10
-105.3403926402016
 20
701.5691570915451
 30
0.0
  0
VERTEX
  5
2D3
  8
3
  6
CONTINUOUS
 62
     7
 10
-105.3119397662556
 20
701.4365087311135
 30
0.0
  0
VERTEX
  5
2D4
  8
3
  6
CONTINUOUS
 62
     7
 10
-105.2657348061513
 20
701.314259301993
 30
0.0
  0
VERTEX
  5
2D5
  8
3
  6
CONTINUOUS
 62
     7
 10
-105.2035533905933
 20
701.2071067811866
 30
0.0
  0
VERTEX
  5
2D6
  8
3
  6
CONTINUOUS
 62
     7
 10
-105.1277851165098
 20
701.1191689799768
 30
0.0
  0
VERTEX
  5
2D7
  8
3
  6
CONTINUOUS
 62
     7
 10
-105.0413417161825
 20
701.0538252987484
 30
0.0
  0
VERTEX
  5
2D8
  8
3
  6
CONTINUOUS
 62
     7
 10
-104.9475451610081
 20
701.0135868585255
 30
0.0
  0
VERTEX
  5
2D9
  8
3
  6
CONTINUOUS
 62
     7
 10
-104.85
 20
701.0
 30
0.0
  0
SEQEND
  5
30F
  8
3
  6
CONTINUOUS
 62
     7
  0
POLYLINE
  5
218
  8
3
  6
CONTINUOUS
 62
     7
 66
     1
 10
0.0
 20
0.0
 30
0.0
  0
VERTEX
  5
2DA
  8
3
  6
CONTINUOUS
 62
     7
 10
-104.85
 20
694.0
 30
0.0
  0
VERTEX
  5
2DB
  8
3
  6
CONTINUOUS
 62
     7
 10
-104.9475451610081
 20
693.9864131414745
 30
0.0
  0
VERTEX
  5
2DC
  8
3
  6
CONTINUOUS
 62
     7
 10
-105.0413417161825
 20
693.9461747012516
 30
0.0
  0
VERTEX
  5
2DD
  8
3
  6
CONTINUOUS
 62
     7
 10
-105.1277851165098
 20
693.8808310200232
 30
0.0
  0
VERTEX
  5
2DE
  8
3
  6
CONTINUOUS
 62
     7
 10
-105.2035533905933
 20
693.7928932188134
 30
0.0
  0
VERTEX
  5
2DF
  8
3
  6
CONTINUOUS
 62
     7
 10
-105.2657348061513
 20
693.685740698007
 30
0.0
  0
VERTEX
  5
2E0
  8
3
  6
CONTINUOUS
 62
     7
 10
-105.3119397662556
 20
693.5634912688865
 30
0.0
  0
VERTEX
  5
2E1
  8
3
  6
CONTINUOUS
 62
     7
 10
-105.3403926402016
 20
693.4308429084549
 30
0.0
  0
VERTEX
  5
2E2
  8
3
  6
CONTINUOUS
 62
     7
 10
-105.35
 20
693.2928932188134
 30
0.0
  0
SEQEND
  5
310
  8
3
  6
CONTINUOUS
 62
     7
  0
POLYLINE
  5
219
  8
3
  6
CONTINUOUS
 62
     7
 66
     1
 10
0.0
 20
0.0
 30
0.0
  0
VERTEX
  5
2E3
  8
3
  6
CONTINUOUS
 62
     7
 10
-101.15
 20
701.0
 30
0.0
  0
VERTEX
  5
2E4
  8
3
  6
CONTINUOUS
 62
     7
 10
-101.0524548389919
 20
701.0135868585255
 30
0.0
  0
VERTEX
  5
2E5
  8
3
  6
CONTINUOUS
 62
     7
 10
-100.9586582838175
 20
701.0538252987484
 30
0.0
  0
VERTEX
  5
2E6
  8
3
  6
CONTINUOUS
 62
     7
 10
-100.8722148834902
 20
701.1191689799768
 30
0.0
  0
VERTEX
  5
2E7
  8
3
  6
CONTINUOUS
 62
     7
 10
-100.7964466094067
 20
701.2071067811866
 30
0.0
  0
VERTEX
  5
2E8
  8
3
  6
CONTINUOUS
 62
     7
 10
-100.7342651938487
 20
701.314259301993
 30
0.0
  0
VERTEX
  5
2E9
  8
3
  6
CONTINUOUS
 62
     7
 10
-100.6880602337444
 20
701.4365087311135
 30
0.0
  0
VERTEX
  5
2EA
  8
3
  6
CONTINUOUS
 62
     7
 10
-100.6596073597984
 20
701.5691570915451
 30
0.0
  0
VERTEX
  5
2EB
  8
3
  6
CONTINUOUS
 62
     7
 10
-100.65
 20
701.7071067811866
 30
0.0
  0
SEQEND
  5
311
  8
3
  6
CONTINUOUS
 62
     7
  0
POLYLINE
  5
21A
  8
3
  6
CONTINUOUS
 62
     7
 66
     1
 10
0.0
 20
0.0
 30
0.0
  0
VERTEX
  5
2EC
  8
3
  6
CONTINUOUS
 62
     7
 10
-58.85
 20
694.0
 30
0.0
  0
VERTEX
  5
2ED
  8
3
  6
CONTINUOUS
 62
     7
 10
-58.94754516100807
 20
693.9864131414745
 30
0.0
  0
VERTEX
  5
2EE
  8
3
  6
CONTINUOUS
 62
     7
 10
-59.04134171618254
 20
693.9461747012516
 30
0.0
  0
VERTEX
  5
2EF
  8
3
  6
CONTINUOUS
 62
     7
 10
-59.12778511650981
 20
693.8808310200232
 30
0.0
  0
VERTEX
  5
2F0
  8
3
  6
CONTINUOUS
 62
     7
 10
-59.20355339059328
 20
693.7928932188134
 30
0.0
  0
VERTEX
  5
2F1
  8
3
  6
CONTINUOUS
 62
     7
 10
-59.26573480615127
 20
693.685740698007
 30
0.0
  0
VERTEX
  5
2F2
  8
3
  6
CONTINUOUS
 62
     7
 10
-59.31193976625565
 20
693.5634912688865
 30
0.0
  0
VERTEX
  5
2F3
  8
3
  6
CONTINUOUS
 62
     7
 10
-59.34039264020161
 20
693.4308429084549
 30
0.0
  0
VERTEX
  5
2F4
  8
3
  6
CONTINUOUS
 62
     7
 10
-59.35
 20
693.2928932188134
 30
0.0
  0
SEQEND
  5
312
  8
3
  6
CONTINUOUS
 62
     7
  0
LINE
  5
21B
  8
3
  6
CONTINUOUS
 62
     7
 10
-55.64999999999998
 20
701.0
 30
0.0
 11
-55.15
 21
701.0
 31
0.0
  0
LINE
  5
21C
  8
3
  6
CONTINUOUS
 62
     7
 10
-104.35
 20
693.9999999999999
 30
0.0
 11
-104.85
 21
693.9999999999999
 31
0.0
  0
LINE
  5
21D
  8
3
  6
CONTINUOUS
 62
     7
 10
-104.35
 20
701.0
 30
0.0
 11
-104.85
 21
701.0
 31
0.0
  0
POLYLINE
  5
21E
  8
3
  6
CONTINUOUS
 62
     7
 66
     1
 10
0.0
 20
0.0
 30
0.0
  0
VERTEX
  5
2F5
  8
3
  6
CONTINUOUS
 62
     7
 10
-100.65
 20
693.2928932188134
 30
0.0
  0
VERTEX
  5
2F6
  8
3
  6
CONTINUOUS
 62
     7
 10
-100.6596073597984
 20
693.4308429084549
 30
0.0
  0
VERTEX
  5
2F7
  8
3
  6
CONTINUOUS
 62
     7
 10
-100.6880602337444
 20
693.5634912688865
 30
0.0
  0
VERTEX
  5
2F8
  8
3
  6
CONTINUOUS
 62
     7
 10
-100.7342651938487
 20
693.685740698007
 30
0.0
  0
VERTEX
  5
2F9
  8
3
  6
CONTINUOUS
 62
     7
 10
-100.7964466094067
 20
693.7928932188134
 30
0.0
  0
VERTEX
  5
2FA
  8
3
  6
CONTINUOUS
 62
     7
 10
-100.8722148834902
 20
693.8808310200232
 30
0.0
  0
VERTEX
  5
2FB
  8
3
  6
CONTINUOUS
 62
     7
 10
-100.9586582838175
 20
693.9461747012516
 30
0.0
  0
VERTEX
  5
2FC
  8
3
  6
CONTINUOUS
 62
     7
 10
-101.0524548389919
 20
693.9864131414745
 30
0.0
  0
VERTEX
  5
2FD
  8
3
  6
CONTINUOUS
 62
     7
 10
-101.15
 20
694.0
 30
0.0
  0
SEQEND
  5
313
  8
3
  6
CONTINUOUS
 62
     7
  0
POLYLINE
  5
21F
  8
3
  6
CONTINUOUS
 62
     7
 66
     1
 10
0.0
 20
0.0
 30
0.0
  0
VERTEX
  5
2FE
  8
3
  6
CONTINUOUS
 62
     7
 10
-59.35
 20
701.7071067811866
 30
0.0
  0
VERTEX
  5
2FF
  8
3
  6
CONTINUOUS
 62
     7
 10
-59.34039264020161
 20
701.5691570915451
 30
0.0
  0
VERTEX
  5
300
  8
3
  6
CONTINUOUS
 62
     7
 10
-59.31193976625565
 20
701.4365087311135
 30
0.0
  0
VERTEX
  5
301
  8
3
  6
CONTINUOUS
 62
     7
 10
-59.26573480615127
 20
701.314259301993
 30
0.0
  0
VERTEX
  5
302
  8
3
  6
CONTINUOUS
 62
     7
 10
-59.20355339059328
 20
701.2071067811866
 30
0.0
  0
VERTEX
  5
303
  8
3
  6
CONTINUOUS
 62
     7
 10
-59.12778511650981
 20
701.1191689799768
 30
0.0
  0
VERTEX
  5
304
  8
3
  6
CONTINUOUS
 62
     7
 10
-59.04134171618254
 20
701.0538252987484
 30
0.0
  0
VERTEX
  5
305
  8
3
  6
CONTINUOUS
 62
     7
 10
-58.94754516100807
 20
701.0135868585255
 30
0.0
  0
VERTEX
  5
306
  8
3
  6
CONTINUOUS
 62
     7
 10
-58.85
 20
701.0
 30
0.0
  0
SEQEND
  5
314
  8
3
  6
CONTINUOUS
 62
     7
  0
LINE
  5
220
  8
3
  6
CONTINUOUS
 62
     7
 10
-55.64999999999998
 20
693.9999999999999
 30
0.0
 11
-55.15
 21
693.9999999999999
 31
0.0
  0
CIRCLE
  5
221
  8
3
  6
CONTINUOUS
 62
     7
 10
-112.5
 20
697.5
 30
0.0
 40
3.000000000000003
  0
CIRCLE
  5
222
  8
3
  6
CONTINUOUS
 62
     7
 10
-47.49999999999999
 20
697.5
 30
0.0
 40
3.000000000000003
  0
LINE
  5
223
  8
3
  6
CONTINUOUS
 62
     7
 10
-100.5
 20
701.0
 30
0.0
 11
-100.5
 21
743.5
 31
0.0
  0
LINE
  5
224
  8
3
  6
CONTINUOUS
 62
     7
 10
-87.67228714274744
 20
701.0
 30
0.0
 11
-100.5
 21
701.0
 31
0.0
  0
LINE
  5
225
  8
3
  6
CONTINUOUS
 62
     7
 10
-83.5
 20
705.1722871427475
 30
0.0
 11
-87.67228714274744
 21
701.0
 31
0.0
  0
LINE
  5
226
  8
3
  6
CONTINUOUS
 62
     7
 10
-83.5
 20
717.5
 30
0.0
 11
-83.5
 21
705.1722871427475
 31
0.0
  0
ARC
  5
227
  8
3
  6
CONTINUOUS
 62
     7
 10
-81.0
 20
717.5
 30
0.0
 40
2.500000000000006
 50
89.9999999999999
 51
180.0
  0
LINE
  5
228
  8
3
  6
CONTINUOUS
 62
     7
 10
-79.0
 20
720.0
 30
0.0
 11
-81.0
 21
720.0
 31
0.0
  0
ARC
  5
229
  8
3
  6
CONTINUOUS
 62
     7
 10
-79.0
 20
717.5
 30
0.0
 40
2.500000000000009
 50
0.0000000000000795
 51
90.00000000000001
  0
LINE
  5
22A
  8
3
  6
CONTINUOUS
 62
     7
 10
-76.5
 20
705.1722871427475
 30
0.0
 11
-76.49999999999999
 21
717.5
 31
0.0
  0
LINE
  5
22B
  8
3
  6
CONTINUOUS
 62
     7
 10
-72.32771285725259
 20
701.0
 30
0.0
 11
-76.50000000000001
 21
705.1722871427475
 31
0.0
  0
LINE
  5
22C
  8
3
  6
CONTINUOUS
 62
     7
 10
-59.5
 20
701.0
 30
0.0
 11
-72.32771285725259
 21
701.0
 31
0.0
  0
LINE
  5
22D
  8
3
  6
CONTINUOUS
 62
     7
 10
-59.5
 20
701.0
 30
0.0
 11
-59.50000000000001
 21
743.5
 31
0.0
  0
LINE
  5
22E
  8
3
  6
CONTINUOUS
 62
     7
 10
-54.50000000000001
 20
743.5
 30
0.0
 11
-54.50000000000001
 21
701.0
 31
0.0
  0
LINE
  5
22F
  8
3
  6
CONTINUOUS
 62
     7
 10
-10.49999999999999
 20
701.0
 30
0.0
 11
-54.50000000000001
 21
701.0
 31
0.0
  0
LINE
  5
230
  8
3
  6
CONTINUOUS
 62
     7
 10
-54.50000000000001
 20
693.9999999999999
 30
0.0
 11
-10.49999999999999
 21
693.9999999999999
 31
0.0
  0
LINE
  5
231
  8
3
  6
CONTINUOUS
 62
     7
 10
-54.50000000000001
 20
651.5
 30
0.0
 11
-54.50000000000001
 21
693.9999999999999
 31
0.0
  0
LINE
  5
232
  8
3
  6
CONTINUOUS
 62
     7
 10
-59.5
 20
693.9999999999999
 30
0.0
 11
-59.50000000000001
 21
651.5
 31
0.0
  0
LINE
  5
233
  8
3
  6
CONTINUOUS
 62
     7
 10
-72.32771285725259
 20
694.0
 30
0.0
 11
-59.5
 21
694.0
 31
0.0
  0
LINE
  5
234
  8
3
  6
CONTINUOUS
 62
     7
 10
-76.5
 20
689.8277128572527
 30
0.0
 11
-72.32771285725259
 21
694.0
 31
0.0
  0
LINE
  5
235
  8
3
  6
CONTINUOUS
 62
     7
 10
-76.5
 20
677.5
 30
0.0
 11
-76.5
 21
689.8277128572525
 31
0.0
  0
ARC
  5
236
  8
3
  6
CONTINUOUS
 62
     7
 10
-79.0
 20
677.5
 30
0.0
 40
2.500000000000009
 50
269.9999999999999
 51
0.0
  0
LINE
  5
237
  8
3
  6
CONTINUOUS
 62
     7
 10
-81.0
 20
675.0
 30
0.0
 11
-79.0
 21
675.0
 31
0.0
  0
ARC
  5
238
  8
3
  6
CONTINUOUS
 62
     7
 10
-81.0
 20
677.5
 30
0.0
 40
2.500000000000009
 50
179.9999999999998
 51
270.0
  0
LINE
  5
239
  8
3
  6
CONTINUOUS
 62
     7
 10
-83.5
 20
689.8277128572525
 30
0.0
 11
-83.50000000000001
 21
677.5
 31
0.0
  0
LINE
  5
23A
  8
3
  6
CONTINUOUS
 62
     7
 10
-87.67228714274746
 20
694.0
 30
0.0
 11
-83.5
 21
689.8277128572527
 31
0.0
  0
LINE
  5
23B
  8
3
  6
CONTINUOUS
 62
     7
 10
-100.5
 20
693.9999999999999
 30
0.0
 11
-87.67228714274746
 21
693.9999999999999
 31
0.0
  0
LINE
  5
23C
  8
3
  6
CONTINUOUS
 62
     7
 10
-100.5
 20
693.9999999999999
 30
0.0
 11
-100.5
 21
651.5
 31
0.0
  0
LINE
  5
23D
  8
3
  6
CONTINUOUS
 62
     7
 10
-105.5
 20
651.5
 30
0.0
 11
-105.5
 21
693.9999999999999
 31
0.0
  0
LINE
  5
23E
  8
3
  6
CONTINUOUS
 62
     7
 10
-149.5
 20
694.0
 30
0.0
 11
-105.5
 21
694.0
 31
0.0
  0
LINE
  5
23F
  8
3
  6
CONTINUOUS
 62
     7
 10
-105.5
 20
701.0
 30
0.0
 11
-149.5
 21
701.0
 31
0.0
  0
LINE
  5
240
  8
3
  6
CONTINUOUS
 62
     7
 10
-105.5
 20
743.5
 30
0.0
 11
-105.5
 21
701.0
 31
0.0
  0
CIRCLE
  5
241
  8
3
  6
CONTINUOUS
 62
     7
 10
-80.0
 20
678.5
 30
0.0
 40
2.999999999999998
  0
CIRCLE
  5
242
  8
3
  6
CONTINUOUS
 62
     7
 10
-80.0
 20
716.5
 30
0.0
 40
2.999999999999998
  0
LINE
  5
243
  8
3
  6
CONTINUOUS
 62
     7
 10
-61.5
 20
692.0
 30
0.0
 11
-71.49928573250638
 21
692.0
 31
0.0
  0
LINE
  5
244
  8
3
  6
CONTINUOUS
 62
     7
 10
-52.5
 20
703.0
 30
0.0
 11
-52.50000000000001
 21
743.5
 31
0.0
  0
LINE
  5
245
  8
3
  6
CONTINUOUS
 62
     7
 10
-98.49999999999999
 20
651.5
 30
0.0
 11
-98.5
 21
691.9999999999999
 31
0.0
  0
LINE
  5
246
  8
3
  6
CONTINUOUS
 62
     7
 10
-52.50000000000001
 20
692.0
 30
0.0
 11
-52.50000000000001
 21
651.5000000000001
 31
0.0
  0
LINE
  5
247
  8
3
  6
CONTINUOUS
 62
     7
 10
-107.5
 20
692.0
 30
0.0
 11
-107.5
 21
651.5000000000001
 31
0.0
  0
LINE
  5
248
  8
3
  6
CONTINUOUS
 62
     7
 10
-107.5
 20
692.0
 30
0.0
 11
-149.5
 21
692.0
 31
0.0
  0
LINE
  5
249
  8
3
  6
CONTINUOUS
 62
     7
 10
-98.5
 20
703.0
 30
0.0
 11
-88.50071426749363
 21
703.0
 31
0.0
  0
LINE
  5
24A
  8
3
  6
CONTINUOUS
 62
     7
 10
-88.50071426749366
 20
692.0
 30
0.0
 11
-98.5
 21
692.0
 31
0.0
  0
LINE
  5
24B
  8
3
  6
CONTINUOUS
 62
     7
 10
-98.5
 20
743.5
 30
0.0
 11
-98.5
 21
703.0
 31
0.0
  0
LINE
  5
24C
  8
3
  6
CONTINUOUS
 62
     7
 10
-71.49928573250638
 20
703.0
 30
0.0
 11
-61.5
 21
703.0
 31
0.0
  0
LINE
  5
24D
  8
3
  6
CONTINUOUS
 62
     7
 10
-107.5
 20
703.0
 30
0.0
 11
-107.5
 21
743.5
 31
0.0
  0
LINE
  5
24E
  8
3
  6
CONTINUOUS
 62
     7
 10
-61.50000000000001
 20
743.5
 30
0.0
 11
-61.5
 21
703.0
 31
0.0
  0
LINE
  5
24F
  8
3
  6
CONTINUOUS
 62
     7
 10
-52.5
 20
703.0
 30
0.0
 11
-10.5
 21
703.0
 31
0.0
  0
LINE
  5
250
  8
3
  6
CONTINUOUS
 62
     7
 10
-10.49999999999999
 20
692.0
 30
0.0
 11
-52.50000000000001
 21
692.0
 31
0.0
  0
LINE
  5
251
  8
3
  6
CONTINUOUS
 62
     7
 10
-61.50000000000001
 20
651.5
 30
0.0
 11
-61.5
 21
691.9999999999999
 31
0.0
  0
LINE
  5
252
  8
3
  6
CONTINUOUS
 62
     7
 10
-149.5
 20
703.0
 30
0.0
 11
-107.5
 21
703.0
 31
0.0
  0
LINE
  5
253
  8
3
  6
CONTINUOUS
 62
     9
 10
-80.0
 20
707.6999999999999
 30
0.0
 11
-80.0
 21
707.5
 31
0.0
  0
LINE
  5
254
  8
3
  6
CONTINUOUS
 62
     7
 10
-81.2
 20
691.8766113419042
 30
0.0
 11
-81.2
 21
691.5396078054371
 31
0.0
  0
ARC
  5
255
  8
3
  6
CONTINUOUS
 62
     7
 10
-81.0
 20
677.5
 30
0.0
 40
4.5
 50
179.9999999999998
 51
270.0
  0
ARC
  5
256
  8
3
  6
CONTINUOUS
 62
     7
 10
-81.0
 20
717.5
 30
0.0
 40
4.5
 50
89.9999999999999
 51
180.0
  0
LINE
  5
257
  8
3
  6
CONTINUOUS
 62
     7
 10
-85.96039219456289
 20
696.3000000000001
 30
0.0
 11
-85.62338865809575
 21
696.3000000000001
 31
0.0
  0
ARC
  5
258
  8
3
  6
CONTINUOUS
 62
     7
 10
-82.2
 20
691.5396078054371
 30
0.0
 40
1.0
 50
317.1665719339327
 51
0.0
  0
ARC
  5
259
  8
3
  6
CONTINUOUS
 62
     7
 10
-79.0
 20
717.5
 30
0.0
 40
4.5
 50
0.0000000000000568
 51
90.0
  0
LINE
  5
25A
  8
3
  6
CONTINUOUS
 62
     7
 10
-81.2
 20
703.4603921945629
 30
0.0
 11
-81.2
 21
703.1233886580958
 31
0.0
  0
LINE
  5
25B
  8
3
  6
CONTINUOUS
 62
     7
 10
-85.5
 20
706.0007142674937
 30
0.0
 11
-85.5
 21
717.5
 31
0.0
  0
LINE
  5
25C
  8
3
  6
CONTINUOUS
 62
     7
 10
-79.0
 20
673.0
 30
0.0
 11
-81.0
 21
673.0
 31
0.0
  0
ARC
  5
25D
  8
3
  6
CONTINUOUS
 62
     7
 10
-79.0
 20
677.5
 30
0.0
 40
4.500000000000004
 50
269.9999999999999
 51
0.0
  0
LINE
  5
25E
  8
3
  6
CONTINUOUS
 62
     7
 10
-78.8
 20
703.1233886580958
 30
0.0
 11
-78.8
 21
703.4603921945629
 31
0.0
  0
ARC
  5
25F
  8
3
  6
CONTINUOUS
 62
     7
 10
-74.03960780543711
 20
699.6999999999999
 30
0.0
 40
1.0
 50
270.0
 51
312.8334280660673
  0
ARC
  5
260
  8
3
  6
CONTINUOUS
 62
     7
 10
-77.80000000000001
 20
691.5396078054371
 30
0.0
 40
1.0
 50
180.0
 51
222.8334280660672
  0
LINE
  5
261
  8
3
  6
CONTINUOUS
 62
     7
 10
-88.50071426749363
 20
703.0
 30
0.0
 11
-85.5
 21
706.0007142674937
 31
0.0
  0
LINE
  5
262
  8
3
  6
CONTINUOUS
 62
     7
 10
-81.0
 20
722.0
 30
0.0
 11
-79.0
 21
722.0
 31
0.0
  0
LINE
  5
263
  8
3
  6
CONTINUOUS
 62
     7
 10
-74.03960780543711
 20
698.6999999999999
 30
0.0
 11
-74.37661134190424
 21
698.6999999999999
 31
0.0
  0
ARC
  5
264
  8
3
  6
CONTINUOUS
 62
     7
 10
-77.8
 20
703.4603921945629
 30
0.0
 40
1.0
 50
137.1665719339329
 51
180.0
  0
ARC
  5
265
  8
3
  6
CONTINUOUS
 62
     7
 10
-74.0396078054371
 20
695.3000000000001
 30
0.0
 40
1.0
 50
47.16657193393291
 51
90.0
  0
ARC
  5
266
  8
3
  6
CONTINUOUS
 62
     7
 10
-85.96039219456289
 20
695.3000000000001
 30
0.0
 40
1.0
 50
90.00000000000006
 51
132.8334280660673
  0
LINE
  5
267
  8
3
  6
CONTINUOUS
 62
     7
 10
-74.5
 20
688.9992857325065
 30
0.0
 11
-74.5
 21
677.5000000000001
 31
0.0
  0
ARC
  5
268
  8
3
  6
CONTINUOUS
 62
     7
 10
-82.19999999999999
 20
703.4603921945629
 30
0.0
 40
1.0
 50
0.0
 51
42.83342806606731
  0
LINE
  5
269
  8
3
  6
CONTINUOUS
 62
     9
 10
-69.8
 20
697.5
 30
0.0
 11
-69.99999999999999
 21
697.5
 31
0.0
  0
LINE
  5
26A
  8
3
  6
CONTINUOUS
 62
     7
 10
-74.37661134190424
 20
696.3000000000001
 30
0.0
 11
-74.03960780543709
 21
696.3000000000001
 31
0.0
  0
LINE
  5
26B
  8
3
  6
CONTINUOUS
 62
     7
 10
-78.8
 20
691.5396078054371
 30
0.0
 11
-78.8
 21
691.8766113419042
 31
0.0
  0
ARC
  5
26C
  8
3
  6
CONTINUOUS
 62
     7
 10
-85.9603921945629
 20
699.6999999999999
 30
0.0
 40
1.0
 50
227.1665719339328
 51
270.0
  0
LINE
  5
26D
  8
3
  6
CONTINUOUS
 62
     7
 10
-71.49928573250638
 20
692.0
 30
0.0
 11
-74.5
 21
688.9992857325065
 31
0.0
  0
LINE
  5
26E
  8
3
  6
CONTINUOUS
 62
     7
 10
-74.5
 20
717.5
 30
0.0
 11
-74.5
 21
706.0007142674937
 31
0.0
  0
LINE
  5
26F
  8
3
  6
CONTINUOUS
 62
     7
 10
-85.62338865809576
 20
698.6999999999999
 30
0.0
 11
-85.9603921945629
 21
698.6999999999999
 31
0.0
  0
LINE
  5
270
  8
3
  6
CONTINUOUS
 62
     7
 10
-85.5
 20
677.5000000000001
 30
0.0
 11
-85.5
 21
688.9992857325065
 31
0.0
  0
LINE
  5
271
  8
3
  6
CONTINUOUS
 62
     7
 10
-85.5
 20
688.9992857325063
 30
0.0
 11
-88.50071426749366
 21
691.9999999999999
 31
0.0
  0
LINE
  5
272
  8
3
  6
CONTINUOUS
 62
     7
 10
-74.5
 20
706.0007142674937
 30
0.0
 11
-71.49928573250638
 21
703.0
 31
0.0
  0
LINE
  5
273
  8
3
  6
CONTINUOUS
 62
     7
 10
-11.45000000000002
 20
635.5000000000001
 30
0.0
 11
-11.45000000000002
 21
636.5000000000001
 31
0.0
  0
LINE
  5
274
  8
3
  6
CONTINUOUS
 62
     7
 10
-42.55
 20
636.5000000000002
 30
0.0
 11
-42.55
 21
635.5000000000002
 31
0.0
  0
LINE
  5
275
  8
3
  6
CONTINUOUS
 62
     7
 10
-95.54999999999998
 20
759.4999999999998
 30
0.0
 11
-95.54999999999998
 21
758.4999999999998
 31
0.0
  0
LINE
  5
276
  8
3
  6
CONTINUOUS
 62
     7
 10
-64.44999999999999
 20
758.4999999999997
 30
0.0
 11
-64.44999999999999
 21
759.4999999999997
 31
0.0
  0
LINE
  5
277
  8
3
  6
CONTINUOUS
 62
     7
 10
-117.45
 20
635.5000000000001
 30
0.0
 11
-117.45
 21
636.5000000000001
 31
0.0
  0
LINE
  5
278
  8
3
  6
CONTINUOUS
 62
     7
 10
-148.55
 20
636.5000000000002
 30
0.0
 11
-148.55
 21
635.5000000000002
 31
0.0
  0
LINE
  5
279
  8
3
  6
CONTINUOUS
 62
     7
 10
-64.45
 20
635.5000000000001
 30
0.0
 11
-64.45
 21
636.5000000000001
 31
0.0
  0
LINE
  5
27A
  8
3
  6
CONTINUOUS
 62
     7
 10
-95.55
 20
636.5000000000002
 30
0.0
 11
-95.55
 21
635.5000000000002
 31
0.0
  0
LINE
  5
27B
  8
3
  6
CONTINUOUS
 62
     7
 10
-148.55
 20
759.4999999999998
 30
0.0
 11
-148.55
 21
758.4999999999998
 31
0.0
  0
LINE
  5
27C
  8
3
  6
CONTINUOUS
 62
     7
 10
-117.45
 20
758.4999999999997
 30
0.0
 11
-117.45
 21
759.4999999999997
 31
0.0
  0
LINE
  5
27D
  8
3
  6
CONTINUOUS
 62
     7
 10
-42.54999999999998
 20
759.4999999999998
 30
0.0
 11
-42.54999999999998
 21
758.4999999999998
 31
0.0
  0
LINE
  5
27E
  8
3
  6
CONTINUOUS
 62
     7
 10
-11.45
 20
758.4999999999997
 30
0.0
 11
-11.45
 21
759.4999999999997
 31
0.0
  0
ENDBLK
  8
0
  0
ENDSEC
  0
SECTION
  2
ENTITIES
  0
ARC
  5
70
  8
3
  6
CONTINUOUS
 62
     7
 10
46.64999999999994
 20
697.5
 30
0.0
 40
1.000000000000001
 50
270.0000000000004
 51
90.0
  0
ARC
  5
71
  8
3
  6
CONTINUOUS
 62
     7
 10
-80.0
 20
689.5
 30
0.0
 40
1.999999999999999
 50
137.1665719339338
 51
42.83342806606629
  0
ARC
  5
72
  8
3
  6
CONTINUOUS
 62
     7
 10
-80.0
 20
705.5
 30
0.0
 40
2.0
 50
317.1665719339337
 51
222.8334280660665
  0
CIRCLE
  5
73
  8
3
  6
CONTINUOUS
 62
     7
 10
3.499999999999989
 20
554.15
 30
0.0
 40
2.249999999999995
  0
LINE
  5
74
  8
3
  6
CONTINUOUS
 62
     7
 10
-55.75000000000002
 20
672.5
 30
0.0
 11
-58.25000000000001
 21
672.5
 31
0.0
  0
LINE
  5
75
  8
3
  6
CONTINUOUS
 62
     7
 10
-58.24999999999998
 20
725.0
 30
0.0
 11
-55.74999999999999
 21
725.0
 31
0.0
  0
LINE
  5
76
  8
3
  6
CONTINUOUS
 62
     7
 10
-58.24999999999998
 20
722.5
 30
0.0
 11
-55.74999999999999
 21
722.5
 31
0.0
  0
CIRCLE
  5
77
  8
3
  6
CONTINUOUS
 62
     7
 10
-163.5
 20
554.15
 30
0.0
 40
2.249999999999995
  0
LINE
  5
78
  8
3
  6
CONTINUOUS
 62
     7
 10
-58.24999999999999
 20
743.25
 30
0.0
 11
-55.75
 21
743.25
 31
0.0
  0
CIRCLE
  5
79
  8
3
  6
CONTINUOUS
 62
     7
 10
-80.0
 20
697.5
 30
0.0
 40
5.749999999999998
  0
ARC
  5
7A
  8
3
  6
CONTINUOUS
 62
     7
 10
-72.0
 20
697.5
 30
0.0
 40
2.0
 50
227.1665719339318
 51
132.8334280660681
  0
ARC
  5
7B
  8
3
  6
CONTINUOUS
 62
     7
 10
42.84999999999994
 20
697.5
 30
0.0
 40
1.000000000000001
 50
90.00000000000043
 51
270.0000000000001
  0
ARC
  5
7C
  8
3
  6
CONTINUOUS
 62
     7
 10
-88.0
 20
697.5
 30
0.0
 40
1.999999999999999
 50
47.16657193393271
 51
312.8334280660682
  0
LINE
  5
7D
  8
3
  6
CONTINUOUS
 62
     7
 10
-55.75000000000001
 20
651.75
 30
0.0
 11
-58.25000000000001
 21
651.75
 31
0.0
  0
LINE
  5
7E
  8
3
  6
CONTINUOUS
 62
     7
 10
-55.74999999999999
 20
732.5
 30
0.0
 11
-58.24999999999999
 21
732.5
 31
0.0
  0
LINE
  5
7F
  8
3
  6
CONTINUOUS
 62
     7
 10
-55.75000000000002
 20
670.0
 30
0.0
 11
-58.25000000000001
 21
670.0
 31
0.0
  0
LINE
  5
80
  8
3
  6
CONTINUOUS
 62
     7
 10
-55.74999999999999
 20
741.5
 30
0.0
 11
-58.24999999999999
 21
741.5
 31
0.0
  0
LINE
  5
81
  8
3
  6
CONTINUOUS
 62
     7
 10
-55.75
 20
651.5
 30
0.0
 11
-55.74999999999999
 21
743.5
 31
0.0
  0
LINE
  5
82
  8
3
  6
CONTINUOUS
 62
     7
 10
-58.24999999999999
 20
651.5
 30
0.0
 11
-58.24999999999999
 21
743.5
 31
0.0
  0
LINE
  5
83
  8
3
  6
CONTINUOUS
 62
     7
 10
-55.75000000000001
 20
653.5
 30
0.0
 11
-58.25000000000001
 21
653.5
 31
0.0
  0
LINE
  5
84
  8
3
  6
CONTINUOUS
 62
     7
 10
-55.74999999999999
 20
733.5
 30
0.0
 11
-58.24999999999999
 21
733.5
 31
0.0
  0
LINE
  5
85
  8
3
  6
CONTINUOUS
 62
     7
 10
-55.75
 20
661.5
 30
0.0
 11
-58.25000000000001
 21
661.5
 31
0.0
  0
LINE
  5
86
  8
3
  6
CONTINUOUS
 62
     7
 10
-55.75000000000001
 20
662.5
 30
0.0
 11
-58.25000000000001
 21
662.5
 31
0.0
  0
INSERT
  5
AA
  8
3
  6
CONTINUOUS
 62
     7
  2
D_FRAME_VIEW_5521
 10
0.0
 20
0.0
 30
0.0
  0
INSERT
  5
C6
  8
3
  6
CONTINUOUS
 62
     7
  2
D_FRAME_VIEW_5215
 10
0.0
 20
0.0
 30
0.0
  0
LINE
  5
C7
  8
3
  6
CONTINUOUS
 62
     7
 10
-101.75
 20
651.5
 30
0.0
 11
-101.75
 21
743.5
 31
0.0
  0
LINE
  5
C8
  8
3
  6
CONTINUOUS
 62
     7
 10
72.84999999999994
 20
637.4999999999999
 30
0.0
 11
72.84999999999994
 21
757.5
 31
0.0
  0
LINE
  5
C9
  8
3
  6
CONTINUOUS
 62
     7
 10
72.39999999999993
 20
758.4999999999999
 30
0.0
 11
37.14999999999995
 21
758.4999999999999
 31
0.0
  0
LINE
  5
CA
  8
3
  6
CONTINUOUS
 62
     7
 10
72.3999999999999
 20
635.4999999999999
 30
0.0
 11
41.3
 21
635.4999999999999
 31
0.0
  0
LINE
  5
CB
  8
3
  6
CONTINUOUS
 62
     7
 10
-101.65
 20
701.0
 30
0.0
 11
-101.65
 21
743.5
 31
0.0
  0
LINE
  5
CC
  8
3
  6
CONTINUOUS
 62
     7
 10
-58.35
 20
694.0
 30
0.0
 11
-58.35000000000017
 21
651.5
 31
0.0
  0
LINE
  5
CD
  8
3
  6
CONTINUOUS
 62
     7
 10
-55.65000000000084
 20
743.4999999999999
 30
0.0
 11
-55.64999999999998
 21
700.9999999999999
 31
0.0
  0
LINE
  5
CE
  8
3
  6
CONTINUOUS
 62
     7
 10
-100.65
 20
743.5
 30
0.0
 11
-100.65
 21
701.7071067811866
 31
0.0
  0
LINE
  5
CF
  8
3
  6
CONTINUOUS
 62
     7
 10
-171.0
 20
638.5
 30
0.0
 11
-171.0
 21
756.4999999999999
 31
0.0
  0
LINE
  5
D0
  8
3
  6
CONTINUOUS
 62
     7
 10
8.999999999999995
 20
636.5
 30
0.0
 11
-169.0
 21
636.5
 31
0.0
  0
LINE
  5
D1
  8
3
  6
CONTINUOUS
 62
     7
 10
-55.65000000000084
 20
651.5000000000001
 30
0.0
 11
-55.64999999999998
 21
694.0
 31
0.0
  0
LINE
  5
D2
  8
3
  6
CONTINUOUS
 62
     7
 10
11.0
 20
585.35
 30
0.0
 11
11.0
 21
550.6500000000001
 31
0.0
  0
LINE
  5
D3
  8
3
  6
CONTINUOUS
 62
     7
 10
-59.35
 20
651.5
 30
0.0
 11
-59.35
 21
693.2928932188134
 31
0.0
  0
LINE
  5
D4
  8
3
  6
CONTINUOUS
 62
     7
 10
-170.5
 20
557.6500000000001
 30
0.0
 11
-167.0
 21
557.6500000000001
 31
0.0
  0
LINE
  5
D5
  8
3
  6
CONTINUOUS
 62
     7
 10
-100.65
 20
651.5
 30
0.0
 11
-100.65
 21
693.2928932188134
 31
0.0
  0
LINE
  5
D6
  8
3
  6
CONTINUOUS
 62
     7
 10
-169.0
 20
758.500000000001
 30
0.0
 11
9.000000000000007
 21
758.5
 31
0.0
  0
LINE
  5
D7
  8
3
  6
CONTINUOUS
 62
     7
 10
11.0
 20
756.4999999999999
 30
0.0
 11
11.0
 21
638.5
 31
0.0
  0
LINE
  5
D8
  8
3
  6
CONTINUOUS
 62
     7
 10
-104.3499999999993
 20
743.4999999999999
 30
0.0
 11
-104.35
 21
700.9999999999999
 31
0.0
  0
LINE
  5
D9
  8
3
  6
CONTINUOUS
 62
     7
 10
-171.0
 20
585.35
 30
0.0
 11
-171.0
 21
550.6500000000001
 31
0.0
  0
LINE
  5
DA
  8
3
  6
CONTINUOUS
 62
     7
 10
64.64999999999996
 20
693.5
 30
0.0
 11
72.84999999999994
 21
693.5
 31
0.0
  0
LINE
  5
DB
  8
3
  6
CONTINUOUS
 62
     7
 10
-54.65000000000001
 20
701.7071067811866
 30
0.0
 11
-54.65000000000001
 21
743.4999999999999
 31
0.0
  0
LINE
  5
DC
  8
3
  6
CONTINUOUS
 62
     7
 10
-58.35
 20
701.0
 30
0.0
 11
-58.35000000000017
 21
743.5
 31
0.0
  0
LINE
  5
DD
  8
3
  6
CONTINUOUS
 62
     7
 10
64.84999999999994
 20
754.5
 30
0.0
 11
64.84999999999995
 21
758.0
 31
0.0
  0
LINE
  5
DE
  8
3
  6
CONTINUOUS
 62
     7
 10
-154.3
 20
746.0
 30
0.0
 11
-157.7
 21
746.0
 31
0.0
  0
LINE
  5
DF
  8
3
  6
CONTINUOUS
 62
     7
 10
-171.0
 20
585.35
 30
0.0
 11
10.99999999999998
 21
585.35
 31
0.0
  0
LINE
  5
E0
  8
3
  6
CONTINUOUS
 62
     7
 10
-104.3499999999993
 20
651.5000000000001
 30
0.0
 11
-104.35
 21
694.0
 31
0.0
  0
LINE
  5
E1
  8
3
  6
CONTINUOUS
 62
     7
 10
-105.35
 20
693.2928932188134
 30
0.0
 11
-105.35
 21
651.5000000000001
 31
0.0
  0
LINE
  5
E2
  8
3
  6
CONTINUOUS
 62
     7
 10
64.84999999999995
 20
637.0
 30
0.0
 11
64.84999999999994
 21
640.5
 31
0.0
  0
LINE
  5
E3
  8
3
  6
CONTINUOUS
 62
     7
 10
37.14999999999995
 20
636.5
 30
0.0
 11
72.39999999999995
 21
636.5
 31
0.0
  0
LINE
  5
E4
  8
3
  6
CONTINUOUS
 62
     7
 10
37.14999999999995
 20
636.5
 30
0.0
 11
37.14999999999995
 21
758.5
 31
0.0
  0
LINE
  5
E5
  8
3
  6
CONTINUOUS
 62
     7
 10
-59.35
 20
743.5
 30
0.0
 11
-59.35
 21
701.7071067811866
 31
0.0
  0
LINE
  5
E6
  8
3
  6
CONTINUOUS
 62
     7
 10
7.000000000000034
 20
557.6500000000001
 30
0.0
 11
10.49999999999999
 21
557.6500000000001
 31
0.0
  0
LINE
  5
E7
  8
3
  6
CONTINUOUS
 62
     7
 10
-105.35
 20
701.7071067811866
 30
0.0
 11
-105.35
 21
743.4999999999999
 31
0.0
  0
LINE
  5
E8
  8
3
  6
CONTINUOUS
 62
     7
 10
72.84999999999994
 20
701.5
 30
0.0
 11
64.64999999999996
 21
701.5
 31
0.0
  0
LINE
  5
E9
  8
3
  6
CONTINUOUS
 62
     7
 10
-54.65000000000001
 20
693.2928932188134
 30
0.0
 11
-54.65000000000001
 21
651.5000000000001
 31
0.0
  0
LINE
  5
EA
  8
3
  6
CONTINUOUS
 62
     7
 10
-101.65
 20
693.9999999999999
 30
0.0
 11
-101.65
 21
651.5
 31
0.0
  0
LINE
  5
EB
  8
3
  6
CONTINUOUS
 62
     7
 10
9.999999999999995
 20
549.6500000000001
 30
0.0
 11
-170.0
 21
549.6500000000001
 31
0.0
  0
LINE
  5
EC
  8
3
  6
CONTINUOUS
 62
     7
 10
-157.7
 20
649.0
 30
0.0
 11
-154.3
 21
649.0
 31
0.0
  0
LINE
  5
ED
  8
3
  6
CONTINUOUS
 62
     7
 10
-2.299999999999983
 20
746.0
 30
0.0
 11
-5.699999999999969
 21
746.0
 31
0.0
  0
LINE
  5
EE
  8
3
  6
CONTINUOUS
 62
     7
 10
-5.699999999999969
 20
649.0
 30
0.0
 11
-2.299999999999983
 21
649.0
 31
0.0
  0
ARC
  5
EF
  8
3
  6
CONTINUOUS
 62
     7
 10
-99.0
 20
697.5
 30
0.0
 40
3.000000000000003
 50
203.5564643091004
 51
156.4435356908996
  0
ARC
  5
F0
  8
3
  6
CONTINUOUS
 62
     7
 10
-61.0
 20
697.5
 30
0.0
 40
2.999999999999996
 50
23.55646430910039
 51
336.4435356908996
  0
LINE
  5
F1
  8
3
  6
CONTINUOUS
 62
     7
 10
-104.25
 20
651.5
 30
0.0
 11
-104.25
 21
743.5
 31
0.0
  0
LINE
  5
F2
  8
3
  6
CONTINUOUS
 62
     7
 10
-104.25
 20
722.5
 30
0.0
 11
-101.75
 21
722.5
 31
0.0
  0
LINE
  5
F3
  8
3
  6
CONTINUOUS
 62
     7
 10
-101.75
 20
672.5
 30
0.0
 11
-104.25
 21
672.5
 31
0.0
  0
LINE
  5
F4
  8
3
  6
CONTINUOUS
 62
     7
 10
-101.75
 20
662.5
 30
0.0
 11
-104.25
 21
662.5
 31
0.0
  0
LINE
  5
F5
  8
3
  6
CONTINUOUS
 62
     7
 10
-101.75
 20
653.5
 30
0.0
 11
-104.25
 21
653.5
 31
0.0
  0
LINE
  5
F6
  8
3
  6
CONTINUOUS
 62
     7
 10
-101.75
 20
651.75
 30
0.0
 11
-104.25
 21
651.75
 31
0.0
  0
LINE
  5
F7
  8
3
  6
CONTINUOUS
 62
     7
 10
-104.25
 20
725.0
 30
0.0
 11
-101.75
 21
725.0
 31
0.0
  0
LINE
  5
F8
  8
3
  6
CONTINUOUS
 62
     7
 10
-104.25
 20
743.25
 30
0.0
 11
-101.75
 21
743.25
 31
0.0
  0
LINE
  5
F9
  8
3
  6
CONTINUOUS
 62
     7
 10
-101.75
 20
661.5
 30
0.0
 11
-104.25
 21
661.5
 31
0.0
  0
LINE
  5
FA
  8
3
  6
CONTINUOUS
 62
     7
 10
-101.75
 20
732.5
 30
0.0
 11
-104.25
 21
732.5
 31
0.0
  0
LINE
  5
FB
  8
3
  6
CONTINUOUS
 62
     7
 10
-101.75
 20
733.5
 30
0.0
 11
-104.25
 21
733.5
 31
0.0
  0
LINE
  5
FC
  8
3
  6
CONTINUOUS
 62
     7
 10
-101.75
 20
670.0
 30
0.0
 11
-104.25
 21
670.0
 31
0.0
  0
LINE
  5
FD
  8
3
  6
CONTINUOUS
 62
     7
 10
-101.75
 20
741.5
 30
0.0
 11
-104.25
 21
741.5
 31
0.0
  0
TEXT
  5
FE
  8
3
  6
CONTINUOUS
 62
     7
 10
-98.10611479304738
 20
519.1568400650243
 30
0.0
 40
6.0
  1
CSW-3SSNF
  0
INSERT
  5
27F
  8
3
  6
CONTINUOUS
 62
     7
  2
D_FRAME_VIEW_3845
 10
0.0
 20
0.0
 30
0.0
  0
ENDSEC
  0
EOF
