  0
SECTION
  2
HEADER
  9
$ACADVER
  1
AC1006
  9
$DWGCODEPAGE
  3
ansi_932
  9
$INSBASE
 10
0.0
 20
0.0
 30
0.0
  9
$EXTMIN
 10
66.99999999999999
 20
148.6704545454546
  9
$EXTMAX
 10
92.99999999999999
 20
222.5
  9
$LIMMIN
 10
0.0
 20
0.0
  9
$LIMMAX
 10
12.0
 20
9.0
  9
$ORTHOMODE
 70
     0
  9
$REGENMODE
 70
     1
  9
$FILLMODE
 70
     1
  9
$QTEXTMODE
 70
     0
  9
$MIRRTEXT
 70
     1
  9
$DRAGMODE
 70
     2
  9
$LTSCALE
 40
1.0
  9
$OSMODE
 70
    37
  9
$ATTMODE
 70
     1
  9
$TEXTSIZE
 40
0.2
  9
$TRACEWID
 40
0.05
  9
$TEXTSTYLE
  7
STANDARD
  9
$CLAYER
  8
0
  9
$CELTYPE
  6
BYLAYER
  9
$CECOLOR
 62
   256
  9
$DIMSCALE
 40
1.0
  9
$DIMASZ
 40
3.0
  9
$DIMEXO
 40
0.0625
  9
$DIMDLI
 40
0.38
  9
$DIMRND
 40
0.0
  9
$DIMDLE
 40
0.0
  9
$DIMEXE
 40
1.5
  9
$DIMTP
 40
0.0
  9
$DIMTM
 40
0.0
  9
$DIMTXT
 40
3.0
  9
$DIMCEN
 40
0.09
  9
$DIMTSZ
 40
0.0
  9
$DIMTOL
 70
     0
  9
$DIMLIM
 70
     0
  9
$DIMTIH
 70
     1
  9
$DIMTOH
 70
     1
  9
$DIMSE1
 70
     0
  9
$DIMSE2
 70
     0
  9
$DIMTAD
 70
     1
  9
$DIMZIN
 70
     0
  9
$DIMBLK
  1

  9
$DIMASO
 70
     1
  9
$DIMSHO
 70
     1
  9
$DIMPOST
  1

  9
$DIMAPOST
  1

  9
$DIMALT
 70
     0
  9
$DIMALTD
 70
     2
  9
$DIMALTF
 40
25.4
  9
$DIMLFAC
 40
1.0
  9
$DIMTOFL
 70
     0
  9
$DIMTVP
 40
0.0
  9
$DIMTIX
 70
     0
  9
$DIMSOXD
 70
     0
  9
$DIMSAH
 70
     0
  9
$DIMBLK1
  1

  9
$DIMBLK2
  1

  9
$LUNITS
 70
     2
  9
$LUPREC
 70
     4
  9
$SKETCHINC
 40
0.1
  9
$FILLETRAD
 40
0.5
  9
$AUNITS
 70
     0
  9
$AUPREC
 70
     0
  9
$MENU
  1
.
  9
$ELEVATION
 40
0.0
  9
$THICKNESS
 40
0.0
  9
$LIMCHECK
 70
     0
  9
$CHAMFERA
 40
0.0
  9
$CHAMFERB
 40
0.0
  9
$SKPOLY
 70
     0
  9
$TDCREATE
 40
2459467.460048738
  9
$TDUPDATE
 40
2459467.460048924
  9
$TDINDWG
 40
0.0000000116
  9
$TDUSRTIMER
 40
0.0000000116
  9
$USRTIMER
 70
     1
  9
$ANGBASE
 50
0.0
  9
$ANGDIR
 70
     0
  9
$PDMODE
 70
     0
  9
$PDSIZE
 40
0.0
  9
$PLINEWID
 40
0.0
  9
$COORDS
 70
     1
  9
$SPLFRAME
 70
     0
  9
$SPLINETYPE
 70
     6
  9
$SPLINESEGS
 70
     8
  9
$ATTDIA
 70
     0
  9
$ATTREQ
 70
     1
  9
$HANDLING
 70
     1
  9
$HANDSEED
  5
F5
  9
$SURFTAB1
 70
     6
  9
$SURFTAB2
 70
     6
  9
$SURFTYPE
 70
     6
  9
$SURFU
 70
     6
  9
$SURFV
 70
     6
  9
$UCSNAME
  2

  9
$UCSORG
 10
0.0
 20
0.0
 30
0.0
  9
$UCSXDIR
 10
1.0
 20
0.0
 30
0.0
  9
$UCSYDIR
 10
0.0
 20
1.0
 30
0.0
  9
$USERI1
 70
     0
  9
$USERI2
 70
     0
  9
$USERI3
 70
     0
  9
$USERI4
 70
     0
  9
$USERI5
 70
     0
  9
$USERR1
 40
0.0
  9
$USERR2
 40
0.0
  9
$USERR3
 40
0.0
  9
$USERR4
 40
0.0
  9
$USERR5
 40
0.0
  9
$WORLDVIEW
 70
     1
  0
ENDSEC
  0
SECTION
  2
TABLES
  0
TABLE
  2
VPORT
 70
     1
  0
VPORT
  2
*ACTIVE
 70
     0
 10
0.0
 20
0.0
 11
1.0
 21
1.0
 12
79.99999999999999
 22
185.5852272727273
 13
0.0
 23
0.0
 14
0.5
 24
0.5
 15
0.5
 25
0.5
 16
0.0
 26
0.0
 36
1.0
 17
0.0
 27
0.0
 37
0.0
 40
73.82954545454547
 41
1.6
 42
50.0
 43
0.0
 44
0.0
 50
0.0
 51
0.0
 71
     0
 72
   100
 73
     1
 74
     3
 75
     0
 76
     0
 77
     0
 78
     0
  0
ENDTAB
  0
TABLE
  2
LTYPE
 70
     2
  0
LTYPE
  2
CONTINUOUS
 70
     0
  3
Solid line
 72
    65
 73
     0
 40
0.0
  0
LTYPE
  2
CENTER
 70
     0
  3

 72
    65
 73
     0
 40
0.0
  0
ENDTAB
  0
TABLE
  2
LAYER
 70
     1
  0
LAYER
  2
0
 70
     0
 62
     7
  6
CONTINUOUS
  0
ENDTAB
  0
TABLE
  2
STYLE
 70
     2
  0
STYLE
  2
STANDARD
 70
     0
 40
0.0
 41
1.0
 50
0.0
 71
     0
 42
0.2
  3
txt
  4

  0
STYLE
  2
ＭＳ_ゴシック
 70
     0
 40
0.0
 41
1.0
 50
0.0
 71
     0
 42
0.2
  3
ＭＳ ゴシック.shx
  4

  0
ENDTAB
  0
TABLE
  2
VIEW
 70
     0
  0
ENDTAB
  0
TABLE
  2
UCS
 70
     0
  0
ENDTAB
  0
ENDSEC
  0
SECTION
  2
BLOCKS
  0
ENDSEC
  0
SECTION
  2
ENTITIES
  0
TEXT
  5
6F
  8
0
  6
CONTINUOUS
 62
     7
 10
74.792259597349
 20
148.3284200325122
 30
0.0
 40
3.0
  1
DA-KHN
  0
LINE
  5
70
  8
0
  6
CENTER
 62
     1
 10
79.99999999999999
 20
222.5
 30
0.0
 11
79.99999999999999
 21
185.0
 31
0.0
  0
LINE
  5
72
  8
0
  6
CENTER
 62
     1
 10
66.99999999999999
 20
165.0
 30
0.0
 11
92.99999999999999
 21
165.0
 31
0.0
  0
LINE
  5
73
  8
0
  6
CONTINUOUS
 62
     7
 10
70.82649999999998
 20
192.464955744281
 30
0.0
 11
70.82649999999998
 21
192.1637335370214
 31
0.0
  0
LINE
  5
74
  8
0
  6
CONTINUOUS
 62
     7
 10
69.80919525479005
 20
191.1729140066077
 30
0.0
 11
70.82513529504294
 21
190.6426682397076
 31
0.0
  0
LINE
  5
75
  8
0
  6
CONTINUOUS
 62
     7
 10
69.29738090211178
 20
199.0072934365126
 30
0.0
 11
90.7026160673221
 21
199.003270470457
 31
0.0
  0
LINE
  5
76
  8
0
  6
CONTINUOUS
 62
     7
 10
89.17349999999999
 20
193.0708386121645
 30
0.0
 11
89.17349999999999
 21
193.3721498637866
 31
0.0
  0
LINE
  5
77
  8
0
  6
CONTINUOUS
 62
     7
 10
70.88476781276329
 20
195.8313288705879
 30
0.0
 11
69.7883119427457
 21
195.2578797278871
 31
0.0
  0
LINE
  5
78
  8
0
  6
CONTINUOUS
 62
     7
 10
90.99999999999999
 20
201.2
 30
0.0
 11
68.99999999999999
 21
201.2
 31
0.0
  0
LINE
  5
79
  8
0
  6
CONTINUOUS
 62
     7
 10
70.82649999999998
 20
196.09363195312
 30
0.0
 11
70.82649999999998
 21
195.7921688716949
 31
0.0
  0
LINE
  5
7A
  8
0
  6
CONTINUOUS
 62
     7
 10
89.17349999999999
 20
191.2566026368198
 30
0.0
 11
89.0814397364953
 21
191.1610582973499
 31
0.0
  0
ARC
  5
7B
  8
0
  6
CONTINUOUS
 62
     7
 10
73.9815973792512
 20
279.7001409937211
 30
0.0
 40
89.8174504421523
 50
273.867467368518
 51
279.6783567901227
  0
POLYLINE
  5
7C
  8
0
  6
CONTINUOUS
 62
     7
 66
     1
 10
0.0
 20
0.0
 30
0.0
  0
VERTEX
  5
E3
  8
0
  6
CONTINUOUS
 62
     7
 10
80.03967600801926
 20
190.0872284908002
 30
0.0
  0
VERTEX
  5
E4
  8
0
  6
CONTINUOUS
 62
     7
 10
80.09525981490377
 20
189.9877665701661
 30
0.0
  0
VERTEX
  5
E5
  8
0
  6
CONTINUOUS
 62
     7
 10
80.21846766419203
 20
189.9610190671921
 30
0.0
  0
VERTEX
  5
E6
  8
0
  6
CONTINUOUS
 62
     7
 10
84.69609507958681
 20
189.8567859979122
 30
0.0
  0
VERTEX
  5
E7
  8
0
  6
CONTINUOUS
 62
     7
 10
89.17349999999999
 20
189.7433973631804
 30
0.0
  0
SEQEND
  5
F1
  8
0
  6
CONTINUOUS
 62
     7
  0
ARC
  5
7D
  8
0
  6
CONTINUOUS
 62
     7
 10
90.0731460106749
 20
197.7573669848353
 30
0.0
 40
0.2619898172221605
 50
301.9459266073152
 51
63.54203209157981
  0
ARC
  5
7E
  8
0
  6
CONTINUOUS
 62
     7
 10
90.07345835367778
 20
195.9431134076897
 30
0.0
 40
0.2615460915541101
 50
301.9551378022081
 51
59.62011358751739
  0
POLYLINE
  5
7F
  8
0
  6
CONTINUOUS
 62
     7
 66
     1
 10
0.0
 20
0.0
 30
0.0
  0
VERTEX
  5
E8
  8
0
  6
CONTINUOUS
 62
     7
 10
90.20573030675796
 20
196.1687469345327
 30
0.0
  0
VERTEX
  5
E9
  8
0
  6
CONTINUOUS
 62
     7
 10
90.05454418029507
 20
196.2483642781663
 30
0.0
  0
VERTEX
  5
EA
  8
0
  6
CONTINUOUS
 62
     7
 10
89.16761738700154
 20
196.7111262486515
 30
0.0
  0
SEQEND
  5
F2
  8
0
  6
CONTINUOUS
 62
     7
  0
LINE
  5
80
  8
0
  6
CONTINUOUS
 62
     7
 10
89.0
 20
201.2
 30
0.0
 11
89.0
 21
220.5
 31
0.0
  0
ARC
  5
81
  8
0
  6
CONTINUOUS
 62
     7
 10
90.07313237067476
 20
194.1289337946104
 30
0.0
 40
0.2620000259969412
 50
301.9779459479419
 51
63.5683659618665
  0
ARC
  5
82
  8
0
  6
CONTINUOUS
 62
     7
 10
90.07388923054788
 20
192.3144312394662
 30
0.0
 40
0.2614221072508957
 50
302.299408553934
 51
59.94870110040592
  0
POLYLINE
  5
83
  8
0
  6
CONTINUOUS
 62
     7
 66
     1
 10
0.0
 20
0.0
 30
0.0
  0
VERTEX
  5
EB
  8
0
  6
CONTINUOUS
 62
     7
 10
90.20480293390774
 20
192.5407123045868
 30
0.0
  0
VERTEX
  5
EC
  8
0
  6
CONTINUOUS
 62
     7
 10
89.77234337575973
 20
192.7670754705382
 30
0.0
  0
VERTEX
  5
ED
  8
0
  6
CONTINUOUS
 62
     7
 10
89.17151090959257
 20
193.0806356277818
 30
0.0
  0
SEQEND
  5
F3
  8
0
  6
CONTINUOUS
 62
     7
  0
ARC
  5
84
  8
0
  6
CONTINUOUS
 62
     7
 10
69.92713079804888
 20
193.2210924444124
 30
0.0
 40
0.2621236584151131
 50
122.5337337011776
 51
243.7400014835587
  0
LINE
  5
85
  8
0
  6
CONTINUOUS
 62
     7
 10
69.81048933149565
 20
196.6150102332019
 30
0.0
 11
70.82510173644744
 21
196.0855695549834
 31
0.0
  0
ARC
  5
86
  8
0
  6
CONTINUOUS
 62
     7
 10
69.92635192451037
 20
191.4070313434379
 30
0.0
 40
0.2617949821222973
 50
121.8755758265098
 51
243.4157648666515
  0
LINE
  5
87
  8
0
  6
CONTINUOUS
 62
     7
 10
69.81115544512737
 20
192.9860211152044
 30
0.0
 11
70.82507598785854
 21
192.4570684522828
 31
0.0
  0
ARC
  5
88
  8
0
  6
CONTINUOUS
 62
     7
 10
69.92688543015377
 20
195.0355739122248
 30
0.0
 40
0.2619589416105932
 50
121.9371939495786
 51
243.4845029532023
  0
ARC
  5
89
  8
0
  6
CONTINUOUS
 62
     7
 10
69.9268803210148
 20
196.8496228596011
 30
0.0
 40
0.2618968249276087
 50
122.3965642851823
 51
243.614055921256
  0
LINE
  5
8A
  8
0
  6
CONTINUOUS
 62
     7
 10
90.14092845121998
 20
190.7544746421493
 30
0.0
 11
89.16305849135159
 21
191.2529412487541
 31
0.0
  0
LINE
  5
8B
  8
0
  6
CONTINUOUS
 62
     7
 10
89.0
 20
220.5
 30
0.0
 11
70.99999999999997
 21
220.5
 31
0.0
  0
ARC
  5
8C
  8
0
  6
CONTINUOUS
 62
     7
 10
69.92672323610218
 20
198.6640259823363
 30
0.0
 40
0.2619607936591972
 50
121.9122449462789
 51
243.5297194679146
  0
ARC
  5
8D
  8
0
  6
CONTINUOUS
 62
     7
 10
90.08550232880688
 20
190.5000024864418
 30
0.0
 40
0.2499967191774931
 50
0.9863786124782966
 51
62.50021029336758
  0
LINE
  5
8E
  8
0
  6
CONTINUOUS
 62
     7
 10
90.20093715330874
 20
190.7217527082946
 30
0.0
 11
89.17349999999999
 21
191.2566026368198
 31
0.0
  0
LINE
  5
8F
  8
0
  6
CONTINUOUS
 62
     7
 10
89.0
 20
220.5
 30
0.0
 11
88.5
 21
221.0
 31
0.0
  0
LINE
  5
90
  8
0
  6
CONTINUOUS
 62
     7
 10
71.49999999999999
 20
221.0
 30
0.0
 11
88.5
 21
221.0
 31
0.0
  0
LINE
  5
91
  8
0
  6
CONTINUOUS
 62
     7
 10
70.99999999999997
 20
220.5
 30
0.0
 11
70.99999999999997
 21
201.2
 31
0.0
  0
LINE
  5
92
  8
0
  6
CONTINUOUS
 62
     7
 10
69.80993651858532
 20
194.8011694771714
 30
0.0
 11
70.82511335990415
 21
194.2713453813834
 31
0.0
  0
LINE
  5
93
  8
0
  6
CONTINUOUS
 62
     7
 10
70.8845754274596
 20
192.2027089774683
 30
0.0
 11
69.7881041766972
 21
191.6293468239808
 31
0.0
  0
LINE
  5
94
  8
0
  6
CONTINUOUS
 62
     7
 10
69.80995852201465
 20
198.4295276689977
 30
0.0
 11
70.82510665331253
 21
197.899774986212
 31
0.0
  0
LINE
  5
95
  8
0
  6
CONTINUOUS
 62
     7
 10
89.17349999999999
 20
196.6993090793331
 30
0.0
 11
89.17349999999999
 21
197.0007500898397
 31
0.0
  0
LINE
  5
96
  8
0
  6
CENTER
 62
     1
 10
79.99999999999999
 20
152.0000000000001
 30
0.0
 11
79.99999999999999
 21
178.0
 31
0.0
  0
LINE
  5
97
  8
0
  6
CONTINUOUS
 62
     7
 10
89.17349999999999
 20
189.7433973631802
 30
0.0
 11
90.20093715330874
 21
190.2782472917055
 31
0.0
  0
ARC
  5
98
  8
0
  6
CONTINUOUS
 62
     7
 10
90.08549999999993
 20
190.5000000000001
 30
0.0
 40
0.2500000000000761
 50
297.5000000000069
 51
359.9999999999936
  0
LINE
  5
99
  8
0
  6
CONTINUOUS
 62
     7
 10
89.17349999999999
 20
189.3
 30
0.0
 11
89.17349999999999
 21
189.7433973631802
 31
0.0
  0
LINE
  5
9A
  8
0
  6
CONTINUOUS
 62
     7
 10
70.88107068137056
 20
194.0151860318637
 30
0.0
 11
69.78616172369162
 21
193.4420823364342
 31
0.0
  0
CIRCLE
  5
9B
  8
0
  6
CONTINUOUS
 62
     7
 10
79.99999999999999
 20
165.0
 30
0.0
 40
9.1735
  0
LINE
  5
9C
  8
0
  6
CONTINUOUS
 62
     7
 10
70.82649999999998
 20
197.9078588322917
 30
0.0
 11
70.82649999999998
 21
197.6064718568101
 31
0.0
  0
LINE
  5
9D
  8
0
  6
CONTINUOUS
 62
     7
 10
89.17349999999999
 20
198.5136482432449
 30
0.0
 11
89.17349999999999
 21
198.8149596458506
 31
0.0
  0
LINE
  5
9E
  8
0
  6
CONTINUOUS
 62
     7
 10
89.17349999999999
 20
165.0
 30
0.0
 11
90.33549999999998
 21
165.0
 31
0.0
  0
LINE
  5
9F
  8
0
  6
CONTINUOUS
 62
     7
 10
89.17349999999999
 20
194.8850491782718
 30
0.0
 11
89.17349999999999
 21
195.1864895332017
 31
0.0
  0
LINE
  5
A0
  8
0
  6
CONTINUOUS
 62
     7
 10
70.88138420734165
 20
197.64378221442
 30
0.0
 11
69.78656224471703
 21
197.0707580769936
 31
0.0
  0
LINE
  5
A1
  8
0
  6
CONTINUOUS
 62
     7
 10
70.82649999999998
 20
190.6505706738651
 30
0.0
 11
70.82649999999998
 21
189.3
 31
0.0
  0
LINE
  5
A2
  8
0
  6
CONTINUOUS
 62
     7
 10
89.17349999999999
 20
191.2566026368198
 30
0.0
 11
89.17349999999999
 21
191.5577572998827
 31
0.0
  0
LINE
  5
A3
  8
0
  6
CONTINUOUS
 62
     7
 10
70.82649999999998
 20
194.2793318305331
 30
0.0
 11
70.82649999999998
 21
193.9779421412013
 31
0.0
  0
LINE
  5
A4
  8
0
  6
CONTINUOUS
 62
     7
 10
70.01966679981345
 20
199.0085539351231
 30
0.0
 11
69.78824558414415
 21
198.8863936898002
 31
0.0
  0
LINE
  5
A5
  8
0
  6
CONTINUOUS
 62
     7
 10
70.82649999999998
 20
189.3
 30
0.0
 11
71.12649999999998
 21
189.0
 31
0.0
  0
LINE
  5
A6
  8
0
  6
CONTINUOUS
 62
     7
 10
71.49999999999999
 20
221.0
 30
0.0
 11
70.99999999999997
 21
220.5
 31
0.0
  0
CIRCLE
  5
A7
  8
0
  6
CONTINUOUS
 62
     7
 10
79.99999999999999
 20
165.0
 30
0.0
 40
11.0
  0
ARC
  5
A8
  8
0
  6
CONTINUOUS
 62
     7
 10
80.60702123186094
 20
164.4519331523927
 30
0.0
 40
9.743904577302587
 50
3.224425952998595
 51
92.42331578167038
  0
LINE
  5
A9
  8
0
  6
CONTINUOUS
 62
     7
 10
88.87349999999999
 20
189.0
 30
0.0
 11
89.17349999999999
 21
189.3
 31
0.0
  0
CIRCLE
  5
AA
  8
0
  6
CONTINUOUS
 62
     7
 10
79.99999999999999
 20
165.0
 30
0.0
 40
7.360370115347861
  0
LINE
  5
AB
  8
0
  6
CONTINUOUS
 62
     7
 10
90.33414714332969
 20
164.837682474736
 30
0.0
 11
90.33531263283366
 21
165.0305747654203
 31
0.0
  0
ARC
  5
AC
  8
0
  6
CONTINUOUS
 62
     7
 10
80.00336838158051
 20
164.9519709633169
 30
0.0
 40
10.33224324959047
 50
0.435888843191415
 51
0.2663381939528335
  0
LINE
  5
AD
  8
0
  6
CONTINUOUS
 62
     7
 10
70.84128511293791
 20
193.9944277411494
 30
0.0
 11
70.96265706497333
 21
194.0277614261553
 31
0.0
  0
ARC
  5
AE
  8
0
  6
CONTINUOUS
 62
     7
 10
-162.3883494118139
 20
5508.659283367611
 30
0.0
 40
5319.751959089586
 50
272.5140869855055
 51
272.7099464899291
  0
LINE
  5
AF
  8
0
  6
CONTINUOUS
 62
     7
 10
89.12875866259986
 20
194.8564971717056
 30
0.0
 11
89.17349999999487
 21
194.8850453014443
 31
0.0
  0
LINE
  5
B0
  8
0
  6
CONTINUOUS
 62
     7
 10
89.15891714729601
 20
198.798613708797
 30
0.0
 11
89.02482703122242
 21
198.7630003583208
 31
0.0
  0
ARC
  5
B1
  8
0
  6
CONTINUOUS
 62
     7
 10
257.5423057633312
 20
-3693.228893886097
 30
0.0
 40
3895.638464424346
 50
92.47927373062458
 51
92.74664845389889
  0
LINE
  5
B2
  8
0
  6
CONTINUOUS
 62
     7
 10
70.8644781137334
 20
197.9342271056849
 30
0.0
 11
70.82650000001371
 21
197.9078600042948
 31
0.0
  0
LINE
  5
B3
  8
0
  6
CONTINUOUS
 62
     7
 10
88.87349999999999
 20
189.0
 30
0.0
 11
71.12649999999998
 21
189.0
 31
0.0
  0
LINE
  5
B4
  8
0
  6
CONTINUOUS
 62
     7
 10
70.8265
 20
189.3
 30
0.0
 11
89.17349999999998
 21
189.3
 31
0.0
  0
LINE
  5
B5
  8
0
  6
CONTINUOUS
 62
     7
 10
89.15565514110882
 20
193.3541811323761
 30
0.0
 11
89.01201613691651
 21
193.3177802338109
 31
0.0
  0
ARC
  5
B6
  8
0
  6
CONTINUOUS
 62
     7
 10
234.63486852434
 20
-3222.350525532034
 30
0.0
 40
3418.771122808716
 50
92.44125728817747
 51
92.7454149495823
  0
LINE
  5
B7
  8
0
  6
CONTINUOUS
 62
     7
 10
70.88189818396829
 20
192.4966093856437
 30
0.0
 11
70.82650000000446
 21
192.464956627178
 31
0.0
  0
LINE
  5
B8
  8
0
  6
CONTINUOUS
 62
     7
 10
89.15860343796098
 20
191.5413918063779
 30
0.0
 11
89.04526249509689
 21
191.5095269727134
 31
0.0
  0
ARC
  5
B9
  8
0
  6
CONTINUOUS
 62
     7
 10
384.5270714528431
 20
-6482.657468624859
 30
0.0
 40
6680.704647306964
 50
92.534969899257
 51
92.6909672506798
  0
LINE
  5
BA
  8
0
  6
CONTINUOUS
 62
     7
 10
70.87484319037124
 20
190.6802917657279
 30
0.0
 11
70.82650000000028
 21
190.6505650099515
 31
0.0
  0
LINE
  5
BB
  8
0
  6
CONTINUOUS
 62
     7
 10
70.84473283084
 20
192.1819385321376
 30
0.0
 11
70.96034817063162
 21
192.2129576640455
 31
0.0
  0
ARC
  5
BC
  8
0
  6
CONTINUOUS
 62
     7
 10
-201.6313788398529
 20
6373.565505642602
 30
0.0
 40
6187.360145654653
 50
272.5250530029496
 51
272.6934255639014
  0
LINE
  5
BD
  8
0
  6
CONTINUOUS
 62
     7
 10
89.12401104233821
 20
193.0406998279691
 30
0.0
 11
89.17349999999803
 21
193.0708406129764
 31
0.0
  0
LINE
  5
BE
  8
0
  6
CONTINUOUS
 62
     7
 10
89.15827164159435
 20
195.169815443761
 30
0.0
 11
89.01497853246501
 21
195.1325408224302
 31
0.0
  0
ARC
  5
BF
  8
0
  6
CONTINUOUS
 62
     7
 10
234.8215589953802
 20
-3202.014245135168
 30
0.0
 40
3400.274377788994
 50
92.45764402620595
 51
92.76383566848848
  0
LINE
  5
C0
  8
0
  6
CONTINUOUS
 62
     7
 10
70.86261688235686
 20
194.3048372758923
 30
0.0
 11
70.82650000000694
 21
194.2793338102293
 31
0.0
  0
LINE
  5
C1
  8
0
  6
CONTINUOUS
 62
     7
 10
89.15517918894281
 20
196.9823993344104
 30
0.0
 11
89.02400955313614
 21
196.9484640565552
 31
0.0
  0
ARC
  5
C2
  8
0
  6
CONTINUOUS
 62
     7
 10
257.0094334063346
 20
-3683.54048685737
 30
0.0
 40
3884.123273119971
 50
92.47877273792044
 51
92.7469338550187
  0
LINE
  5
C3
  8
0
  6
CONTINUOUS
 62
     7
 10
70.86408494874526
 20
196.1197444051303
 30
0.0
 11
70.82650000001135
 21
196.0936351509367
 31
0.0
  0
LINE
  5
C4
  8
0
  6
CONTINUOUS
 62
     7
 10
68.99999999999999
 20
199.3133329871984
 30
0.0
 11
90.99999999999999
 21
199.3133329871984
 31
0.0
  0
LINE
  5
C5
  8
0
  6
CONTINUOUS
 62
     7
 10
70.84127494219587
 20
197.6228546728792
 30
0.0
 11
70.9935827668058
 21
197.6618430679377
 31
0.0
  0
ARC
  5
C6
  8
0
  6
CONTINUOUS
 62
     7
 10
-373.488082996246
 20
10385.34466679659
 30
0.0
 40
10197.37443012148
 50
272.4981915395542
 51
272.5997199126704
  0
POLYLINE
  5
C7
  8
0
  6
CONTINUOUS
 62
     7
 66
     1
 10
0.0
 20
0.0
 30
0.0
  0
VERTEX
  5
EE
  8
0
  6
CONTINUOUS
 62
     7
 10
89.04549422255553
 20
198.4654607766972
 30
0.0
  0
VERTEX
  5
EF
  8
0
  6
CONTINUOUS
 62
     7
 10
89.16573138576224
 20
198.5018323413184
 30
0.0
  0
VERTEX
  5
F0
  8
0
  6
CONTINUOUS
 62
     7
 10
89.17349999999828
 20
198.5136479676412
 30
0.0
  0
SEQEND
  5
F4
  8
0
  6
CONTINUOUS
 62
     7
  0
LINE
  5
C8
  8
0
  6
CONTINUOUS
 62
     7
 10
70.84476571871517
 20
195.8104729392639
 30
0.0
 11
70.96888007809832
 21
195.843275447778
 31
0.0
  0
ARC
  5
C9
  8
0
  6
CONTINUOUS
 62
     7
 10
-130.8251448995755
 20
4819.742221095274
 30
0.0
 40
4628.30015103566
 50
272.4988898428581
 51
272.723962466085
  0
LINE
  5
CA
  8
0
  6
CONTINUOUS
 62
     7
 10
89.13114595853189
 20
196.6716486089899
 30
0.0
 11
89.1734999999873
 21
196.69930456496
 31
0.0
  0
LINE
  5
CB
  8
0
  6
CONTINUOUS
 62
     7
 10
80.65246781145379
 20
209.5475528352357
 30
0.0
 11
80.63530133209511
 21
209.5618920015858
 31
0.0
  0
LINE
  5
CC
  8
0
  6
CONTINUOUS
 62
     7
 10
89.11891851879946
 20
195.1493039773021
 30
0.0
 11
90.21188295287851
 21
195.7212012891758
 31
0.0
  0
LINE
  5
CD
  8
0
  6
CONTINUOUS
 62
     7
 10
89.11547993948422
 20
193.3332340249791
 30
0.0
 11
90.21188569748054
 21
193.9066917465576
 31
0.0
  0
LINE
  5
CE
  8
0
  6
CONTINUOUS
 62
     7
 10
68.99999999999999
 20
201.1825462644185
 30
0.0
 11
68.99999999999999
 21
199.3133329871984
 31
0.0
  0
LINE
  5
CF
  8
0
  6
CONTINUOUS
 62
     7
 10
89.53300385629903
 20
199.0031373426242
 30
0.0
 11
90.70261796064943
 21
199.0133444102791
 31
0.0
  0
LINE
  5
D0
  8
0
  6
CONTINUOUS
 62
     7
 10
90.18975635056874
 20
194.3635459446285
 30
0.0
 11
89.17490052308338
 21
194.8931298707384
 31
0.0
  0
LINE
  5
D1
  8
0
  6
CONTINUOUS
 62
     7
 10
89.11859907753109
 20
191.5205220586602
 30
0.0
 11
90.21357846672818
 21
192.0934596678673
 31
0.0
  0
LINE
  5
D2
  8
0
  6
CONTINUOUS
 62
     7
 10
68.99999999999999
 20
199.3133329871984
 30
0.0
 11
69.29738203935047
 21
199.0133444102791
 31
0.0
  0
LINE
  5
D3
  8
0
  6
CONTINUOUS
 62
     7
 10
71.0
 20
201.2
 30
0.0
 11
68.99999999999999
 21
201.1825462644185
 31
0.0
  0
LINE
  5
D4
  8
0
  6
CONTINUOUS
 62
     7
 10
90.99999999999999
 20
201.1825462644185
 30
0.0
 11
88.99999999999997
 21
201.2
 31
0.0
  0
LINE
  5
D5
  8
0
  6
CONTINUOUS
 62
     7
 10
69.29738203935054
 20
199.0133444102791
 30
0.0
 11
70.01684376567769
 21
199.0070657629129
 31
0.0
  0
LINE
  5
D6
  8
0
  6
CONTINUOUS
 62
     7
 10
90.18987326055098
 20
197.9919163686854
 30
0.0
 11
89.17489597837546
 21
198.5215923294054
 31
0.0
  0
LINE
  5
D7
  8
0
  6
CONTINUOUS
 62
     7
 10
90.99999999999999
 20
199.3133329871984
 30
0.0
 11
90.99999999999999
 21
201.1825462644185
 31
0.0
  0
LINE
  5
D8
  8
0
  6
CONTINUOUS
 62
     7
 10
90.33549999999998
 20
190.4999999718194
 30
0.0
 11
90.14092845121998
 21
190.7544746421493
 31
0.0
  0
LINE
  5
D9
  8
0
  6
CONTINUOUS
 62
     7
 10
90.7026179606495
 20
199.0133444102791
 30
0.0
 11
90.99999999999999
 21
199.3133329871984
 31
0.0
  0
LINE
  5
DA
  8
0
  6
CONTINUOUS
 62
     7
 10
89.11527529771809
 20
196.9615953372837
 30
0.0
 11
90.21176971577236
 21
197.5350560928099
 31
0.0
  0
LINE
  5
DB
  8
0
  6
CONTINUOUS
 62
     7
 10
89.11917628730443
 20
198.7778785173757
 30
0.0
 11
89.54385357460146
 21
198.9995021670903
 31
0.0
  0
ENDSEC
  0
EOF
