  0
SECTION
  2
HEADER
  9
$ACADVER
  1
AC1006
  9
$DWGCODEPAGE
  3
ansi_932
  9
$INSBASE
 10
0.0
 20
0.0
 30
0.0
  9
$EXTMIN
 10
-215.0616730492974
 20
112.6876927713086
  9
$EXTMAX
 10
-55.00000000000002
 20
270.0
  9
$LIMMIN
 10
0.0
 20
0.0
  9
$LIMMAX
 10
12.0
 20
9.0
  9
$ORTHOMODE
 70
     0
  9
$REGENMODE
 70
     1
  9
$FILLMODE
 70
     1
  9
$QTEXTMODE
 70
     0
  9
$MIRRTEXT
 70
     1
  9
$DRAGMODE
 70
     2
  9
$LTSCALE
 40
1.0
  9
$OSMODE
 70
    37
  9
$ATTMODE
 70
     1
  9
$TEXTSIZE
 40
0.2
  9
$TRACEWID
 40
0.05
  9
$TEXTSTYLE
  7
STANDARD
  9
$CLAYER
  8
0
  9
$CELTYPE
  6
BYLAYER
  9
$CECOLOR
 62
   256
  9
$DIMSCALE
 40
1.0
  9
$DIMASZ
 40
3.0
  9
$DIMEXO
 40
0.0625
  9
$DIMDLI
 40
0.38
  9
$DIMRND
 40
0.0
  9
$DIMDLE
 40
0.0
  9
$DIMEXE
 40
1.5
  9
$DIMTP
 40
0.0
  9
$DIMTM
 40
0.0
  9
$DIMTXT
 40
3.0
  9
$DIMCEN
 40
0.09
  9
$DIMTSZ
 40
0.0
  9
$DIMTOL
 70
     0
  9
$DIMLIM
 70
     0
  9
$DIMTIH
 70
     1
  9
$DIMTOH
 70
     1
  9
$DIMSE1
 70
     0
  9
$DIMSE2
 70
     0
  9
$DIMTAD
 70
     1
  9
$DIMZIN
 70
     0
  9
$DIMBLK
  1

  9
$DIMASO
 70
     1
  9
$DIMSHO
 70
     1
  9
$DIMPOST
  1

  9
$DIMAPOST
  1

  9
$DIMALT
 70
     0
  9
$DIMALTD
 70
     2
  9
$DIMALTF
 40
25.4
  9
$DIMLFAC
 40
1.0
  9
$DIMTOFL
 70
     0
  9
$DIMTVP
 40
0.0
  9
$DIMTIX
 70
     0
  9
$DIMSOXD
 70
     0
  9
$DIMSAH
 70
     0
  9
$DIMBLK1
  1

  9
$DIMBLK2
  1

  9
$LUNITS
 70
     2
  9
$LUPREC
 70
     4
  9
$SKETCHINC
 40
0.1
  9
$FILLETRAD
 40
0.5
  9
$AUNITS
 70
     0
  9
$AUPREC
 70
     0
  9
$MENU
  1
.
  9
$ELEVATION
 40
0.0
  9
$THICKNESS
 40
0.0
  9
$LIMCHECK
 70
     0
  9
$CHAMFERA
 40
0.0
  9
$CHAMFERB
 40
0.0
  9
$SKPOLY
 70
     0
  9
$TDCREATE
 40
2459506.37690331
  9
$TDUPDATE
 40
2459506.376904757
  9
$TDINDWG
 40
0.0000000116
  9
$TDUSRTIMER
 40
0.0000000116
  9
$USRTIMER
 70
     1
  9
$ANGBASE
 50
0.0
  9
$ANGDIR
 70
     0
  9
$PDMODE
 70
     0
  9
$PDSIZE
 40
0.0
  9
$PLINEWID
 40
0.0
  9
$COORDS
 70
     1
  9
$SPLFRAME
 70
     0
  9
$SPLINETYPE
 70
     6
  9
$SPLINESEGS
 70
     8
  9
$ATTDIA
 70
     0
  9
$ATTREQ
 70
     1
  9
$HANDLING
 70
     1
  9
$HANDSEED
  5
2A4
  9
$SURFTAB1
 70
     6
  9
$SURFTAB2
 70
     6
  9
$SURFTYPE
 70
     6
  9
$SURFU
 70
     6
  9
$SURFV
 70
     6
  9
$UCSNAME
  2

  9
$UCSORG
 10
0.0
 20
0.0
 30
0.0
  9
$UCSXDIR
 10
1.0
 20
0.0
 30
0.0
  9
$UCSYDIR
 10
0.0
 20
1.0
 30
0.0
  9
$USERI1
 70
     0
  9
$USERI2
 70
     0
  9
$USERI3
 70
     0
  9
$USERI4
 70
     0
  9
$USERI5
 70
     0
  9
$USERR1
 40
0.0
  9
$USERR2
 40
0.0
  9
$USERR3
 40
0.0
  9
$USERR4
 40
0.0
  9
$USERR5
 40
0.0
  9
$WORLDVIEW
 70
     1
  0
ENDSEC
  0
SECTION
  2
TABLES
  0
TABLE
  2
VPORT
 70
     1
  0
VPORT
  2
*ACTIVE
 70
     0
 10
0.0
 20
0.0
 11
1.0
 21
1.0
 12
-135.0308365246487
 22
191.3438463856543
 13
0.0
 23
0.0
 14
0.5
 24
0.5
 15
0.5
 25
0.5
 16
0.0
 26
0.0
 36
1.0
 17
0.0
 27
0.0
 37
0.0
 40
157.3123072286914
 41
1.6
 42
50.0
 43
0.0
 44
0.0
 50
0.0
 51
0.0
 71
     0
 72
   100
 73
     1
 74
     3
 75
     0
 76
     0
 77
     0
 78
     0
  0
ENDTAB
  0
TABLE
  2
LTYPE
 70
     2
  0
LTYPE
  2
CONTINUOUS
 70
     0
  3
Solid line
 72
    65
 73
     0
 40
0.0
  0
LTYPE
  2
CENTER
 70
     0
  3

 72
    65
 73
     0
 40
0.0
  0
ENDTAB
  0
TABLE
  2
LAYER
 70
     1
  0
LAYER
  2
0
 70
     0
 62
     7
  6
CONTINUOUS
  0
ENDTAB
  0
TABLE
  2
STYLE
 70
     2
  0
STYLE
  2
STANDARD
 70
     0
 40
0.0
 41
1.0
 50
0.0
 71
     0
 42
0.2
  3
txt
  4

  0
STYLE
  2
ＭＳ_ゴシック
 70
     0
 40
0.0
 41
1.0
 50
0.0
 71
     0
 42
0.2
  3
ＭＳ ゴシック.shx
  4

  0
ENDTAB
  0
TABLE
  2
VIEW
 70
     0
  0
ENDTAB
  0
TABLE
  2
UCS
 70
     0
  0
ENDTAB
  0
ENDSEC
  0
SECTION
  2
BLOCKS
  0
BLOCK
  8
0
  2
D_FRAME_VIEW_1489
 70
     0
 10
0.0
 20
0.0
 30
0.0
  0
LINE
  5
A0
  8
0
  6
CONTINUOUS
 62
     7
 10
-213.0616730492974
 20
190.767238225854
 30
0.0
 11
-177.0616730492974
 21
190.767238225854
 31
0.0
  0
LINE
  5
A1
  8
0
  6
CONTINUOUS
 62
     7
 10
-213.0616730492974
 20
157.267238225854
 30
0.0
 11
-177.0616730492974
 21
157.267238225854
 31
0.0
  0
LINE
  5
A2
  8
0
  6
CONTINUOUS
 62
     7
 10
-203.0468286280623
 20
160.167238225854
 30
0.0
 11
-213.0616730492974
 21
160.167238225854
 31
0.0
  0
LINE
  5
A3
  8
0
  6
CONTINUOUS
 62
     7
 10
-203.0468286280623
 20
161.367238225854
 30
0.0
 11
-213.0616730492974
 21
161.367238225854
 31
0.0
  0
LINE
  5
A4
  8
0
  6
CONTINUOUS
 62
     7
 10
-187.0765174705325
 20
181.467238225854
 30
0.0
 11
-177.0616730492974
 21
181.467238225854
 31
0.0
  0
LINE
  5
A5
  8
0
  6
CONTINUOUS
 62
     7
 10
-187.0765174705325
 20
177.967238225854
 30
0.0
 11
-177.0616730492974
 21
177.967238225854
 31
0.0
  0
LINE
  5
A6
  8
0
  6
CONTINUOUS
 62
     7
 10
-187.0765174705325
 20
173.467238225854
 30
0.0
 11
-177.0616730492974
 21
173.467238225854
 31
0.0
  0
LINE
  5
A7
  8
0
  6
CONTINUOUS
 62
     7
 10
-187.0765174705325
 20
169.967238225854
 30
0.0
 11
-177.0616730492974
 21
169.967238225854
 31
0.0
  0
LINE
  5
A8
  8
0
  6
CONTINUOUS
 62
     7
 10
-187.0765174705325
 20
165.467238225854
 30
0.0
 11
-177.0616730492974
 21
165.467238225854
 31
0.0
  0
LINE
  5
A9
  8
0
  6
CONTINUOUS
 62
     7
 10
-187.0765174705325
 20
161.967238225854
 30
0.0
 11
-177.0616730492974
 21
161.967238225854
 31
0.0
  0
LINE
  5
AA
  8
0
  6
CONTINUOUS
 62
     7
 10
-203.0468286280623
 20
185.467238225854
 30
0.0
 11
-213.0616730492974
 21
185.467238225854
 31
0.0
  0
LINE
  5
AB
  8
0
  6
CONTINUOUS
 62
     7
 10
-203.0468286280623
 20
181.967238225854
 30
0.0
 11
-213.0616730492974
 21
181.967238225854
 31
0.0
  0
LINE
  5
AC
  8
0
  6
CONTINUOUS
 62
     7
 10
-203.0468286280623
 20
181.967238225854
 30
0.0
 11
-203.0468286280623
 21
185.467238225854
 31
0.0
  0
LINE
  5
AD
  8
0
  6
CONTINUOUS
 62
     7
 10
-203.0468286280623
 20
181.467238225854
 30
0.0
 11
-213.0616730492974
 21
181.467238225854
 31
0.0
  0
LINE
  5
AE
  8
0
  6
CONTINUOUS
 62
     7
 10
-203.0468286280623
 20
177.967238225854
 30
0.0
 11
-213.0616730492974
 21
177.967238225854
 31
0.0
  0
LINE
  5
AF
  8
0
  6
CONTINUOUS
 62
     7
 10
-203.0468286280623
 20
177.467238225854
 30
0.0
 11
-213.0616730492974
 21
177.467238225854
 31
0.0
  0
LINE
  5
B0
  8
0
  6
CONTINUOUS
 62
     7
 10
-203.0468286280623
 20
173.967238225854
 30
0.0
 11
-213.0616730492974
 21
173.967238225854
 31
0.0
  0
LINE
  5
B1
  8
0
  6
CONTINUOUS
 62
     7
 10
-203.0468286280623
 20
173.967238225854
 30
0.0
 11
-203.0468286280623
 21
177.467238225854
 31
0.0
  0
LINE
  5
B2
  8
0
  6
CONTINUOUS
 62
     7
 10
-203.0468286280623
 20
173.467238225854
 30
0.0
 11
-213.0616730492974
 21
173.467238225854
 31
0.0
  0
LINE
  5
B3
  8
0
  6
CONTINUOUS
 62
     7
 10
-203.0468286280623
 20
169.967238225854
 30
0.0
 11
-213.0616730492974
 21
169.967238225854
 31
0.0
  0
LINE
  5
B4
  8
0
  6
CONTINUOUS
 62
     7
 10
-203.0468286280623
 20
169.467238225854
 30
0.0
 11
-213.0616730492974
 21
169.467238225854
 31
0.0
  0
LINE
  5
B5
  8
0
  6
CONTINUOUS
 62
     7
 10
-203.0468286280623
 20
165.967238225854
 30
0.0
 11
-213.0616730492974
 21
165.967238225854
 31
0.0
  0
LINE
  5
B6
  8
0
  6
CONTINUOUS
 62
     7
 10
-203.0468286280623
 20
165.967238225854
 30
0.0
 11
-203.0468286280623
 21
169.467238225854
 31
0.0
  0
LINE
  5
B7
  8
0
  6
CONTINUOUS
 62
     7
 10
-203.0468286280623
 20
165.467238225854
 30
0.0
 11
-213.0616730492974
 21
165.467238225854
 31
0.0
  0
LINE
  5
B8
  8
0
  6
CONTINUOUS
 62
     7
 10
-203.0468286280623
 20
161.967238225854
 30
0.0
 11
-213.0616730492974
 21
161.967238225854
 31
0.0
  0
LINE
  5
B9
  8
0
  6
CONTINUOUS
 62
     7
 10
-187.0765174705325
 20
169.467238225854
 30
0.0
 11
-177.0616730492974
 21
169.467238225854
 31
0.0
  0
LINE
  5
BA
  8
0
  6
CONTINUOUS
 62
     7
 10
-187.0765174705325
 20
165.967238225854
 30
0.0
 11
-177.0616730492974
 21
165.967238225854
 31
0.0
  0
LINE
  5
BB
  8
0
  6
CONTINUOUS
 62
     7
 10
-187.0765174705325
 20
177.467238225854
 30
0.0
 11
-177.0616730492974
 21
177.467238225854
 31
0.0
  0
LINE
  5
BC
  8
0
  6
CONTINUOUS
 62
     7
 10
-187.0765174705325
 20
173.967238225854
 30
0.0
 11
-177.0616730492974
 21
173.967238225854
 31
0.0
  0
LINE
  5
BD
  8
0
  6
CONTINUOUS
 62
     7
 10
-187.0765174705325
 20
185.467238225854
 30
0.0
 11
-177.0616730492974
 21
185.467238225854
 31
0.0
  0
LINE
  5
BE
  8
0
  6
CONTINUOUS
 62
     7
 10
-187.0765174705325
 20
181.967238225854
 30
0.0
 11
-177.0616730492974
 21
181.967238225854
 31
0.0
  0
LINE
  5
BF
  8
0
  6
CONTINUOUS
 62
     7
 10
-187.0765174705325
 20
160.167238225854
 30
0.0
 11
-177.0616730492974
 21
160.167238225854
 31
0.0
  0
LINE
  5
C0
  8
0
  6
CONTINUOUS
 62
     7
 10
-187.0765174705325
 20
161.367238225854
 30
0.0
 11
-177.0616730492974
 21
161.367238225854
 31
0.0
  0
LINE
  5
C1
  8
0
  6
CONTINUOUS
 62
     7
 10
-211.5810492253918
 20
176.2375280891764
 30
0.0
 11
-203.0614788075606
 21
176.2375280891764
 31
0.0
  0
LINE
  5
C2
  8
0
  6
CONTINUOUS
 62
     7
 10
-211.6154957606706
 20
180.1847100684151
 30
0.0
 11
-203.061133668221
 21
180.1847100684151
 31
0.0
  0
LINE
  5
C3
  8
0
  6
CONTINUOUS
 62
     7
 10
-211.6499422959495
 20
184.1318920476542
 30
0.0
 11
-203.0607887567818
 21
184.1318920476542
 31
0.0
  0
LINE
  5
C4
  8
0
  6
CONTINUOUS
 62
     7
 10
-178.5332776886363
 20
177.2710242739422
 30
0.0
 11
-187.0619576814797
 21
177.2710242739422
 31
0.0
  0
LINE
  5
C5
  8
0
  6
CONTINUOUS
 62
     7
 10
-178.498329552438
 20
181.2756840254353
 30
0.0
 11
-187.0623077842342
 21
181.2756840254353
 31
0.0
  0
LINE
  5
C6
  8
0
  6
CONTINUOUS
 62
     7
 10
-178.4633814162398
 20
185.2803437769284
 30
0.0
 11
-187.0626576529351
 21
185.2803437769284
 31
0.0
  0
LINE
  5
C7
  8
0
  6
CONTINUOUS
 62
     7
 10
-203.061388417115
 20
177.2710242739422
 30
0.0
 11
-211.5900684099584
 21
177.2710242739422
 31
0.0
  0
LINE
  5
C8
  8
0
  6
CONTINUOUS
 62
     7
 10
-205.0614591176717
 20
176.2375280891762
 30
0.0
 11
-205.0613595885512
 21
177.2710242739422
 31
0.0
  0
LINE
  5
C9
  8
0
  6
CONTINUOUS
 62
     7
 10
-203.0610383143605
 20
181.2756840254353
 30
0.0
 11
-211.6250165461567
 21
181.2756840254353
 31
0.0
  0
LINE
  5
CA
  8
0
  6
CONTINUOUS
 62
     7
 10
-205.0610791656389
 20
180.1847100684151
 30
0.0
 11
-205.0609742327319
 21
181.2756840254353
 31
0.0
  0
LINE
  5
CB
  8
0
  6
CONTINUOUS
 62
     7
 10
-203.0606884456597
 20
185.2803437769284
 30
0.0
 11
-211.6599646823549
 21
185.2803437769284
 31
0.0
  0
LINE
  5
CC
  8
0
  6
CONTINUOUS
 62
     7
 10
-205.0606996842758
 20
184.1318920476542
 30
0.0
 11
-205.0606137940413
 21
185.0259558454114
 31
0.0
  0
LINE
  5
CD
  8
0
  6
CONTINUOUS
 62
     7
 10
-185.0619865100435
 20
177.2710242739422
 30
0.0
 11
-185.061886980923
 21
176.2375280891762
 31
0.0
  0
LINE
  5
CE
  8
0
  6
CONTINUOUS
 62
     7
 10
-187.0618672910341
 20
176.2375280891764
 30
0.0
 11
-178.542296873203
 21
176.2375280891764
 31
0.0
  0
LINE
  5
CF
  8
0
  6
CONTINUOUS
 62
     7
 10
-185.0623718658628
 20
181.2756840254353
 30
0.0
 11
-185.0622669329559
 21
180.1847100684151
 31
0.0
  0
LINE
  5
D0
  8
0
  6
CONTINUOUS
 62
     7
 10
-187.0622124303738
 20
180.1847100684151
 30
0.0
 11
-178.5078503379241
 21
180.1847100684151
 31
0.0
  0
LINE
  5
D1
  8
0
  6
CONTINUOUS
 62
     7
 10
-185.0627323045534
 20
185.0259558454114
 30
0.0
 11
-185.0626464143189
 21
184.1318920476542
 31
0.0
  0
LINE
  5
D2
  8
0
  6
CONTINUOUS
 62
     7
 10
-187.062557341813
 20
184.1318920476542
 30
0.0
 11
-178.4734038026453
 21
184.1318920476542
 31
0.0
  0
LINE
  5
D3
  8
0
  6
CONTINUOUS
 62
     7
 10
-211.6479140176686
 20
164.1350020743515
 30
0.0
 11
-203.0608090595499
 21
164.1350020743515
 31
0.0
  0
LINE
  5
D4
  8
0
  6
CONTINUOUS
 62
     7
 10
-211.6125331075676
 20
168.189252803173
 30
0.0
 11
-203.0611633437355
 21
168.189252803173
 31
0.0
  0
LINE
  5
D5
  8
0
  6
CONTINUOUS
 62
     7
 10
-211.5771521974665
 20
172.2435035319946
 30
0.0
 11
-203.0615178685231
 21
172.2435035319946
 31
0.0
  0
LINE
  5
D6
  8
0
  6
CONTINUOUS
 62
     7
 10
-178.485401704121
 20
165.2774077385444
 30
0.0
 11
-187.0624372331726
 21
165.2774077385444
 31
0.0
  0
LINE
  5
D7
  8
0
  6
CONTINUOUS
 62
     7
 10
-178.520268604773
 20
169.2727588184575
 30
0.0
 11
-187.0620880310958
 21
169.2727588184575
 31
0.0
  0
LINE
  5
D8
  8
0
  6
CONTINUOUS
 62
     7
 10
-178.5551355054251
 20
173.2681098983704
 30
0.0
 11
-187.0617385948285
 21
173.2681098983704
 31
0.0
  0
LINE
  5
D9
  8
0
  6
CONTINUOUS
 62
     7
 10
-211.6817373337628
 20
160.259233940223
 30
0.0
 11
-203.0604705953044
 21
160.259233940223
 31
0.0
  0
LINE
  5
DA
  8
0
  6
CONTINUOUS
 62
     7
 10
-178.4504701818134
 20
161.2746517503529
 30
0.0
 11
-187.0627868495592
 21
161.2746517503529
 31
0.0
  0
LINE
  5
DB
  8
0
  6
CONTINUOUS
 62
     7
 10
-203.0609088654222
 20
165.2774077385444
 30
0.0
 11
-211.6379443944738
 21
165.2774077385443
 31
0.0
  0
LINE
  5
DC
  8
0
  6
CONTINUOUS
 62
     7
 10
-205.0607220159114
 20
164.1350020743515
 30
0.0
 11
-205.060831806417
 21
165.2774077385444
 31
0.0
  0
LINE
  5
DD
  8
0
  6
CONTINUOUS
 62
     7
 10
-203.061258067499
 20
169.2727588184574
 30
0.0
 11
-211.6030774938217
 21
169.2727588184574
 31
0.0
  0
LINE
  5
DE
  8
0
  6
CONTINUOUS
 62
     7
 10
-205.0611118257166
 20
168.189252803173
 30
0.0
 11
-205.0612160870552
 21
169.2727588184575
 31
0.0
  0
LINE
  5
DF
  8
0
  6
CONTINUOUS
 62
     7
 10
-203.0616075037663
 20
173.2681098983704
 30
0.0
 11
-211.5682105931697
 21
173.2681098983703
 31
0.0
  0
LINE
  5
E0
  8
0
  6
CONTINUOUS
 62
     7
 10
-205.0615021324981
 20
172.2435035319948
 30
0.0
 11
-205.0616008516572
 21
173.2681098983704
 31
0.0
  0
LINE
  5
E1
  8
0
  6
CONTINUOUS
 62
     7
 10
-185.0625142921778
 20
165.2774077385442
 30
0.0
 11
-185.0626240826834
 21
164.1350020743515
 31
0.0
  0
LINE
  5
E2
  8
0
  6
CONTINUOUS
 62
     7
 10
-187.0625370390448
 20
164.1350020743515
 30
0.0
 11
-178.4754320809261
 21
164.1350020743515
 31
0.0
  0
LINE
  5
E3
  8
0
  6
CONTINUOUS
 62
     7
 10
-185.0621300115395
 20
169.2727588184573
 30
0.0
 11
-185.0622342728781
 21
168.189252803173
 31
0.0
  0
LINE
  5
E4
  8
0
  6
CONTINUOUS
 62
     7
 10
-187.0621827548593
 20
168.189252803173
 30
0.0
 11
-178.5108129910272
 21
168.189252803173
 31
0.0
  0
LINE
  5
E5
  8
0
  6
CONTINUOUS
 62
     7
 10
-185.0617452469376
 20
173.2681098983703
 30
0.0
 11
-185.0618439660966
 21
172.2435035319948
 31
0.0
  0
LINE
  5
E6
  8
0
  6
CONTINUOUS
 62
     7
 10
-187.0618282300717
 20
172.2435035319946
 30
0.0
 11
-178.5461939011281
 21
172.2435035319946
 31
0.0
  0
LINE
  5
E7
  8
0
  6
CONTINUOUS
 62
     7
 10
-205.0603498269135
 20
160.259233940223
 30
0.0
 11
-205.0604472940018
 21
161.274651750353
 31
0.0
  0
LINE
  5
E8
  8
0
  6
CONTINUOUS
 62
     7
 10
-203.0605592490356
 20
161.274651750353
 30
0.0
 11
-211.6728759167814
 21
161.274651750353
 31
0.0
  0
LINE
  5
E9
  8
0
  6
CONTINUOUS
 62
     7
 10
-187.0628755032903
 20
160.259233940223
 30
0.0
 11
-178.441608764832
 21
160.259233940223
 31
0.0
  0
LINE
  5
EA
  8
0
  6
CONTINUOUS
 62
     7
 10
-185.0628988045929
 20
161.274651750353
 30
0.0
 11
-185.0629962716813
 21
160.259233940223
 31
0.0
  0
LINE
  5
EB
  8
0
  6
CONTINUOUS
 62
     7
 10
-187.0627868495592
 20
161.274651750353
 30
0.0
 11
-187.0765174705324
 21
161.367238225854
 31
0.0
  0
LINE
  5
EC
  8
0
  6
CONTINUOUS
 62
     7
 10
-203.0605592490356
 20
161.274651750353
 30
0.0
 11
-203.0468286280624
 21
161.367238225854
 31
0.0
  0
LINE
  5
ED
  8
0
  6
CONTINUOUS
 62
     7
 10
-203.0468286280623
 20
160.167238225854
 30
0.0
 11
-203.0604705953044
 21
160.259233940223
 31
0.0
  0
LINE
  5
EE
  8
0
  6
CONTINUOUS
 62
     7
 10
-203.0609088654222
 20
165.2774077385442
 30
0.0
 11
-203.0468286280623
 21
165.467238225854
 31
0.0
  0
LINE
  5
EF
  8
0
  6
CONTINUOUS
 62
     7
 10
-203.0606884456597
 20
185.2803437769284
 30
0.0
 11
-203.0468286280623
 21
185.467238225854
 31
0.0
  0
LINE
  5
F0
  8
0
  6
CONTINUOUS
 62
     7
 10
-203.0616075037663
 20
173.2681098983703
 30
0.0
 11
-203.0468286280623
 21
173.467238225854
 31
0.0
  0
LINE
  5
F1
  8
0
  6
CONTINUOUS
 62
     7
 10
-203.061388417115
 20
177.2710242739422
 30
0.0
 11
-203.0468286280623
 21
177.467238225854
 31
0.0
  0
LINE
  5
F2
  8
0
  6
CONTINUOUS
 62
     7
 10
-187.0765174705324
 20
160.167238225854
 30
0.0
 11
-187.0628755032903
 21
160.259233940223
 31
0.0
  0
LINE
  5
F3
  8
0
  6
CONTINUOUS
 62
     7
 10
-203.0610383143605
 20
181.2756840254353
 30
0.0
 11
-203.0468286280623
 21
181.467238225854
 31
0.0
  0
LINE
  5
F4
  8
0
  6
CONTINUOUS
 62
     7
 10
-203.061258067499
 20
169.2727588184573
 30
0.0
 11
-203.0468286280623
 21
169.467238225854
 31
0.0
  0
LINE
  5
F5
  8
0
  6
CONTINUOUS
 62
     7
 10
-181.9335789666576
 20
185.0608725648078
 30
0.0
 11
-187.0600681254505
 21
185.0608725648078
 31
0.0
  0
LINE
  5
F6
  8
0
  6
CONTINUOUS
 62
     7
 10
-203.0632779731443
 20
185.0608725648078
 30
0.0
 11
-208.1897671319372
 21
185.0608725648078
 31
0.0
  0
LINE
  5
F7
  8
0
  6
CONTINUOUS
 62
     7
 10
-178.5616730492974
 20
154.517238225854
 30
0.0
 11
-211.5616730492974
 21
154.517238225854
 31
0.0
  0
LINE
  5
F8
  8
0
  6
CONTINUOUS
 62
     7
 10
-178.5616730492974
 20
191.017238225854
 30
0.0
 11
-211.5616730492974
 21
191.017238225854
 31
0.0
  0
ARC
  5
F9
  8
0
  6
CONTINUOUS
 62
     7
 10
-190.3950594973238
 20
-460.4534050175948
 30
0.0
 40
645.6104186232477
 50
89.378703544965
 51
89.70403865130493
  0
ARC
  5
FA
  8
0
  6
CONTINUOUS
 62
     7
 10
-176.691255733873
 20
803.2578837471488
 30
0.0
 40
618.1751706240091
 50
269.378703544965
 51
269.5444750255583
  0
ARC
  5
FB
  8
0
  6
CONTINUOUS
 62
     7
 10
-182.4164250740588
 20
83.16316420204888
 30
0.0
 40
101.942307764559
 50
88.53922907653066
 51
89.54447502555672
  0
ARC
  5
FC
  8
0
  6
CONTINUOUS
 62
     7
 10
-178.1243919556462
 20
251.472989241422
 30
0.0
 40
66.42223349361075
 50
268.5392290765307
 51
268.9443734708269
  0
ARC
  5
FD
  8
0
  6
CONTINUOUS
 62
     7
 10
-179.6005643651843
 20
171.3604908286748
 30
0.0
 40
13.70386392112115
 50
86.98055823308658
 51
88.94437347082741
  0
ARC
  5
FE
  8
0
  6
CONTINUOUS
 62
     7
 10
-178.6975867856613
 20
188.4791852228209
 30
0.0
 40
3.438629079294194
 50
266.9805582330865
 51
268.9640374854834
  0
ARC
  5
FF
  8
0
  6
CONTINUOUS
 62
     7
 10
-178.7765670637165
 20
184.1115142004126
 30
0.0
 40
0.9297559820651163
 50
81.62364345424209
 51
88.96403748547861
  0
ARC
  5
100
  8
0
  6
CONTINUOUS
 62
     7
 10
-178.6313497258382
 20
185.0977400223518
 30
0.0
 40
0.0671038110252687
 50
261.6236434542447
 51
299.0423454789204
  0
ARC
  5
101
  8
0
  6
CONTINUOUS
 62
     7
 10
-178.5866490424401
 20
185.017238225854
 30
0.0
 40
0.0249759931427451
 50
0.0
 51
119.0423454789205
  0
ARC
  5
102
  8
0
  6
CONTINUOUS
 62
     7
 10
-211.5366970561547
 20
185.017238225854
 30
0.0
 40
0.0249759931427451
 50
60.95765452107945
 51
180.0
  0
ARC
  5
103
  8
0
  6
CONTINUOUS
 62
     7
 10
-211.4919963727566
 20
185.0977400223518
 30
0.0
 40
0.0671038110252687
 50
240.9576545210796
 51
278.3763565457553
  0
ARC
  5
104
  8
0
  6
CONTINUOUS
 62
     7
 10
-211.3467790348783
 20
184.1115142004126
 30
0.0
 40
0.9297559820651163
 50
91.03596251452149
 51
98.37635654575803
  0
ARC
  5
105
  8
0
  6
CONTINUOUS
 62
     7
 10
-211.4257593129335
 20
188.4791852228207
 30
0.0
 40
3.438629079294
 50
271.0359625145167
 51
273.0194417669136
  0
ARC
  5
106
  8
0
  6
CONTINUOUS
 62
     7
 10
-210.5227817334106
 20
171.3604908286759
 30
0.0
 40
13.70386392112009
 50
91.0556265291724
 51
93.01944176691346
  0
ARC
  5
107
  8
0
  6
CONTINUOUS
 62
     7
 10
-211.9989541429486
 20
251.472989241422
 30
0.0
 40
66.42223349361075
 50
271.0556265291731
 51
271.4607709234693
  0
ARC
  5
108
  8
0
  6
CONTINUOUS
 62
     7
 10
-207.7069210245359
 20
83.16316420204888
 30
0.0
 40
101.942307764559
 50
90.45552497444328
 51
91.46077092346935
  0
ARC
  5
109
  8
0
  6
CONTINUOUS
 62
     7
 10
-213.4320903647218
 20
803.2578837471488
 30
0.0
 40
618.1751706240091
 50
270.4555249744417
 51
270.621296455035
  0
ARC
  5
10A
  8
0
  6
CONTINUOUS
 62
     7
 10
-199.728286601271
 20
-460.4534050175947
 30
0.0
 40
645.6104186232477
 50
90.2959535777465
 51
90.62129645503501
  0
LINE
  5
10B
  8
0
  6
CONTINUOUS
 62
     7
 10
-184.0616730492974
 20
147.517238225854
 30
0.0
 11
-206.0616730492974
 21
147.517238225854
 31
0.0
  0
LINE
  5
10C
  8
0
  6
CONTINUOUS
 62
     7
 10
-181.0140342560419
 20
185.017238225854
 30
0.0
 11
-178.5616730492974
 21
185.017238225854
 31
0.0
  0
ARC
  5
10D
  8
0
  6
CONTINUOUS
 62
     7
 10
-181.0352980778056
 20
185.0172475622341
 30
0.0
 40
0.0212638625023687
 50
0.0
 51
119.0423454335342
  0
ARC
  5
10E
  8
0
  6
CONTINUOUS
 62
     7
 10
-181.0733549902565
 20
185.0857845418567
 30
0.0
 40
0.057130309226666
 50
261.6236434304986
 51
299.0423454335375
  0
ARC
  5
10F
  8
0
  6
CONTINUOUS
 62
     7
 10
-181.1969889730132
 20
184.2461394437254
 30
0.0
 40
0.7915682547571966
 50
81.62364343049393
 51
88.96403748224606
  0
ARC
  5
110
  8
0
  6
CONTINUOUS
 62
     7
 10
-181.1297473717085
 20
187.9646524679013
 30
0.0
 40
2.927552682226724
 50
266.9805582243544
 51
268.9640374822466
  0
ARC
  5
111
  8
0
  6
CONTINUOUS
 62
     7
 10
-181.8985172452077
 20
173.3902745606652
 30
0.0
 40
11.66708669328828
 50
86.98055822435452
 51
88.94437346776124
  0
ARC
  5
112
  8
0
  6
CONTINUOUS
 62
     7
 10
-180.6417453138865
 20
241.5958164130517
 30
0.0
 40
56.55003296933749
 50
268.5392290722965
 51
268.9443734677537
  0
ARC
  5
113
  8
0
  6
CONTINUOUS
 62
     7
 10
-184.2958623509709
 20
98.30153595580471
 30
0.0
 40
86.79083134744018
 50
88.53922907229654
 51
89.54447502423471
  0
ARC
  5
114
  8
0
  6
CONTINUOUS
 62
     7
 10
-179.4216131900337
 20
711.3700521495856
 30
0.0
 40
526.2970610896288
 50
269.3787035431631
 51
269.5444750242355
  0
ARC
  5
115
  8
0
  6
CONTINUOUS
 62
     7
 10
-191.0886487004429
 20
-364.5184159473796
 30
0.0
 40
549.654664361674
 50
89.37870354316311
 51
89.58004578590564
  0
ARC
  5
116
  8
0
  6
CONTINUOUS
 62
     7
 10
-199.0346973981518
 20
-364.5184159473796
 30
0.0
 40
549.654664361674
 50
90.41987093108698
 51
90.62129645683689
  0
ARC
  5
117
  8
0
  6
CONTINUOUS
 62
     7
 10
-210.7017329085611
 20
711.3700521495856
 30
0.0
 40
526.2970610896288
 50
270.4555249757645
 51
270.6212964568369
  0
ARC
  5
118
  8
0
  6
CONTINUOUS
 62
     7
 10
-205.8274837476238
 20
98.30153595580471
 30
0.0
 40
86.79083134744018
 50
90.45552497576529
 51
91.46077092770345
  0
ARC
  5
119
  8
0
  6
CONTINUOUS
 62
     7
 10
-209.4816007847083
 20
241.5958164130517
 30
0.0
 40
56.55003296933749
 50
271.0556265322461
 51
271.4607709277034
  0
ARC
  5
11A
  8
0
  6
CONTINUOUS
 62
     7
 10
-208.2248288533871
 20
173.3902745606652
 30
0.0
 40
11.66708669328828
 50
91.05562653223876
 51
93.01944177564548
  0
ARC
  5
11B
  8
0
  6
CONTINUOUS
 62
     7
 10
-208.9935987268862
 20
187.9646524679013
 30
0.0
 40
2.927552682226724
 50
271.0359625177533
 51
273.0194417756455
  0
ARC
  5
11C
  8
0
  6
CONTINUOUS
 62
     7
 10
-208.9263571255816
 20
184.2461394437254
 30
0.0
 40
0.7915682547571966
 50
91.03596251775399
 51
98.37635656950611
  0
ARC
  5
11D
  8
0
  6
CONTINUOUS
 62
     7
 10
-209.0499911083383
 20
185.0857845418567
 30
0.0
 40
0.057130309226666
 50
240.9576545664626
 51
278.3763565695014
  0
ARC
  5
11E
  8
0
  6
CONTINUOUS
 62
     7
 10
-209.0880480207891
 20
185.0172475622341
 30
0.0
 40
0.0212638625023687
 50
60.95765456646581
 51
180.0
  0
LINE
  5
11F
  8
0
  6
CONTINUOUS
 62
     7
 10
-211.5616730492974
 20
185.017238225854
 30
0.0
 11
-209.1093118425528
 21
185.017238225854
 31
0.0
  0
LINE
  5
120
  8
0
  6
CONTINUOUS
 62
     7
 10
-184.0616730492974
 20
126.517238225854
 30
0.0
 11
-206.0616730492974
 21
126.517238225854
 31
0.0
  0
LINE
  5
121
  8
0
  6
CONTINUOUS
 62
     7
 10
-177.0616730492974
 20
185.467238225854
 30
0.0
 11
-177.0616730492974
 21
190.767238225854
 31
0.0
  0
LINE
  5
122
  8
0
  6
CONTINUOUS
 62
     7
 10
-177.0616730492974
 20
181.467238225854
 30
0.0
 11
-177.0616730492974
 21
181.967238225854
 31
0.0
  0
LINE
  5
123
  8
0
  6
CONTINUOUS
 62
     7
 10
-177.0616730492974
 20
177.467238225854
 30
0.0
 11
-177.0616730492974
 21
177.967238225854
 31
0.0
  0
LINE
  5
124
  8
0
  6
CONTINUOUS
 62
     7
 10
-177.0616730492974
 20
173.467238225854
 30
0.0
 11
-177.0616730492974
 21
173.967238225854
 31
0.0
  0
LINE
  5
125
  8
0
  6
CONTINUOUS
 62
     7
 10
-177.0616730492974
 20
169.467238225854
 30
0.0
 11
-177.0616730492974
 21
169.967238225854
 31
0.0
  0
LINE
  5
126
  8
0
  6
CONTINUOUS
 62
     7
 10
-177.0616730492974
 20
165.467238225854
 30
0.0
 11
-177.0616730492974
 21
165.967238225854
 31
0.0
  0
LINE
  5
127
  8
0
  6
CONTINUOUS
 62
     7
 10
-177.0616730492974
 20
161.367238225854
 30
0.0
 11
-177.0616730492974
 21
161.967238225854
 31
0.0
  0
LINE
  5
128
  8
0
  6
CONTINUOUS
 62
     7
 10
-177.0616730492974
 20
157.267238225854
 30
0.0
 11
-177.0616730492974
 21
160.167238225854
 31
0.0
  0
LINE
  5
129
  8
0
  6
CONTINUOUS
 62
     7
 10
-213.0616730492974
 20
160.167238225854
 30
0.0
 11
-213.0616730492974
 21
157.267238225854
 31
0.0
  0
LINE
  5
12A
  8
0
  6
CONTINUOUS
 62
     7
 10
-213.0616730492974
 20
161.967238225854
 30
0.0
 11
-213.0616730492974
 21
161.367238225854
 31
0.0
  0
LINE
  5
12B
  8
0
  6
CONTINUOUS
 62
     7
 10
-213.0616730492974
 20
165.967238225854
 30
0.0
 11
-213.0616730492974
 21
165.467238225854
 31
0.0
  0
LINE
  5
12C
  8
0
  6
CONTINUOUS
 62
     7
 10
-213.0616730492974
 20
169.967238225854
 30
0.0
 11
-213.0616730492974
 21
169.467238225854
 31
0.0
  0
LINE
  5
12D
  8
0
  6
CONTINUOUS
 62
     7
 10
-213.0616730492974
 20
173.967238225854
 30
0.0
 11
-213.0616730492974
 21
173.467238225854
 31
0.0
  0
LINE
  5
12E
  8
0
  6
CONTINUOUS
 62
     7
 10
-213.0616730492974
 20
177.967238225854
 30
0.0
 11
-213.0616730492974
 21
177.467238225854
 31
0.0
  0
LINE
  5
12F
  8
0
  6
CONTINUOUS
 62
     7
 10
-213.0616730492974
 20
181.967238225854
 30
0.0
 11
-213.0616730492974
 21
181.467238225854
 31
0.0
  0
LINE
  5
130
  8
0
  6
CONTINUOUS
 62
     7
 10
-213.0616730492974
 20
190.767238225854
 30
0.0
 11
-213.0616730492974
 21
185.467238225854
 31
0.0
  0
LINE
  5
131
  8
0
  6
CONTINUOUS
 62
     7
 10
-177.0616730492974
 20
165.967238225854
 30
0.0
 11
-178.5108129910272
 21
168.189252803173
 31
0.0
  0
LINE
  5
132
  8
0
  6
CONTINUOUS
 62
     7
 10
-177.0616730492974
 20
173.967238225854
 30
0.0
 11
-178.5422968732032
 21
176.2375280891764
 31
0.0
  0
LINE
  5
133
  8
0
  6
CONTINUOUS
 62
     7
 10
-178.5332776886363
 20
177.2710242739422
 30
0.0
 11
-177.0616730492974
 21
177.467238225854
 31
0.0
  0
LINE
  5
134
  8
0
  6
CONTINUOUS
 62
     7
 10
-177.0616730492974
 20
161.967238225854
 30
0.0
 11
-178.4754320809261
 21
164.1350020743515
 31
0.0
  0
LINE
  5
135
  8
0
  6
CONTINUOUS
 62
     7
 10
-178.5551355054247
 20
173.2681098983704
 30
0.0
 11
-177.0616730492974
 21
173.467238225854
 31
0.0
  0
LINE
  5
136
  8
0
  6
CONTINUOUS
 62
     7
 10
-178.4633814162398
 20
185.2803437769284
 30
0.0
 11
-177.0616730492974
 21
185.467238225854
 31
0.0
  0
LINE
  5
137
  8
0
  6
CONTINUOUS
 62
     7
 10
-177.0616730492974
 20
181.967238225854
 30
0.0
 11
-178.4734038026454
 21
184.1318920476542
 31
0.0
  0
LINE
  5
138
  8
0
  6
CONTINUOUS
 62
     7
 10
-178.4854017041197
 20
165.2774077385444
 30
0.0
 11
-177.0616730492974
 21
165.467238225854
 31
0.0
  0
LINE
  5
139
  8
0
  6
CONTINUOUS
 62
     7
 10
-177.0616730492974
 20
177.967238225854
 30
0.0
 11
-178.5078503379241
 21
180.1847100684151
 31
0.0
  0
LINE
  5
13A
  8
0
  6
CONTINUOUS
 62
     7
 10
-178.4504701818136
 20
161.2746517503529
 30
0.0
 11
-177.0616730492974
 21
161.367238225854
 31
0.0
  0
LINE
  5
13B
  8
0
  6
CONTINUOUS
 62
     7
 10
-178.5202686047713
 20
169.2727588184575
 30
0.0
 11
-177.0616730492974
 21
169.467238225854
 31
0.0
  0
LINE
  5
13C
  8
0
  6
CONTINUOUS
 62
     7
 10
-178.498329552438
 20
181.2756840254353
 30
0.0
 11
-177.0616730492974
 21
181.467238225854
 31
0.0
  0
LINE
  5
13D
  8
0
  6
CONTINUOUS
 62
     7
 10
-177.0616730492974
 20
169.967238225854
 30
0.0
 11
-178.5461939011282
 21
172.2435035319946
 31
0.0
  0
LINE
  5
13E
  8
0
  6
CONTINUOUS
 62
     7
 10
-211.6479140176686
 20
164.1350020743515
 30
0.0
 11
-213.0616730492974
 21
161.967238225854
 31
0.0
  0
LINE
  5
13F
  8
0
  6
CONTINUOUS
 62
     7
 10
-211.5771521974665
 20
172.2435035319946
 30
0.0
 11
-213.0616730492974
 21
169.967238225854
 31
0.0
  0
LINE
  5
140
  8
0
  6
CONTINUOUS
 62
     7
 10
-211.6499422959494
 20
184.1318920476542
 30
0.0
 11
-213.0616730492974
 21
181.967238225854
 31
0.0
  0
LINE
  5
141
  8
0
  6
CONTINUOUS
 62
     7
 10
-211.6154957606706
 20
180.1847100684151
 30
0.0
 11
-213.0616730492974
 21
177.967238225854
 31
0.0
  0
LINE
  5
142
  8
0
  6
CONTINUOUS
 62
     7
 10
-211.6125331075676
 20
168.189252803173
 30
0.0
 11
-213.0616730492974
 21
165.967238225854
 31
0.0
  0
LINE
  5
143
  8
0
  6
CONTINUOUS
 62
     7
 10
-213.0616730492974
 20
161.367238225854
 30
0.0
 11
-211.6728759167811
 21
161.2746517503529
 31
0.0
  0
LINE
  5
144
  8
0
  6
CONTINUOUS
 62
     7
 10
-177.0616730492974
 20
160.167238225854
 30
0.0
 11
-178.4416087648321
 21
160.259233940223
 31
0.0
  0
LINE
  5
145
  8
0
  6
CONTINUOUS
 62
     7
 10
-211.6817373337627
 20
160.259233940223
 30
0.0
 11
-213.0616730492974
 21
160.167238225854
 31
0.0
  0
LINE
  5
146
  8
0
  6
CONTINUOUS
 62
     7
 10
-211.5810492253915
 20
176.2375280891764
 30
0.0
 11
-213.0616730492974
 21
173.967238225854
 31
0.0
  0
LINE
  5
147
  8
0
  6
CONTINUOUS
 62
     7
 10
-213.0616730492974
 20
173.467238225854
 30
0.0
 11
-211.5682105931701
 21
173.2681098983704
 31
0.0
  0
LINE
  5
148
  8
0
  6
CONTINUOUS
 62
     7
 10
-213.0616730492974
 20
177.467238225854
 30
0.0
 11
-211.5900684099584
 21
177.2710242739422
 31
0.0
  0
LINE
  5
149
  8
0
  6
CONTINUOUS
 62
     7
 10
-213.0616730492974
 20
169.467238225854
 30
0.0
 11
-211.6030774938235
 21
169.2727588184575
 31
0.0
  0
LINE
  5
14A
  8
0
  6
CONTINUOUS
 62
     7
 10
-213.0616730492974
 20
185.467238225854
 30
0.0
 11
-211.6599646823549
 21
185.2803437769284
 31
0.0
  0
LINE
  5
14B
  8
0
  6
CONTINUOUS
 62
     7
 10
-213.0616730492974
 20
181.467238225854
 30
0.0
 11
-211.6250165461567
 21
181.2756840254353
 31
0.0
  0
LINE
  5
14C
  8
0
  6
CONTINUOUS
 62
     7
 10
-213.0616730492974
 20
165.467238225854
 30
0.0
 11
-211.6379443944751
 21
165.2774077385444
 31
0.0
  0
LINE
  5
14D
  8
0
  6
CONTINUOUS
 62
     7
 10
-177.0616730492974
 20
191.073962866494
 30
0.0
 11
-177.0616730492974
 21
191.8101314446675
 31
0.0
  0
LINE
  5
14E
  8
0
  6
CONTINUOUS
 62
     7
 10
-213.0616730492974
 20
191.8101314446675
 30
0.0
 11
-213.0616730492974
 21
191.073962866494
 31
0.0
  0
ARC
  5
14F
  8
0
  6
CONTINUOUS
 62
     7
 10
-212.5616730492974
 20
191.8101314446675
 30
0.0
 40
0.500000000000008
 50
134.9999999999993
 51
180.0
  0
ARC
  5
150
  8
0
  6
CONTINUOUS
 62
     7
 10
-177.5616730492974
 20
191.8101314446675
 30
0.0
 40
0.5000000000000004
 50
0.0
 51
45.00000000000072
  0
LINE
  5
151
  8
0
  6
CONTINUOUS
 62
     7
 10
-213.0616730492974
 20
191.073962866494
 30
0.0
 11
-206.5616730492974
 21
191.017238225854
 31
0.0
  0
LINE
  5
152
  8
0
  6
CONTINUOUS
 62
     7
 10
-183.5616730492974
 20
191.017238225854
 30
0.0
 11
-177.0616730492974
 21
191.073962866494
 31
0.0
  0
LINE
  5
153
  8
0
  6
CONTINUOUS
 62
     7
 10
-177.2081196587041
 20
192.1636848352607
 30
0.0
 11
-178.3686102076509
 21
193.3241753842076
 31
0.0
  0
LINE
  5
154
  8
0
  6
CONTINUOUS
 62
     7
 10
-211.7547358909438
 20
193.3241753842076
 30
0.0
 11
-212.9152264398906
 21
192.1636848352607
 31
0.0
  0
ARC
  5
155
  8
0
  6
CONTINUOUS
 62
     7
 10
-211.4011825003505
 20
192.9706219936143
 30
0.0
 40
0.5000000000000014
 50
90.4999999999997
 51
134.9999999999993
  0
ARC
  5
156
  8
0
  6
CONTINUOUS
 62
     7
 10
-178.7221635982442
 20
192.9706219936143
 30
0.0
 40
0.500000000000008
 50
45.00000000000075
 51
89.50000000000031
  0
LINE
  5
157
  8
0
  6
CONTINUOUS
 62
     7
 10
-178.7178003304951
 20
193.4706029551464
 30
0.0
 11
-183.5660363170561
 21
193.5129128696195
 31
0.0
  0
LINE
  5
158
  8
0
  6
CONTINUOUS
 62
     7
 10
-206.5573097815386
 20
193.5129128696195
 30
0.0
 11
-211.4055457680997
 21
193.4706029551464
 31
0.0
  0
LINE
  5
159
  8
0
  6
CONTINUOUS
 62
     7
 10
-208.4173343889441
 20
185.0552495065064
 30
0.0
 11
-204.5573097815705
 21
185.0215635820888
 31
0.0
  0
LINE
  5
15A
  8
0
  6
CONTINUOUS
 62
     7
 10
-185.5660363170243
 20
185.0215635820888
 30
0.0
 11
-181.7060117096507
 21
185.0552495065064
 31
0.0
  0
ARC
  5
15B
  8
0
  6
CONTINUOUS
 62
     7
 10
-183.5616730492974
 20
194.0128938311515
 30
0.0
 40
0.5000000000000016
 50
179.9999999999999
 51
269.4999999999999
  0
ARC
  5
15C
  8
0
  6
CONTINUOUS
 62
     7
 10
-206.5616730492974
 20
194.0128938311515
 30
0.0
 40
0.5000000000000004
 50
270.5000000000001
 51
0.0000000000000568
  0
LINE
  5
15D
  8
0
  6
CONTINUOUS
 62
     7
 10
-206.0616730492974
 20
206.7242197200866
 30
0.0
 11
-205.2616730492974
 21
206.717238225854
 31
0.0
  0
LINE
  5
15E
  8
0
  6
CONTINUOUS
 62
     7
 10
-184.8616730492974
 20
206.717238225854
 30
0.0
 11
-184.0616730492974
 21
206.7242197200866
 31
0.0
  0
LINE
  5
15F
  8
0
  6
CONTINUOUS
 62
     7
 10
-184.0616730492974
 20
206.7242197200866
 30
0.0
 11
-184.0616730492974
 21
211.517238225854
 31
0.0
  0
LINE
  5
160
  8
0
  6
CONTINUOUS
 62
     7
 10
-206.0616730492974
 20
211.517238225854
 30
0.0
 11
-206.0616730492974
 21
206.7242197200866
 31
0.0
  0
LINE
  5
161
  8
0
  6
CONTINUOUS
 62
     7
 10
-184.0616730492974
 20
203.7102567316214
 30
0.0
 11
-184.8616730492974
 21
203.717238225854
 31
0.0
  0
LINE
  5
162
  8
0
  6
CONTINUOUS
 62
     7
 10
-205.2616730492974
 20
203.717238225854
 30
0.0
 11
-206.0616730492974
 21
203.7102567316214
 31
0.0
  0
LINE
  5
163
  8
0
  6
CONTINUOUS
 62
     7
 10
-184.0616730492974
 20
194.0128938311515
 30
0.0
 11
-184.0616730492974
 21
203.7102567316214
 31
0.0
  0
LINE
  5
164
  8
0
  6
CONTINUOUS
 62
     7
 10
-206.0616730492974
 20
203.7102567316214
 30
0.0
 11
-206.0616730492974
 21
194.0128938311515
 31
0.0
  0
LINE
  5
165
  8
0
  6
CONTINUOUS
 62
     7
 10
-184.8616730492974
 20
203.717238225854
 30
0.0
 11
-184.8616730492974
 21
206.717238225854
 31
0.0
  0
LINE
  5
166
  8
0
  6
CONTINUOUS
 62
     7
 10
-205.2616730492974
 20
206.717238225854
 30
0.0
 11
-205.2616730492974
 21
203.717238225854
 31
0.0
  0
LINE
  5
167
  8
0
  6
CONTINUOUS
 62
     7
 10
-177.0616730492975
 20
157.0041479241679
 30
0.0
 11
-178.5616730492975
 21
157.017238225854
 31
0.0
  0
LINE
  5
168
  8
0
  6
CONTINUOUS
 62
     7
 10
-211.5616730492975
 20
157.017238225854
 30
0.0
 11
-213.0616730492975
 21
157.0041479241679
 31
0.0
  0
ARC
  5
169
  8
0
  6
CONTINUOUS
 62
     7
 10
-212.5616730492974
 20
156.2243450070406
 30
0.0
 40
0.5000000000000004
 50
180.0
 51
225.0
  0
ARC
  5
16A
  8
0
  6
CONTINUOUS
 62
     7
 10
-177.5616730492974
 20
156.2243450070406
 30
0.0
 40
0.4999999999999884
 50
315.0
 51
0.0
  0
LINE
  5
16B
  8
0
  6
CONTINUOUS
 62
     7
 10
-177.0616730492974
 20
156.2243450070406
 30
0.0
 11
-177.0616730492974
 21
157.0041479241679
 31
0.0
  0
LINE
  5
16C
  8
0
  6
CONTINUOUS
 62
     7
 10
-213.0616730492974
 20
157.0041479241679
 30
0.0
 11
-213.0616730492974
 21
156.2243450070406
 31
0.0
  0
LINE
  5
16D
  8
0
  6
CONTINUOUS
 62
     7
 10
-212.9152264398906
 20
155.8707916164473
 30
0.0
 11
-211.5616730492974
 21
154.517238225854
 31
0.0
  0
LINE
  5
16E
  8
0
  6
CONTINUOUS
 62
     7
 10
-178.5616730492974
 20
154.517238225854
 30
0.0
 11
-177.2081196587041
 21
155.8707916164473
 31
0.0
  0
LINE
  5
16F
  8
0
  6
CONTINUOUS
 62
     7
 10
-178.5616730492974
 20
185.017238225854
 30
0.0
 11
-178.5616730492974
 21
185.2803437769284
 31
0.0
  0
LINE
  5
170
  8
0
  6
CONTINUOUS
 62
     7
 10
-178.5616730492974
 20
190.767238225854
 30
0.0
 11
-178.5616730492974
 21
191.017238225854
 31
0.0
  0
LINE
  5
171
  8
0
  6
CONTINUOUS
 62
     7
 10
-178.5616730492974
 20
157.017238225854
 30
0.0
 11
-178.5616730492974
 21
157.267238225854
 31
0.0
  0
LINE
  5
172
  8
0
  6
CONTINUOUS
 62
     7
 10
-211.5616730492974
 20
157.267238225854
 30
0.0
 11
-211.5616730492974
 21
157.017238225854
 31
0.0
  0
LINE
  5
173
  8
0
  6
CONTINUOUS
 62
     7
 10
-211.5616730492974
 20
191.017238225854
 30
0.0
 11
-211.5616730492974
 21
190.767238225854
 31
0.0
  0
LINE
  5
174
  8
0
  6
CONTINUOUS
 62
     7
 10
-211.5616730492974
 20
185.2803437769284
 30
0.0
 11
-211.5616730492974
 21
185.017238225854
 31
0.0
  0
ARC
  5
175
  8
0
  6
CONTINUOUS
 62
     7
 10
-211.0616730492974
 20
153.2243450070406
 30
0.0
 40
0.5000000000000004
 50
180.0
 51
225.0000000000009
  0
ARC
  5
176
  8
0
  6
CONTINUOUS
 62
     7
 10
-179.0616730492974
 20
153.2243450070406
 30
0.0
 40
0.500000000000008
 50
314.9999999999991
 51
0.0
  0
LINE
  5
177
  8
0
  6
CONTINUOUS
 62
     7
 10
-178.5616730492974
 20
153.2243450070406
 30
0.0
 11
-178.5616730492974
 21
154.517238225854
 31
0.0
  0
LINE
  5
178
  8
0
  6
CONTINUOUS
 62
     7
 10
-211.5616730492974
 20
154.517238225854
 30
0.0
 11
-211.5616730492974
 21
153.2243450070406
 31
0.0
  0
LINE
  5
179
  8
0
  6
CONTINUOUS
 62
     7
 10
-211.4152264398906
 20
152.8707916164473
 30
0.0
 11
-206.0616730492974
 21
147.517238225854
 31
0.0
  0
LINE
  5
17A
  8
0
  6
CONTINUOUS
 62
     7
 10
-184.0616730492974
 20
147.517238225854
 30
0.0
 11
-178.7081196587041
 21
152.8707916164473
 31
0.0
  0
LINE
  5
17B
  8
0
  6
CONTINUOUS
 62
     7
 10
-184.0616730492974
 20
126.517238225854
 30
0.0
 11
-184.0616730492974
 21
147.517238225854
 31
0.0
  0
LINE
  5
17C
  8
0
  6
CONTINUOUS
 62
     7
 10
-206.0616730492974
 20
147.517238225854
 30
0.0
 11
-206.0616730492974
 21
126.517238225854
 31
0.0
  0
ENDBLK
  8
0
  0
BLOCK
  8
0
  2
D_FRAME_VIEW_2029
 70
     0
 10
0.0
 20
0.0
 30
0.0
  0
CIRCLE
  5
181
  8
0
  6
CONTINUOUS
 62
     7
 10
-195.0616730492974
 20
247.0932423628872
 30
0.0
 40
11.0
  0
CIRCLE
  5
182
  8
0
  6
CONTINUOUS
 62
     7
 10
-195.0616730492974
 20
247.0932423628872
 30
0.0
 40
8.800000000000002
  0
CIRCLE
  5
183
  8
0
  6
CONTINUOUS
 62
     7
 10
-195.0616730492974
 20
247.0932423628872
 30
0.0
 40
18.0
  0
CIRCLE
  5
184
  8
0
  6
CONTINUOUS
 62
     7
 10
-195.0616730492974
 20
247.0932423628872
 30
0.0
 40
6.999999999999999
  0
ENDBLK
  8
0
  0
BLOCK
  8
0
  2
D_FRAME_VIEW_2048
 70
     0
 10
0.0
 20
0.0
 30
0.0
  0
LINE
  5
189
  8
0
  6
CONTINUOUS
 62
     7
 10
-93.00000000000003
 20
183.135958767392
 30
0.0
 11
-56.99999999999999
 21
183.135958767392
 31
0.0
  0
LINE
  5
18A
  8
0
  6
CONTINUOUS
 62
     7
 10
-93.00000000000003
 20
149.635958767392
 30
0.0
 11
-56.99999999999999
 21
149.635958767392
 31
0.0
  0
LINE
  5
18B
  8
0
  6
CONTINUOUS
 62
     7
 10
-82.98515557876496
 20
152.535958767392
 30
0.0
 11
-93.0
 21
152.535958767392
 31
0.0
  0
LINE
  5
18C
  8
0
  6
CONTINUOUS
 62
     7
 10
-82.98515557876496
 20
153.735958767392
 30
0.0
 11
-93.0
 21
153.735958767392
 31
0.0
  0
LINE
  5
18D
  8
0
  6
CONTINUOUS
 62
     7
 10
-67.01484442123507
 20
173.835958767392
 30
0.0
 11
-57.00000000000005
 21
173.835958767392
 31
0.0
  0
LINE
  5
18E
  8
0
  6
CONTINUOUS
 62
     7
 10
-67.01484442123504
 20
170.335958767392
 30
0.0
 11
-67.01484442123504
 21
173.835958767392
 31
0.0
  0
LINE
  5
18F
  8
0
  6
CONTINUOUS
 62
     7
 10
-67.01484442123507
 20
170.335958767392
 30
0.0
 11
-57.00000000000005
 21
170.335958767392
 31
0.0
  0
LINE
  5
190
  8
0
  6
CONTINUOUS
 62
     7
 10
-67.01484442123507
 20
165.835958767392
 30
0.0
 11
-57.00000000000005
 21
165.835958767392
 31
0.0
  0
LINE
  5
191
  8
0
  6
CONTINUOUS
 62
     7
 10
-67.01484442123504
 20
162.335958767392
 30
0.0
 11
-67.01484442123504
 21
165.835958767392
 31
0.0
  0
LINE
  5
192
  8
0
  6
CONTINUOUS
 62
     7
 10
-67.01484442123507
 20
162.335958767392
 30
0.0
 11
-57.00000000000005
 21
162.335958767392
 31
0.0
  0
LINE
  5
193
  8
0
  6
CONTINUOUS
 62
     7
 10
-67.01484442123507
 20
157.835958767392
 30
0.0
 11
-57.00000000000005
 21
157.835958767392
 31
0.0
  0
LINE
  5
194
  8
0
  6
CONTINUOUS
 62
     7
 10
-67.01484442123504
 20
154.335958767392
 30
0.0
 11
-67.01484442123504
 21
157.835958767392
 31
0.0
  0
LINE
  5
195
  8
0
  6
CONTINUOUS
 62
     7
 10
-67.01484442123507
 20
154.335958767392
 30
0.0
 11
-57.00000000000005
 21
154.335958767392
 31
0.0
  0
LINE
  5
196
  8
0
  6
CONTINUOUS
 62
     7
 10
-82.98515557876499
 20
177.835958767392
 30
0.0
 11
-93.0
 21
177.835958767392
 31
0.0
  0
LINE
  5
197
  8
0
  6
CONTINUOUS
 62
     7
 10
-82.98515557876496
 20
174.335958767392
 30
0.0
 11
-93.0
 21
174.335958767392
 31
0.0
  0
LINE
  5
198
  8
0
  6
CONTINUOUS
 62
     7
 10
-82.98515557876499
 20
174.335958767392
 30
0.0
 11
-82.98515557876499
 21
177.835958767392
 31
0.0
  0
LINE
  5
199
  8
0
  6
CONTINUOUS
 62
     7
 10
-82.98515557876499
 20
173.835958767392
 30
0.0
 11
-93.0
 21
173.835958767392
 31
0.0
  0
LINE
  5
19A
  8
0
  6
CONTINUOUS
 62
     7
 10
-82.98515557876496
 20
170.335958767392
 30
0.0
 11
-93.0
 21
170.335958767392
 31
0.0
  0
LINE
  5
19B
  8
0
  6
CONTINUOUS
 62
     7
 10
-82.98515557876499
 20
170.335958767392
 30
0.0
 11
-82.98515557876499
 21
173.835958767392
 31
0.0
  0
LINE
  5
19C
  8
0
  6
CONTINUOUS
 62
     7
 10
-82.98515557876499
 20
169.835958767392
 30
0.0
 11
-93.0
 21
169.835958767392
 31
0.0
  0
LINE
  5
19D
  8
0
  6
CONTINUOUS
 62
     7
 10
-82.98515557876496
 20
166.335958767392
 30
0.0
 11
-93.0
 21
166.335958767392
 31
0.0
  0
LINE
  5
19E
  8
0
  6
CONTINUOUS
 62
     7
 10
-82.98515557876499
 20
166.335958767392
 30
0.0
 11
-82.98515557876499
 21
169.835958767392
 31
0.0
  0
LINE
  5
19F
  8
0
  6
CONTINUOUS
 62
     7
 10
-82.98515557876499
 20
165.835958767392
 30
0.0
 11
-93.0
 21
165.835958767392
 31
0.0
  0
LINE
  5
1A0
  8
0
  6
CONTINUOUS
 62
     7
 10
-82.98515557876496
 20
162.335958767392
 30
0.0
 11
-93.0
 21
162.335958767392
 31
0.0
  0
LINE
  5
1A1
  8
0
  6
CONTINUOUS
 62
     7
 10
-82.98515557876499
 20
162.335958767392
 30
0.0
 11
-82.98515557876499
 21
165.835958767392
 31
0.0
  0
LINE
  5
1A2
  8
0
  6
CONTINUOUS
 62
     7
 10
-82.98515557876499
 20
161.835958767392
 30
0.0
 11
-93.0
 21
161.835958767392
 31
0.0
  0
LINE
  5
1A3
  8
0
  6
CONTINUOUS
 62
     7
 10
-82.98515557876496
 20
158.335958767392
 30
0.0
 11
-93.0
 21
158.335958767392
 31
0.0
  0
LINE
  5
1A4
  8
0
  6
CONTINUOUS
 62
     7
 10
-82.98515557876499
 20
158.335958767392
 30
0.0
 11
-82.98515557876499
 21
161.835958767392
 31
0.0
  0
LINE
  5
1A5
  8
0
  6
CONTINUOUS
 62
     7
 10
-82.98515557876499
 20
157.835958767392
 30
0.0
 11
-93.0
 21
157.835958767392
 31
0.0
  0
LINE
  5
1A6
  8
0
  6
CONTINUOUS
 62
     7
 10
-82.98515557876496
 20
154.335958767392
 30
0.0
 11
-93.0
 21
154.335958767392
 31
0.0
  0
LINE
  5
1A7
  8
0
  6
CONTINUOUS
 62
     7
 10
-82.98515557876499
 20
154.335958767392
 30
0.0
 11
-82.98515557876499
 21
157.835958767392
 31
0.0
  0
LINE
  5
1A8
  8
0
  6
CONTINUOUS
 62
     7
 10
-67.01484442123507
 20
161.835958767392
 30
0.0
 11
-57.00000000000005
 21
161.835958767392
 31
0.0
  0
LINE
  5
1A9
  8
0
  6
CONTINUOUS
 62
     7
 10
-67.01484442123504
 20
158.335958767392
 30
0.0
 11
-67.01484442123504
 21
161.835958767392
 31
0.0
  0
LINE
  5
1AA
  8
0
  6
CONTINUOUS
 62
     7
 10
-67.01484442123507
 20
158.335958767392
 30
0.0
 11
-57.00000000000005
 21
158.335958767392
 31
0.0
  0
LINE
  5
1AB
  8
0
  6
CONTINUOUS
 62
     7
 10
-67.01484442123507
 20
169.835958767392
 30
0.0
 11
-57.00000000000005
 21
169.835958767392
 31
0.0
  0
LINE
  5
1AC
  8
0
  6
CONTINUOUS
 62
     7
 10
-67.01484442123504
 20
166.335958767392
 30
0.0
 11
-67.01484442123504
 21
169.835958767392
 31
0.0
  0
LINE
  5
1AD
  8
0
  6
CONTINUOUS
 62
     7
 10
-67.01484442123507
 20
166.335958767392
 30
0.0
 11
-57.00000000000005
 21
166.335958767392
 31
0.0
  0
LINE
  5
1AE
  8
0
  6
CONTINUOUS
 62
     7
 10
-67.01484442123507
 20
177.835958767392
 30
0.0
 11
-57.00000000000005
 21
177.835958767392
 31
0.0
  0
LINE
  5
1AF
  8
0
  6
CONTINUOUS
 62
     7
 10
-67.01484442123504
 20
174.335958767392
 30
0.0
 11
-67.01484442123504
 21
177.835958767392
 31
0.0
  0
LINE
  5
1B0
  8
0
  6
CONTINUOUS
 62
     7
 10
-67.01484442123507
 20
174.335958767392
 30
0.0
 11
-57.00000000000005
 21
174.335958767392
 31
0.0
  0
LINE
  5
1B1
  8
0
  6
CONTINUOUS
 62
     7
 10
-67.01484442123507
 20
152.535958767392
 30
0.0
 11
-57.00000000000002
 21
152.535958767392
 31
0.0
  0
LINE
  5
1B2
  8
0
  6
CONTINUOUS
 62
     7
 10
-67.01484442123507
 20
153.735958767392
 30
0.0
 11
-57.00000000000005
 21
153.735958767392
 31
0.0
  0
LINE
  5
1B3
  8
0
  6
CONTINUOUS
 62
     7
 10
-91.58624096837123
 20
156.5037226158895
 30
0.0
 11
-82.9991360102526
 21
156.5037226158895
 31
0.0
  0
LINE
  5
1B4
  8
0
  6
CONTINUOUS
 62
     7
 10
-91.5508600582702
 20
160.557973344711
 30
0.0
 11
-82.99949029443812
 21
160.557973344711
 31
0.0
  0
LINE
  5
1B5
  8
0
  6
CONTINUOUS
 62
     7
 10
-91.5154791481692
 20
164.6122240735326
 30
0.0
 11
-82.9998448192257
 21
164.6122240735326
 31
0.0
  0
LINE
  5
1B6
  8
0
  6
CONTINUOUS
 62
     7
 10
-58.42372865482362
 20
157.6461282800824
 30
0.0
 11
-67.00076418387523
 21
157.6461282800824
 31
0.0
  0
LINE
  5
1B7
  8
0
  6
CONTINUOUS
 62
     7
 10
-58.45859555547567
 20
161.6414793599955
 30
0.0
 11
-67.0004149817984
 21
161.6414793599955
 31
0.0
  0
LINE
  5
1B8
  8
0
  6
CONTINUOUS
 62
     7
 10
-58.49346245612774
 20
165.6368304399084
 30
0.0
 11
-67.00006554553111
 21
165.6368304399084
 31
0.0
  0
LINE
  5
1B9
  8
0
  6
CONTINUOUS
 62
     7
 10
-91.62006428446543
 20
152.627954481761
 30
0.0
 11
-82.99879754600705
 21
152.627954481761
 31
0.0
  0
LINE
  5
1BA
  8
0
  6
CONTINUOUS
 62
     7
 10
-58.38879713251599
 20
153.6433722918909
 30
0.0
 11
-67.0011138002618
 21
153.6433722918909
 31
0.0
  0
LINE
  5
1BB
  8
0
  6
CONTINUOUS
 62
     7
 10
-82.99923581612478
 20
157.6461282800823
 30
0.0
 11
-91.57627134517642
 21
157.6461282800823
 31
0.0
  0
LINE
  5
1BC
  8
0
  6
CONTINUOUS
 62
     7
 10
-84.99904896661403
 20
156.5037226158895
 30
0.0
 11
-84.99915875711963
 21
157.6461282800824
 31
0.0
  0
LINE
  5
1BD
  8
0
  6
CONTINUOUS
 62
     7
 10
-82.99958501820161
 20
161.6414793599955
 30
0.0
 11
-91.54140444452433
 21
161.6414793599954
 31
0.0
  0
LINE
  5
1BE
  8
0
  6
CONTINUOUS
 62
     7
 10
-84.9994387764193
 20
160.557973344711
 30
0.0
 11
-84.99954303775783
 21
161.6414793599955
 31
0.0
  0
LINE
  5
1BF
  8
0
  6
CONTINUOUS
 62
     7
 10
-82.9999344544689
 20
165.6368304399084
 30
0.0
 11
-91.50653754387226
 21
165.6368304399084
 31
0.0
  0
LINE
  5
1C0
  8
0
  6
CONTINUOUS
 62
     7
 10
-84.99982908320075
 20
164.6122240735328
 30
0.0
 11
-84.99992780235985
 21
165.6368304399084
 31
0.0
  0
LINE
  5
1C1
  8
0
  6
CONTINUOUS
 62
     7
 10
-65.00084124288041
 20
157.6461282800822
 30
0.0
 11
-65.00095103338599
 21
156.5037226158895
 31
0.0
  0
LINE
  5
1C2
  8
0
  6
CONTINUOUS
 62
     7
 10
-67.00086398974742
 20
156.5037226158895
 30
0.0
 11
-58.41375903162876
 21
156.5037226158895
 31
0.0
  0
LINE
  5
1C3
  8
0
  6
CONTINUOUS
 62
     7
 10
-65.00045696224218
 20
161.6414793599953
 30
0.0
 11
-65.00056122358072
 21
160.557973344711
 31
0.0
  0
LINE
  5
1C4
  8
0
  6
CONTINUOUS
 62
     7
 10
-67.0005097055619
 20
160.557973344711
 30
0.0
 11
-58.44913994172982
 21
160.557973344711
 31
0.0
  0
LINE
  5
1C5
  8
0
  6
CONTINUOUS
 62
     7
 10
-65.00007219764018
 20
165.6368304399083
 30
0.0
 11
-65.00017091679926
 21
164.6122240735328
 31
0.0
  0
LINE
  5
1C6
  8
0
  6
CONTINUOUS
 62
     7
 10
-67.00015518077431
 20
164.6122240735326
 30
0.0
 11
-58.48452085183078
 21
164.6122240735326
 31
0.0
  0
LINE
  5
1C7
  8
0
  6
CONTINUOUS
 62
     7
 10
-84.9986767776161
 20
152.627954481761
 30
0.0
 11
-84.99877424470448
 21
153.643372291891
 31
0.0
  0
LINE
  5
1C8
  8
0
  6
CONTINUOUS
 62
     7
 10
-82.99888619973822
 20
153.643372291891
 30
0.0
 11
-91.61120286748402
 21
153.643372291891
 31
0.0
  0
LINE
  5
1C9
  8
0
  6
CONTINUOUS
 62
     7
 10
-67.00120245399296
 20
152.627954481761
 30
0.0
 11
-58.37993571553462
 21
152.627954481761
 31
0.0
  0
LINE
  5
1CA
  8
0
  6
CONTINUOUS
 62
     7
 10
-65.00122575529554
 20
153.643372291891
 30
0.0
 11
-65.00132322238392
 21
152.627954481761
 31
0.0
  0
LINE
  5
1CB
  8
0
  6
CONTINUOUS
 62
     7
 10
-91.51937617609437
 20
168.6062486307144
 30
0.0
 11
-82.99980575826326
 21
168.6062486307144
 31
0.0
  0
LINE
  5
1CC
  8
0
  6
CONTINUOUS
 62
     7
 10
-91.55382271137327
 20
172.5534306099531
 30
0.0
 11
-82.9994606189236
 21
172.5534306099531
 31
0.0
  0
LINE
  5
1CD
  8
0
  6
CONTINUOUS
 62
     7
 10
-91.58826924665217
 20
176.5006125891922
 30
0.0
 11
-82.99911570748442
 21
176.5006125891922
 31
0.0
  0
LINE
  5
1CE
  8
0
  6
CONTINUOUS
 62
     7
 10
-58.47160463933893
 20
169.6397448154802
 30
0.0
 11
-67.00028463218239
 21
169.6397448154802
 31
0.0
  0
LINE
  5
1CF
  8
0
  6
CONTINUOUS
 62
     7
 10
-58.43665650314067
 20
173.6444045669733
 30
0.0
 11
-67.00063473493687
 21
173.6444045669733
 31
0.0
  0
LINE
  5
1D0
  8
0
  6
CONTINUOUS
 62
     7
 10
-58.40170836694242
 20
177.6490643184663
 30
0.0
 11
-67.0009846036377
 21
177.6490643184663
 31
0.0
  0
LINE
  5
1D1
  8
0
  6
CONTINUOUS
 62
     7
 10
-82.99971536781764
 20
169.6397448154802
 30
0.0
 11
-91.52839536066107
 21
169.6397448154802
 31
0.0
  0
LINE
  5
1D2
  8
0
  6
CONTINUOUS
 62
     7
 10
-84.99978606837435
 20
168.6062486307142
 30
0.0
 11
-84.99968653925386
 21
169.6397448154802
 31
0.0
  0
LINE
  5
1D3
  8
0
  6
CONTINUOUS
 62
     7
 10
-82.99936526506316
 20
173.6444045669733
 30
0.0
 11
-91.56334349685935
 21
173.6444045669733
 31
0.0
  0
LINE
  5
1D4
  8
0
  6
CONTINUOUS
 62
     7
 10
-84.99940611634155
 20
172.5534306099531
 30
0.0
 11
-84.99930118343451
 21
173.6444045669733
 31
0.0
  0
LINE
  5
1D5
  8
0
  6
CONTINUOUS
 62
     7
 10
-82.99901539636228
 20
177.6490643184663
 30
0.0
 11
-91.59829163305757
 21
177.6490643184663
 31
0.0
  0
LINE
  5
1D6
  8
0
  6
CONTINUOUS
 62
     7
 10
-84.99902663497843
 20
176.5006125891922
 30
0.0
 11
-84.99894074474395
 21
177.3946763869494
 31
0.0
  0
LINE
  5
1D7
  8
0
  6
CONTINUOUS
 62
     7
 10
-65.0003134607462
 20
169.6397448154802
 30
0.0
 11
-65.00021393162567
 21
168.6062486307142
 31
0.0
  0
LINE
  5
1D8
  8
0
  6
CONTINUOUS
 62
     7
 10
-67.00019424173672
 20
168.6062486307144
 30
0.0
 11
-58.48062382390562
 21
168.6062486307144
 31
0.0
  0
LINE
  5
1D9
  8
0
  6
CONTINUOUS
 62
     7
 10
-65.0006988165655
 20
173.6444045669733
 30
0.0
 11
-65.00059388365847
 21
172.5534306099531
 31
0.0
  0
LINE
  5
1DA
  8
0
  6
CONTINUOUS
 62
     7
 10
-67.0005393810764
 20
172.5534306099531
 30
0.0
 11
-58.44617728862672
 21
172.5534306099531
 31
0.0
  0
LINE
  5
1DB
  8
0
  6
CONTINUOUS
 62
     7
 10
-65.00105925525607
 20
177.3946763869494
 30
0.0
 11
-65.00097336502158
 21
176.5006125891922
 31
0.0
  0
LINE
  5
1DC
  8
0
  6
CONTINUOUS
 62
     7
 10
-67.00088429251561
 20
176.5006125891922
 30
0.0
 11
-58.41173075334785
 21
176.5006125891922
 31
0.0
  0
LINE
  5
1DD
  8
0
  6
CONTINUOUS
 62
     7
 10
-82.99888619973822
 20
153.643372291891
 30
0.0
 11
-82.98515557876499
 21
153.735958767392
 31
0.0
  0
LINE
  5
1DE
  8
0
  6
CONTINUOUS
 62
     7
 10
-82.98515557876499
 20
152.535958767392
 30
0.0
 11
-82.99879754600708
 21
152.627954481761
 31
0.0
  0
LINE
  5
1DF
  8
0
  6
CONTINUOUS
 62
     7
 10
-82.99923581612478
 20
157.6461282800822
 30
0.0
 11
-82.98515557876499
 21
157.835958767392
 31
0.0
  0
LINE
  5
1E0
  8
0
  6
CONTINUOUS
 62
     7
 10
-67.00076418387523
 20
157.6461282800824
 30
0.0
 11
-67.01484442123504
 21
157.835958767392
 31
0.0
  0
LINE
  5
1E1
  8
0
  6
CONTINUOUS
 62
     7
 10
-67.00006554553111
 20
165.6368304399084
 30
0.0
 11
-67.01484442123504
 21
165.835958767392
 31
0.0
  0
LINE
  5
1E2
  8
0
  6
CONTINUOUS
 62
     7
 10
-82.99901539636231
 20
177.6490643184663
 30
0.0
 11
-82.98515557876499
 21
177.835958767392
 31
0.0
  0
LINE
  5
1E3
  8
0
  6
CONTINUOUS
 62
     7
 10
-67.0011138002618
 20
153.643372291891
 30
0.0
 11
-67.01484442123504
 21
153.735958767392
 31
0.0
  0
LINE
  5
1E4
  8
0
  6
CONTINUOUS
 62
     7
 10
-67.0009846036377
 20
177.6490643184663
 30
0.0
 11
-67.01484442123504
 21
177.835958767392
 31
0.0
  0
LINE
  5
1E5
  8
0
  6
CONTINUOUS
 62
     7
 10
-82.99971536781764
 20
169.6397448154802
 30
0.0
 11
-82.98515557876499
 21
169.835958767392
 31
0.0
  0
LINE
  5
1E6
  8
0
  6
CONTINUOUS
 62
     7
 10
-67.0004149817984
 20
161.6414793599955
 30
0.0
 11
-67.01484442123504
 21
161.835958767392
 31
0.0
  0
LINE
  5
1E7
  8
0
  6
CONTINUOUS
 62
     7
 10
-67.00063473493687
 20
173.6444045669733
 30
0.0
 11
-67.01484442123504
 21
173.835958767392
 31
0.0
  0
LINE
  5
1E8
  8
0
  6
CONTINUOUS
 62
     7
 10
-82.9999344544689
 20
165.6368304399083
 30
0.0
 11
-82.98515557876499
 21
165.835958767392
 31
0.0
  0
LINE
  5
1E9
  8
0
  6
CONTINUOUS
 62
     7
 10
-82.99936526506316
 20
173.6444045669733
 30
0.0
 11
-82.98515557876499
 21
173.835958767392
 31
0.0
  0
LINE
  5
1EA
  8
0
  6
CONTINUOUS
 62
     7
 10
-82.99958501820161
 20
161.6414793599953
 30
0.0
 11
-82.98515557876499
 21
161.835958767392
 31
0.0
  0
LINE
  5
1EB
  8
0
  6
CONTINUOUS
 62
     7
 10
-67.01484442123504
 20
152.535958767392
 30
0.0
 11
-67.00120245399293
 21
152.627954481761
 31
0.0
  0
LINE
  5
1EC
  8
0
  6
CONTINUOUS
 62
     7
 10
-67.00028463218239
 20
169.6397448154802
 30
0.0
 11
-67.01484442123504
 21
169.835958767392
 31
0.0
  0
ARC
  5
1ED
  8
0
  6
CONTINUOUS
 62
     7
 10
-75.00000000000001
 20
184.5025486548239
 30
0.0
 40
13.85241767996362
 50
75.04805172215691
 51
104.9519482778431
  0
LINE
  5
1EE
  8
0
  6
CONTINUOUS
 62
     7
 10
-78.57404663357626
 20
197.885958767392
 30
0.0
 11
-78.54896481470469
 21
219.8946853028904
 31
0.0
  0
POLYLINE
  5
1EF
  8
0
  6
CONTINUOUS
 62
     7
 66
     1
 10
0.0
 20
0.0
 30
0.0
  0
VERTEX
  5
29D
  8
0
  6
CONTINUOUS
 62
     7
 10
-71.45103518529532
 20
219.8946853028907
 30
0.0
  0
VERTEX
  5
29E
  8
0
  6
CONTINUOUS
 62
     7
 10
-71.47112178297127
 20
219.9958224525429
 30
0.0
  0
VERTEX
  5
29F
  8
0
  6
CONTINUOUS
 62
     7
 10
-71.52682475849414
 20
220.0899186808084
 30
0.0
  0
VERTEX
  5
2A0
  8
0
  6
CONTINUOUS
 62
     7
 10
-71.59953181731768
 20
220.1654214076076
 30
0.0
  0
SEQEND
  5
2A3
  8
0
  6
CONTINUOUS
 62
     7
  0
ARC
  5
1F0
  8
0
  6
CONTINUOUS
 62
     7
 10
-74.5534655537178
 20
213.9602516806524
 30
0.0
 40
6.872398115604462
 50
64.54349711719135
 51
100.3712058024384
  0
ARC
  5
1F1
  8
0
  6
CONTINUOUS
 62
     7
 10
-76.10788743367057
 20
215.6568689942411
 30
0.0
 40
5.073426925142665
 50
86.41520245023924
 51
116.1236790858009
  0
ARC
  5
1F2
  8
0
  6
CONTINUOUS
 62
     7
 10
-78.13387330370429
 20
219.8499748330237
 30
0.0
 40
0.4174925012743318
 50
119.8653682946283
 51
173.8522408397105
  0
LINE
  5
1F3
  8
0
  6
CONTINUOUS
 62
     7
 10
-71.45103518529532
 20
219.8946853028907
 30
0.0
 11
-71.42595336642377
 21
197.885958767392
 31
0.0
  0
LINE
  5
1F4
  8
0
  6
CONTINUOUS
 62
     7
 10
-71.42595336642377
 20
197.885958767392
 30
0.0
 11
-78.57404663357626
 21
197.885958767392
 31
0.0
  0
LINE
  5
1F5
  8
0
  6
CONTINUOUS
 62
     7
 10
-61.03490747116305
 20
197.885958767392
 30
0.0
 11
-61.5
 21
197.885958767392
 31
0.0
  0
LINE
  5
1F6
  8
0
  6
CONTINUOUS
 62
     7
 10
-88.50000000000001
 20
197.885958767392
 30
0.0
 11
-88.96509252883696
 21
197.885958767392
 31
0.0
  0
LINE
  5
1F7
  8
0
  6
CONTINUOUS
 62
     7
 10
-87.07317415689714
 20
197.885958767392
 30
0.0
 11
-86.91962658009025
 21
219.8946853028904
 31
0.0
  0
LINE
  5
1F8
  8
0
  6
CONTINUOUS
 62
     7
 10
-82.01870893513968
 20
197.885958767392
 30
0.0
 11
-87.07317415689714
 21
197.885958767392
 31
0.0
  0
LINE
  5
1F9
  8
0
  6
CONTINUOUS
 62
     7
 10
-81.90063240674993
 20
219.8946853028907
 30
0.0
 11
-82.01870893513968
 21
197.885958767392
 31
0.0
  0
LINE
  5
1FA
  8
0
  6
CONTINUOUS
 62
     7
 10
-67.98129106486034
 20
197.885958767392
 30
0.0
 11
-68.09936759325005
 21
219.8946853028904
 31
0.0
  0
LINE
  5
1FB
  8
0
  6
CONTINUOUS
 62
     7
 10
-62.92682584310291
 20
197.885958767392
 30
0.0
 11
-67.98129106486034
 21
197.885958767392
 31
0.0
  0
LINE
  5
1FC
  8
0
  6
CONTINUOUS
 62
     7
 10
-63.0803734199098
 20
219.8946853028907
 30
0.0
 11
-62.92682584310288
 21
197.885958767392
 31
0.0
  0
LINE
  5
1FD
  8
0
  6
CONTINUOUS
 62
     7
 10
-87.77306335905452
 20
220.885958767392
 30
0.0
 11
-62.2269366409455
 21
220.885958767392
 31
0.0
  0
ARC
  5
1FE
  8
0
  6
CONTINUOUS
 62
     7
 10
-63.62982575980708
 20
219.8457784879805
 30
0.0
 40
0.5516246462616303
 50
5.0864989723699
 51
65.72989492435123
  0
LINE
  5
1FF
  8
0
  6
CONTINUOUS
 62
     7
 10
-63.40308664679014
 20
220.3486493710027
 30
0.0
 11
-63.50571078198361
 21
220.4062805290891
 31
0.0
  0
ARC
  5
200
  8
0
  6
CONTINUOUS
 62
     7
 10
-65.56177933897408
 20
214.3200675423312
 30
0.0
 40
6.42412690030524
 50
71.333799546065
 51
110.2362040519092
  0
ARC
  5
201
  8
0
  6
CONTINUOUS
 62
     7
 10
-67.54549416652554
 20
219.8452523650772
 30
0.0
 40
0.556074984307337
 50
115.3787502679634
 51
174.8998920981346
  0
ARC
  5
202
  8
0
  6
CONTINUOUS
 62
     7
 10
-82.44244471951505
 20
219.8539482362265
 30
0.0
 40
0.5433415968470338
 50
4.299789084902608
 51
65.57163528290342
  0
LINE
  5
203
  8
0
  6
CONTINUOUS
 62
     7
 10
-82.2177429658161
 20
220.3486493710027
 30
0.0
 11
-82.3196558371515
 21
220.4062805290891
 31
0.0
  0
ARC
  5
204
  8
0
  6
CONTINUOUS
 62
     7
 10
-84.37598888962957
 20
214.3119463972735
 30
0.0
 40
6.431905948700295
 50
71.35472121622172
 51
110.2150169692007
  0
ARC
  5
205
  8
0
  6
CONTINUOUS
 62
     7
 10
-86.35783407730611
 20
219.8367313470536
 30
0.0
 40
0.5647738283433393
 50
115.2216817402037
 51
174.1102578579245
  0
ARC
  5
206
  8
0
  6
CONTINUOUS
 62
     7
 10
-84.54594154601841
 20
191.3119903930774
 30
0.0
 40
7.043008224897828
 50
68.97172772483113
 51
111.0282722751689
  0
ARC
  5
207
  8
0
  6
CONTINUOUS
 62
     7
 10
-65.45405845398162
 20
191.3105403577687
 30
0.0
 40
7.044361712114332
 50
68.97595973384288
 51
111.0240402661571
  0
LINE
  5
208
  8
0
  6
CONTINUOUS
 62
     7
 10
-58.49999999999999
 20
146.8859587673921
 30
0.0
 11
-91.5
 21
146.8859587673921
 31
0.0
  0
LINE
  5
209
  8
0
  6
CONTINUOUS
 62
     7
 10
-58.50000000000002
 20
183.385958767392
 30
0.0
 11
-91.5
 21
183.385958767392
 31
0.0
  0
ARC
  5
20A
  8
0
  6
CONTINUOUS
 62
     7
 10
-70.33338644802642
 20
-468.0846844760569
 30
0.0
 40
645.6104186232478
 50
89.378703544965
 51
89.70403865130493
  0
ARC
  5
20B
  8
0
  6
CONTINUOUS
 62
     7
 10
-56.62958268450258
 20
795.6266042954327
 30
0.0
 40
618.1751706307555
 50
269.378703544965
 51
269.5444750255564
  0
ARC
  5
20C
  8
0
  6
CONTINUOUS
 62
     7
 10
-62.35475202475688
 20
75.53188474376745
 30
0.0
 40
101.9423077643784
 50
88.53922907653072
 51
89.54447502555855
  0
ARC
  5
20D
  8
0
  6
CONTINUOUS
 62
     7
 10
-58.06271890634868
 20
243.8417097829642
 30
0.0
 40
66.42223349361494
 50
268.5392290765307
 51
268.9443734708269
  0
ARC
  5
20E
  8
0
  6
CONTINUOUS
 62
     7
 10
-59.53889131588692
 20
163.7292113702112
 30
0.0
 40
13.70386392112276
 50
86.98055823308674
 51
88.94437347082741
  0
ARC
  5
20F
  8
0
  6
CONTINUOUS
 62
     7
 10
-58.6359137363639
 20
180.8479057643602
 30
0.0
 40
3.438629079295528
 50
266.9805582330868
 51
268.9640374854828
  0
ARC
  5
210
  8
0
  6
CONTINUOUS
 62
     7
 10
-58.71489401441909
 20
176.480234741951
 30
0.0
 40
0.929755982064674
 50
81.62364345423924
 51
88.96403748548029
  0
ARC
  5
211
  8
0
  6
CONTINUOUS
 62
     7
 10
-58.56967667654077
 20
177.4664605638899
 30
0.0
 40
0.0671038110253266
 50
261.6236434542341
 51
299.04234547886
  0
ARC
  5
212
  8
0
  6
CONTINUOUS
 62
     7
 10
-58.52497599314274
 20
177.385958767392
 30
0.0
 40
0.0249759931427312
 50
0.0
 51
119.0423454789514
  0
ARC
  5
213
  8
0
  6
CONTINUOUS
 62
     7
 10
-91.4750240068573
 20
177.385958767392
 30
0.0
 40
0.0249759931427174
 50
60.95765452102074
 51
180.0
  0
ARC
  5
214
  8
0
  6
CONTINUOUS
 62
     7
 10
-91.43032332345923
 20
177.4664605638898
 30
0.0
 40
0.0671038110252982
 50
240.9576545211233
 51
278.3763565457635
  0
ARC
  5
215
  8
0
  6
CONTINUOUS
 62
     7
 10
-91.28510598558094
 20
176.480234741951
 30
0.0
 40
0.9297559820646455
 50
91.03596251451847
 51
98.37635654576057
  0
ARC
  5
216
  8
0
  6
CONTINUOUS
 62
     7
 10
-91.36408626363612
 20
180.8479057643602
 30
0.0
 40
3.438629079295528
 50
271.0359625145173
 51
273.0194417669132
  0
ARC
  5
217
  8
0
  6
CONTINUOUS
 62
     7
 10
-90.46110868411309
 20
163.7292113702108
 30
0.0
 40
13.70386392112312
 50
91.05562652917261
 51
93.01944176691325
  0
ARC
  5
218
  8
0
  6
CONTINUOUS
 62
     7
 10
-91.93728109365122
 20
243.84170978296
 30
0.0
 40
66.42223349361076
 50
271.0556265291731
 51
271.4607709234693
  0
ARC
  5
219
  8
0
  6
CONTINUOUS
 62
     7
 10
-87.64524797524314
 20
75.53188474376745
 30
0.0
 40
101.9423077643784
 50
90.4555249744415
 51
91.46077092346935
  0
ARC
  5
21A
  8
0
  6
CONTINUOUS
 62
     7
 10
-93.37041731549743
 20
795.6266042954327
 30
0.0
 40
618.1751706307555
 50
270.4555249744436
 51
270.621296455035
  0
ARC
  5
21B
  8
0
  6
CONTINUOUS
 62
     7
 10
-79.66661355197361
 20
-468.0846844760568
 30
0.0
 40
645.6104186232477
 50
90.2959535777465
 51
90.62129645503501
  0
LINE
  5
21C
  8
0
  6
CONTINUOUS
 62
     7
 10
-64.0
 20
139.8859587673921
 30
0.0
 11
-85.99999999999999
 21
139.8859587673921
 31
0.0
  0
LINE
  5
21D
  8
0
  6
CONTINUOUS
 62
     7
 10
-60.95236120674455
 20
177.385958767392
 30
0.0
 11
-58.50000000000002
 21
177.385958767392
 31
0.0
  0
ARC
  5
21E
  8
0
  6
CONTINUOUS
 62
     7
 10
-60.97362502850823
 20
177.3859681037721
 30
0.0
 40
0.0212638625023479
 50
0.0
 51
119.0423454335996
  0
ARC
  5
21F
  8
0
  6
CONTINUOUS
 62
     7
 10
-61.0116819409591
 20
177.4545050833947
 30
0.0
 40
0.0571303092266945
 50
261.6236434304958
 51
299.0423454335178
  0
ARC
  5
220
  8
0
  6
CONTINUOUS
 62
     7
 10
-61.13531592371586
 20
176.614859985263
 30
0.0
 40
0.7915682547575851
 50
81.62364343049605
 51
88.96403748224495
  0
ARC
  5
221
  8
0
  6
CONTINUOUS
 62
     7
 10
-61.06807432241109
 20
180.3333730094403
 30
0.0
 40
2.927552682227669
 50
266.9805582243544
 51
268.9640374822454
  0
ARC
  5
222
  8
0
  6
CONTINUOUS
 62
     7
 10
-61.83684419591022
 20
165.758995102205
 30
0.0
 40
11.66708669328642
 50
86.98055822435433
 51
88.94437346776132
  0
ARC
  5
223
  8
0
  6
CONTINUOUS
 62
     7
 10
-60.58007226458933
 20
233.9645369545806
 30
0.0
 40
56.55003296932841
 50
268.5392290722965
 51
268.9443734677538
  0
ARC
  5
224
  8
0
  6
CONTINUOUS
 62
     7
 10
-64.23418930166895
 20
90.6702564975236
 30
0.0
 40
86.79083134725921
 50
88.53922907229654
 51
89.5444750242368
  0
ARC
  5
225
  8
0
  6
CONTINUOUS
 62
     7
 10
-59.35994014066438
 20
703.7387726977571
 30
0.0
 40
526.2970610962626
 50
269.3787035431631
 51
269.5444750242333
  0
ARC
  5
226
  8
0
  6
CONTINUOUS
 62
     7
 10
-71.02697565115305
 20
-372.1496954065441
 30
0.0
 40
549.6546643623764
 50
89.37870354316313
 51
89.58004578590545
  0
ARC
  5
227
  8
0
  6
CONTINUOUS
 62
     7
 10
-78.97302434884696
 20
-372.1496954065441
 30
0.0
 40
549.6546643623764
 50
90.41987093108719
 51
90.62129645683689
  0
ARC
  5
228
  8
0
  6
CONTINUOUS
 62
     7
 10
-90.64005985933565
 20
703.7387726977571
 30
0.0
 40
526.2970610962626
 50
270.4555249757665
 51
270.6212964568369
  0
ARC
  5
229
  8
0
  6
CONTINUOUS
 62
     7
 10
-85.76581069833107
 20
90.67025649752439
 30
0.0
 40
86.79083134725843
 50
90.45552497576321
 51
91.46077092770349
  0
ARC
  5
22A
  8
0
  6
CONTINUOUS
 62
     7
 10
-89.41992773541062
 20
233.964536954579
 30
0.0
 40
56.55003296932683
 50
271.0556265322461
 51
271.4607709277034
  0
ARC
  5
22B
  8
0
  6
CONTINUOUS
 62
     7
 10
-88.1631558040897
 20
165.7589951022027
 30
0.0
 40
11.66708669328872
 50
91.05562653223893
 51
93.0194417756455
  0
ARC
  5
22C
  8
0
  6
CONTINUOUS
 62
     7
 10
-88.9319256775889
 20
180.33337300944
 30
0.0
 40
2.927552682227363
 50
271.0359625177539
 51
273.0194417756454
  0
ARC
  5
22D
  8
0
  6
CONTINUOUS
 62
     7
 10
-88.86468407628422
 20
176.6148599852635
 30
0.0
 40
0.7915682547570828
 50
91.03596251775109
 51
98.37635656950538
  0
ARC
  5
22E
  8
0
  6
CONTINUOUS
 62
     7
 10
-88.98831805904094
 20
177.4545050833947
 30
0.0
 40
0.0571303092266955
 50
240.9576545664882
 51
278.376356569511
  0
ARC
  5
22F
  8
0
  6
CONTINUOUS
 62
     7
 10
-89.02637497149179
 20
177.3859681037721
 30
0.0
 40
0.0212638625023409
 50
60.95765456640044
 51
180.0
  0
LINE
  5
230
  8
0
  6
CONTINUOUS
 62
     7
 10
-91.5
 20
177.385958767392
 30
0.0
 11
-89.04763879325547
 21
177.385958767392
 31
0.0
  0
LINE
  5
231
  8
0
  6
CONTINUOUS
 62
     7
 10
-64.00000000000003
 20
118.885958767392
 30
0.0
 11
-85.99999999999999
 21
118.885958767392
 31
0.0
  0
LINE
  5
232
  8
0
  6
CONTINUOUS
 62
     7
 10
-56.99999999999999
 20
177.835958767392
 30
0.0
 11
-56.99999999999999
 21
183.135958767392
 31
0.0
  0
LINE
  5
233
  8
0
  6
CONTINUOUS
 62
     7
 10
-56.99999999999999
 20
173.835958767392
 30
0.0
 11
-56.99999999999999
 21
174.335958767392
 31
0.0
  0
LINE
  5
234
  8
0
  6
CONTINUOUS
 62
     7
 10
-56.99999999999999
 20
169.835958767392
 30
0.0
 11
-56.99999999999999
 21
170.335958767392
 31
0.0
  0
LINE
  5
235
  8
0
  6
CONTINUOUS
 62
     7
 10
-56.99999999999999
 20
165.835958767392
 30
0.0
 11
-56.99999999999999
 21
166.335958767392
 31
0.0
  0
LINE
  5
236
  8
0
  6
CONTINUOUS
 62
     7
 10
-56.99999999999999
 20
161.835958767392
 30
0.0
 11
-56.99999999999999
 21
162.335958767392
 31
0.0
  0
LINE
  5
237
  8
0
  6
CONTINUOUS
 62
     7
 10
-56.99999999999999
 20
157.835958767392
 30
0.0
 11
-56.99999999999999
 21
158.335958767392
 31
0.0
  0
LINE
  5
238
  8
0
  6
CONTINUOUS
 62
     7
 10
-56.99999999999999
 20
153.735958767392
 30
0.0
 11
-56.99999999999999
 21
154.335958767392
 31
0.0
  0
LINE
  5
239
  8
0
  6
CONTINUOUS
 62
     7
 10
-56.99999999999999
 20
149.635958767392
 30
0.0
 11
-56.99999999999999
 21
152.535958767392
 31
0.0
  0
LINE
  5
23A
  8
0
  6
CONTINUOUS
 62
     7
 10
-93.0
 20
152.535958767392
 30
0.0
 11
-93.0
 21
149.635958767392
 31
0.0
  0
LINE
  5
23B
  8
0
  6
CONTINUOUS
 62
     7
 10
-93.0
 20
154.335958767392
 30
0.0
 11
-93.0
 21
153.735958767392
 31
0.0
  0
LINE
  5
23C
  8
0
  6
CONTINUOUS
 62
     7
 10
-93.0
 20
158.335958767392
 30
0.0
 11
-93.0
 21
157.835958767392
 31
0.0
  0
LINE
  5
23D
  8
0
  6
CONTINUOUS
 62
     7
 10
-93.0
 20
162.335958767392
 30
0.0
 11
-93.0
 21
161.835958767392
 31
0.0
  0
LINE
  5
23E
  8
0
  6
CONTINUOUS
 62
     7
 10
-93.0
 20
166.335958767392
 30
0.0
 11
-93.0
 21
165.835958767392
 31
0.0
  0
LINE
  5
23F
  8
0
  6
CONTINUOUS
 62
     7
 10
-93.0
 20
170.335958767392
 30
0.0
 11
-93.0
 21
169.835958767392
 31
0.0
  0
LINE
  5
240
  8
0
  6
CONTINUOUS
 62
     7
 10
-93.0
 20
174.335958767392
 30
0.0
 11
-93.0
 21
173.835958767392
 31
0.0
  0
LINE
  5
241
  8
0
  6
CONTINUOUS
 62
     7
 10
-93.0
 20
183.135958767392
 30
0.0
 11
-93.0
 21
177.835958767392
 31
0.0
  0
LINE
  5
242
  8
0
  6
CONTINUOUS
 62
     7
 10
-91.58624096837123
 20
156.5037226158895
 30
0.0
 11
-93.0
 21
154.335958767392
 31
0.0
  0
LINE
  5
243
  8
0
  6
CONTINUOUS
 62
     7
 10
-91.58826924665206
 20
176.5006125891922
 30
0.0
 11
-93.0
 21
174.335958767392
 31
0.0
  0
LINE
  5
244
  8
0
  6
CONTINUOUS
 62
     7
 10
-93.0
 20
153.735958767392
 30
0.0
 11
-91.61120286748378
 21
153.6433722918909
 31
0.0
  0
LINE
  5
245
  8
0
  6
CONTINUOUS
 62
     7
 10
-91.5154791481692
 20
164.6122240735326
 30
0.0
 11
-93.0
 21
162.335958767392
 31
0.0
  0
LINE
  5
246
  8
0
  6
CONTINUOUS
 62
     7
 10
-91.5508600582702
 20
160.557973344711
 30
0.0
 11
-93.0
 21
158.335958767392
 31
0.0
  0
LINE
  5
247
  8
0
  6
CONTINUOUS
 62
     7
 10
-91.51937617609413
 20
168.6062486307144
 30
0.0
 11
-93.0
 21
166.335958767392
 31
0.0
  0
LINE
  5
248
  8
0
  6
CONTINUOUS
 62
     7
 10
-91.55382271137324
 20
172.5534306099531
 30
0.0
 11
-93.0
 21
170.335958767392
 31
0.0
  0
LINE
  5
249
  8
0
  6
CONTINUOUS
 62
     7
 10
-91.62006428446531
 20
152.627954481761
 30
0.0
 11
-93.0
 21
152.535958767392
 31
0.0
  0
LINE
  5
24A
  8
0
  6
CONTINUOUS
 62
     7
 10
-58.42372865482231
 20
157.6461282800824
 30
0.0
 11
-57.00000000000002
 21
157.835958767392
 31
0.0
  0
LINE
  5
24B
  8
0
  6
CONTINUOUS
 62
     7
 10
-57.00000000000002
 20
162.335958767392
 30
0.0
 11
-58.48452085183081
 21
164.6122240735326
 31
0.0
  0
LINE
  5
24C
  8
0
  6
CONTINUOUS
 62
     7
 10
-57.00000000000002
 20
174.335958767392
 30
0.0
 11
-58.41173075334796
 21
176.5006125891922
 31
0.0
  0
LINE
  5
24D
  8
0
  6
CONTINUOUS
 62
     7
 10
-93.0
 20
177.835958767392
 30
0.0
 11
-91.5982916330576
 21
177.6490643184663
 31
0.0
  0
LINE
  5
24E
  8
0
  6
CONTINUOUS
 62
     7
 10
-58.38879713251624
 20
153.6433722918909
 30
0.0
 11
-57.00000000000002
 21
153.735958767392
 31
0.0
  0
LINE
  5
24F
  8
0
  6
CONTINUOUS
 62
     7
 10
-57.00000000000002
 20
166.335958767392
 30
0.0
 11
-58.48062382390589
 21
168.6062486307144
 31
0.0
  0
LINE
  5
250
  8
0
  6
CONTINUOUS
 62
     7
 10
-58.45859555547395
 20
161.6414793599955
 30
0.0
 11
-56.99999999999999
 21
161.835958767392
 31
0.0
  0
LINE
  5
251
  8
0
  6
CONTINUOUS
 62
     7
 10
-57.00000000000002
 20
154.335958767392
 30
0.0
 11
-58.41375903162879
 21
156.5037226158895
 31
0.0
  0
LINE
  5
252
  8
0
  6
CONTINUOUS
 62
     7
 10
-58.43665650314067
 20
173.6444045669733
 30
0.0
 11
-57.00000000000002
 21
173.835958767392
 31
0.0
  0
LINE
  5
253
  8
0
  6
CONTINUOUS
 62
     7
 10
-93.0
 20
165.835958767392
 30
0.0
 11
-91.50653754387272
 21
165.6368304399084
 31
0.0
  0
LINE
  5
254
  8
0
  6
CONTINUOUS
 62
     7
 10
-93.0
 20
169.835958767392
 30
0.0
 11
-91.5283953606611
 21
169.6397448154802
 31
0.0
  0
LINE
  5
255
  8
0
  6
CONTINUOUS
 62
     7
 10
-58.4934624561273
 20
165.6368304399084
 30
0.0
 11
-57.00000000000002
 21
165.835958767392
 31
0.0
  0
LINE
  5
256
  8
0
  6
CONTINUOUS
 62
     7
 10
-93.0
 20
157.835958767392
 30
0.0
 11
-91.5762713451777
 21
157.6461282800824
 31
0.0
  0
LINE
  5
257
  8
0
  6
CONTINUOUS
 62
     7
 10
-58.47160463933893
 20
169.6397448154802
 30
0.0
 11
-57.00000000000002
 21
169.835958767392
 31
0.0
  0
LINE
  5
258
  8
0
  6
CONTINUOUS
 62
     7
 10
-58.40170836694242
 20
177.6490643184663
 30
0.0
 11
-57.00000000000002
 21
177.835958767392
 31
0.0
  0
LINE
  5
259
  8
0
  6
CONTINUOUS
 62
     7
 10
-57.00000000000002
 20
170.335958767392
 30
0.0
 11
-58.44617728862678
 21
172.5534306099531
 31
0.0
  0
LINE
  5
25A
  8
0
  6
CONTINUOUS
 62
     7
 10
-57.00000000000002
 20
158.335958767392
 30
0.0
 11
-58.44913994172982
 21
160.557973344711
 31
0.0
  0
LINE
  5
25B
  8
0
  6
CONTINUOUS
 62
     7
 10
-93.00000000000003
 20
161.835958767392
 30
0.0
 11
-91.54140444452608
 21
161.6414793599955
 31
0.0
  0
LINE
  5
25C
  8
0
  6
CONTINUOUS
 62
     7
 10
-93.0
 20
173.835958767392
 30
0.0
 11
-91.56334349685935
 21
173.6444045669733
 31
0.0
  0
LINE
  5
25D
  8
0
  6
CONTINUOUS
 62
     7
 10
-57.00000000000002
 20
152.535958767392
 30
0.0
 11
-58.37993571553471
 21
152.627954481761
 31
0.0
  0
LINE
  5
25E
  8
0
  6
CONTINUOUS
 62
     7
 10
-61.00000000000003
 20
193.885958767392
 30
0.0
 11
-61.03490747116305
 21
197.885958767392
 31
0.0
  0
LINE
  5
25F
  8
0
  6
CONTINUOUS
 62
     7
 10
-88.96509252883696
 20
197.885958767392
 30
0.0
 11
-89.0
 21
193.885958767392
 31
0.0
  0
ARC
  5
260
  8
0
  6
CONTINUOUS
 62
     7
 10
-87.77306335905455
 20
219.885958767392
 30
0.0
 40
1.000000000000001
 50
90.0
 51
121.8946883254953
  0
ARC
  5
261
  8
0
  6
CONTINUOUS
 62
     7
 10
-62.22693664094547
 20
219.885958767392
 30
0.0
 40
0.9999999999999905
 50
58.10531167450457
 51
90.0
  0
LINE
  5
262
  8
0
  6
CONTINUOUS
 62
     7
 10
-88.49762623922489
 20
198.3534250570041
 30
0.0
 11
-88.96509252883696
 21
197.885958767392
 31
0.0
  0
LINE
  5
263
  8
0
  6
CONTINUOUS
 62
     7
 10
-61.03490747116305
 20
197.885958767392
 30
0.0
 11
-61.50237376077514
 21
198.3534250570041
 31
0.0
  0
LINE
  5
264
  8
0
  6
CONTINUOUS
 62
     7
 10
-93.00000000000006
 20
183.442683408032
 30
0.0
 11
-86.50000000000001
 21
183.385958767392
 31
0.0
  0
LINE
  5
265
  8
0
  6
CONTINUOUS
 62
     7
 10
-63.5
 20
183.385958767392
 30
0.0
 11
-56.99999999999996
 21
183.442683408032
 31
0.0
  0
ARC
  5
266
  8
0
  6
CONTINUOUS
 62
     7
 10
-92.5
 20
184.1788519862054
 30
0.0
 40
0.5000000000000178
 50
134.9999999999993
 51
180.0
  0
ARC
  5
267
  8
0
  6
CONTINUOUS
 62
     7
 10
-57.50000000000002
 20
184.1788519862054
 30
0.0
 40
0.5000000000000004
 50
0.0
 51
45.00000000000072
  0
LINE
  5
268
  8
0
  6
CONTINUOUS
 62
     7
 10
-57.00000000000002
 20
183.442683408032
 30
0.0
 11
-57.00000000000002
 21
184.1788519862054
 31
0.0
  0
LINE
  5
269
  8
0
  6
CONTINUOUS
 62
     7
 10
-93.0
 20
184.1788519862054
 30
0.0
 11
-93.0
 21
183.442683408032
 31
0.0
  0
LINE
  5
26A
  8
0
  6
CONTINUOUS
 62
     7
 10
-57.14644660940674
 20
184.5324053767987
 30
0.0
 11
-58.30693715835358
 21
185.6928959257456
 31
0.0
  0
LINE
  5
26B
  8
0
  6
CONTINUOUS
 62
     7
 10
-91.69306284164644
 20
185.6928959257456
 30
0.0
 11
-92.85355339059328
 21
184.5324053767987
 31
0.0
  0
ARC
  5
26C
  8
0
  6
CONTINUOUS
 62
     7
 10
-91.33950945105315
 20
185.3393425351523
 30
0.0
 40
0.5000000000000016
 50
90.4999999999997
 51
134.9999999999993
  0
ARC
  5
26D
  8
0
  6
CONTINUOUS
 62
     7
 10
-58.66049054894687
 20
185.3393425351523
 30
0.0
 40
0.5000000000000178
 50
45.00000000000075
 51
89.50000000000031
  0
LINE
  5
26E
  8
0
  6
CONTINUOUS
 62
     7
 10
-58.65612728119768
 20
185.8393234966844
 30
0.0
 11
-63.50436326775874
 21
185.8816334111575
 31
0.0
  0
LINE
  5
26F
  8
0
  6
CONTINUOUS
 62
     7
 10
-86.49563673224128
 20
185.8816334111575
 30
0.0
 11
-91.34387271880234
 21
185.8393234966844
 31
0.0
  0
ARC
  5
270
  8
0
  6
CONTINUOUS
 62
     7
 10
-63.5
 20
186.3816143726895
 30
0.0
 40
0.5000000000000016
 50
179.9999999999999
 51
269.4999999999999
  0
ARC
  5
271
  8
0
  6
CONTINUOUS
 62
     7
 10
-86.50000000000001
 20
186.3816143726895
 30
0.0
 40
0.5000000000000004
 50
270.5000000000001
 51
0.0000000000000568
  0
LINE
  5
272
  8
0
  6
CONTINUOUS
 62
     7
 10
-64.0
 20
186.3816143726895
 30
0.0
 11
-64.0
 21
193.885958767392
 31
0.0
  0
LINE
  5
273
  8
0
  6
CONTINUOUS
 62
     7
 10
-86.00000000000001
 20
193.885958767392
 30
0.0
 11
-86.00000000000001
 21
186.3816143726895
 31
0.0
  0
LINE
  5
274
  8
0
  6
CONTINUOUS
 62
     7
 10
-57.00000000000014
 20
149.3728684657059
 30
0.0
 11
-58.50000000000014
 21
149.385958767392
 31
0.0
  0
LINE
  5
275
  8
0
  6
CONTINUOUS
 62
     7
 10
-91.50000000000013
 20
149.385958767392
 30
0.0
 11
-93.00000000000014
 21
149.3728684657059
 31
0.0
  0
ARC
  5
276
  8
0
  6
CONTINUOUS
 62
     7
 10
-92.5
 20
148.5930655485786
 30
0.0
 40
0.5000000000000004
 50
180.0
 51
225.0
  0
ARC
  5
277
  8
0
  6
CONTINUOUS
 62
     7
 10
-57.49999999999999
 20
148.5930655485786
 30
0.0
 40
0.4999999999999786
 50
315.0
 51
0.0
  0
LINE
  5
278
  8
0
  6
CONTINUOUS
 62
     7
 10
-56.99999999999999
 20
148.5930655485786
 30
0.0
 11
-56.99999999999999
 21
149.3728684657059
 31
0.0
  0
LINE
  5
279
  8
0
  6
CONTINUOUS
 62
     7
 10
-93.0
 20
149.3728684657059
 30
0.0
 11
-93.0
 21
148.5930655485786
 31
0.0
  0
LINE
  5
27A
  8
0
  6
CONTINUOUS
 62
     7
 10
-92.85355339059328
 20
148.2395121579853
 30
0.0
 11
-91.5
 21
146.8859587673921
 31
0.0
  0
LINE
  5
27B
  8
0
  6
CONTINUOUS
 62
     7
 10
-58.49999999999999
 20
146.8859587673921
 30
0.0
 11
-57.14644660940674
 21
148.2395121579853
 31
0.0
  0
ARC
  5
27C
  8
0
  6
CONTINUOUS
 62
     7
 10
-91.0
 20
145.5930655485786
 30
0.0
 40
0.5000000000000004
 50
180.0
 51
225.0000000000009
  0
ARC
  5
27D
  8
0
  6
CONTINUOUS
 62
     7
 10
-58.99999999999999
 20
145.5930655485786
 30
0.0
 40
0.4999999999999983
 50
314.9999999999991
 51
0.0
  0
LINE
  5
27E
  8
0
  6
CONTINUOUS
 62
     7
 10
-58.50000000000002
 20
177.385958767392
 30
0.0
 11
-58.50000000000002
 21
177.6490643184663
 31
0.0
  0
LINE
  5
27F
  8
0
  6
CONTINUOUS
 62
     7
 10
-58.50000000000002
 20
183.135958767392
 30
0.0
 11
-58.50000000000002
 21
183.385958767392
 31
0.0
  0
LINE
  5
280
  8
0
  6
CONTINUOUS
 62
     7
 10
-58.49999999999999
 20
149.385958767392
 30
0.0
 11
-58.49999999999999
 21
149.635958767392
 31
0.0
  0
LINE
  5
281
  8
0
  6
CONTINUOUS
 62
     7
 10
-91.5
 20
149.635958767392
 30
0.0
 11
-91.5
 21
149.385958767392
 31
0.0
  0
LINE
  5
282
  8
0
  6
CONTINUOUS
 62
     7
 10
-91.5
 20
183.385958767392
 30
0.0
 11
-91.5
 21
183.135958767392
 31
0.0
  0
LINE
  5
283
  8
0
  6
CONTINUOUS
 62
     7
 10
-91.5
 20
177.6490643184663
 30
0.0
 11
-91.5
 21
177.385958767392
 31
0.0
  0
LINE
  5
284
  8
0
  6
CONTINUOUS
 62
     7
 10
-58.49999999999999
 20
145.5930655485786
 30
0.0
 11
-58.49999999999999
 21
146.8859587673921
 31
0.0
  0
LINE
  5
285
  8
0
  6
CONTINUOUS
 62
     7
 10
-91.5
 20
146.8859587673921
 30
0.0
 11
-91.5
 21
145.5930655485786
 31
0.0
  0
LINE
  5
286
  8
0
  6
CONTINUOUS
 62
     7
 10
-91.35355339059328
 20
145.2395121579853
 30
0.0
 11
-85.99999999999999
 21
139.8859587673921
 31
0.0
  0
LINE
  5
287
  8
0
  6
CONTINUOUS
 62
     7
 10
-64.0
 20
139.8859587673921
 30
0.0
 11
-58.64644660940674
 21
145.2395121579853
 31
0.0
  0
LINE
  5
288
  8
0
  6
CONTINUOUS
 62
     7
 10
-64.0
 20
118.885958767392
 30
0.0
 11
-64.00000000000003
 21
139.8859587673921
 31
0.0
  0
LINE
  5
289
  8
0
  6
CONTINUOUS
 62
     7
 10
-85.99999999999999
 20
139.8859587673921
 30
0.0
 11
-85.99999999999999
 21
118.885958767392
 31
0.0
  0
ENDBLK
  8
0
  0
BLOCK
  8
0
  2
D_FRAME_VIEW_2455
 70
     0
 10
0.0
 20
0.0
 30
0.0
  0
CIRCLE
  5
28E
  8
0
  6
CONTINUOUS
 62
     7
 10
-75.00000000000001
 20
250.0
 30
0.0
 40
10.9775
  0
CIRCLE
  5
28F
  8
0
  6
CONTINUOUS
 62
     7
 10
-75.00000000000001
 20
250.0
 30
0.0
 40
10.47313673225081
  0
CIRCLE
  5
290
  8
0
  6
CONTINUOUS
 62
     7
 10
-75.00000000000001
 20
250.0
 30
0.0
 40
13.99999999999998
  0
CIRCLE
  5
291
  8
0
  6
CONTINUOUS
 62
     7
 10
-75.00000000000001
 20
250.0
 30
0.0
 40
6.809754282161462
  0
CIRCLE
  5
292
  8
0
  6
CONTINUOUS
 62
     7
 10
-75.00000000000001
 20
250.0
 30
0.0
 40
17.99999999999999
  0
ARC
  5
293
  8
0
  6
CONTINUOUS
 62
     7
 10
-74.4588384945883
 20
249.3850300466721
 30
0.0
 40
9.875827260324131
 50
176.4298693204032
 51
266.2826228846029
  0
ARC
  5
294
  8
0
  6
CONTINUOUS
 62
     7
 10
-75.00815896248768
 20
250.0693762179508
 30
0.0
 40
9.307599596468368
 50
180.489680653088
 51
180.4270705087454
  0
ENDBLK
  8
0
  0
ENDSEC
  0
SECTION
  2
ENTITIES
  0
LINE
  5
6F
  8
0
  6
CENTER
 62
     1
 10
-195.0616730492974
 20
214.017238225854
 30
0.0
 11
-195.0616730492974
 21
124.517238225854
 31
0.0
  0
TEXT
  5
71
  8
0
  6
CONTINUOUS
 62
     7
 10
-80.28304981558475
 20
112.3456582583662
 30
0.0
 40
3.0
  1
DA-KHS
  0
LINE
  5
72
  8
0
  6
CONTINUOUS
 62
     7
 10
-187.0765174705324
 20
160.167238225854
 30
0.0
 11
-187.0765174705324
 21
161.367238225854
 31
0.0
  0
LINE
  5
73
  8
0
  6
CONTINUOUS
 62
     7
 10
-203.0468286280623
 20
177.967238225854
 30
0.0
 11
-203.0468286280623
 21
181.467238225854
 31
0.0
  0
LINE
  5
74
  8
0
  6
CONTINUOUS
 62
     7
 10
-187.0765174705324
 20
173.967238225854
 30
0.0
 11
-187.0765174705324
 21
177.467238225854
 31
0.0
  0
LINE
  5
75
  8
0
  6
CONTINUOUS
 62
     7
 10
-203.0468286280623
 20
161.967238225854
 30
0.0
 11
-203.0468286280623
 21
165.467238225854
 31
0.0
  0
LINE
  5
76
  8
0
  6
CONTINUOUS
 62
     7
 10
-203.0468286280623
 20
169.967238225854
 30
0.0
 11
-203.0468286280623
 21
173.467238225854
 31
0.0
  0
LINE
  5
77
  8
0
  6
CONTINUOUS
 62
     7
 10
-203.0468286280623
 20
160.167238225854
 30
0.0
 11
-203.0468286280623
 21
161.367238225854
 31
0.0
  0
LINE
  5
78
  8
0
  6
CONTINUOUS
 62
     7
 10
-187.0765174705324
 20
165.967238225854
 30
0.0
 11
-187.0765174705324
 21
169.467238225854
 31
0.0
  0
LINE
  5
79
  8
0
  6
CONTINUOUS
 62
     7
 10
-187.0765174705324
 20
161.967238225854
 30
0.0
 11
-187.0765174705324
 21
165.467238225854
 31
0.0
  0
LINE
  5
7A
  8
0
  6
CONTINUOUS
 62
     7
 10
-203.0468286280623
 20
181.967238225854
 30
0.0
 11
-203.0681949563279
 21
185.2802953664832
 31
0.0
  0
LINE
  5
7B
  8
0
  6
CONTINUOUS
 62
     7
 10
-187.0765174705324
 20
177.967238225854
 30
0.0
 11
-187.0765174705324
 21
181.467238225854
 31
0.0
  0
LINE
  5
7C
  8
0
  6
CONTINUOUS
 62
     7
 10
-187.0765174705324
 20
169.967238225854
 30
0.0
 11
-187.0765174705324
 21
173.467238225854
 31
0.0
  0
LINE
  5
7D
  8
0
  6
CONTINUOUS
 62
     7
 10
-203.0468286280623
 20
165.967238225854
 30
0.0
 11
-203.0681529977184
 21
169.272714337712
 31
0.0
  0
LINE
  5
7E
  8
0
  6
CONTINUOUS
 62
     9
 10
-63.50436326774919
 20
185.8816334111575
 30
0.0
 11
-86.4956367322508
 21
185.8816334111575
 31
0.0
  0
LINE
  5
7F
  8
0
  6
CONTINUOUS
 62
     7
 10
-82.98515557876499
 20
162.335958767392
 30
0.0
 11
-83.00645655776232
 21
165.6367883513419
 31
0.0
  0
LINE
  5
80
  8
0
  6
CONTINUOUS
 62
     7
 10
-88.49999999999999
 20
197.885958767392
 30
0.0
 11
-88.30059512631253
 21
220.7354940724465
 31
0.0
  0
LINE
  5
81
  8
0
  6
CONTINUOUS
 62
     7
 10
-67.01484442123504
 20
170.335958767392
 30
0.0
 11
-66.99350174131202
 21
173.6443585516155
 31
0.0
  0
LINE
  5
82
  8
0
  6
CONTINUOUS
 62
     7
 10
-82.98515557876499
 20
154.335958767392
 30
0.0
 11
-83.00650335742274
 21
157.6460814099569
 31
0.0
  0
LINE
  5
83
  8
0
  6
CONTINUOUS
 62
     7
 10
-57.00000000000002
 20
183.442683408032
 30
0.0
 11
-93.0
 21
183.442683408032
 31
0.0
  0
LINE
  5
84
  8
0
  6
CONTINUOUS
 62
     7
 10
-61.00000000000004
 20
193.885958767392
 30
0.0
 11
-88.99999999999997
 21
193.885958767392
 31
0.0
  0
LINE
  5
85
  8
0
  6
CONTINUOUS
 62
     7
 10
-67.01484442123504
 20
158.335958767392
 30
0.0
 11
-66.99352005157901
 21
161.6414348792503
 31
0.0
  0
LINE
  5
86
  8
0
  6
CONTINUOUS
 62
     7
 10
-82.98515557876499
 20
174.335958767392
 30
0.0
 11
-83.00652190703056
 21
177.6490159080212
 31
0.0
  0
LINE
  5
87
  8
0
  6
CONTINUOUS
 62
     7
 10
-82.98515557876499
 20
170.335958767392
 30
0.0
 11
-83.006498258688
 21
173.6443585516155
 31
0.0
  0
LINE
  5
88
  8
0
  6
CONTINUOUS
 62
     7
 10
-82.99889428314003
 20
153.7359575678982
 30
0.0
 11
-82.99878951397459
 21
152.5359575770454
 31
0.0
  0
LINE
  5
89
  8
0
  6
CONTINUOUS
 62
     7
 10
-67.01484442123504
 20
154.335958767392
 30
0.0
 11
-66.99349664257728
 21
157.646081409957
 31
0.0
  0
LINE
  5
8A
  8
0
  6
CONTINUOUS
 62
     7
 10
-177.0616730492974
 20
157.017238225854
 30
0.0
 11
-213.0616730492974
 21
157.017238225854
 31
0.0
  0
LINE
  5
8B
  8
0
  6
CONTINUOUS
 62
     7
 10
-82.98515557876499
 20
158.335958767392
 30
0.0
 11
-83.00647994842102
 21
161.64143487925
 31
0.0
  0
LINE
  5
8C
  8
0
  6
CONTINUOUS
 62
     7
 10
-184.0616730492974
 20
203.717238225854
 30
0.0
 11
-206.0616730492974
 21
203.717238225854
 31
0.0
  0
LINE
  5
8D
  8
0
  6
CONTINUOUS
 62
     7
 10
-184.0616730492974
 20
211.517238225854
 30
0.0
 11
-206.0616730492974
 21
211.517238225854
 31
0.0
  0
LINE
  5
8E
  8
0
  6
CONTINUOUS
 62
     7
 10
-67.01484442123504
 20
162.335958767392
 30
0.0
 11
-66.9935434422377
 21
165.6367883513419
 31
0.0
  0
LINE
  5
8F
  8
0
  6
CONTINUOUS
 62
     7
 10
-61.6994048736875
 20
220.7354940724465
 30
0.0
 11
-61.50000000000012
 21
197.885958767392
 31
0.0
  0
LINE
  5
90
  8
0
  6
CONTINUOUS
 62
     7
 10
-67.00121048602543
 20
152.5359575770454
 30
0.0
 11
-67.00110571686
 21
153.7359575678982
 31
0.0
  0
LINE
  5
91
  8
0
  6
CONTINUOUS
 62
     7
 10
-184.0616730492974
 20
206.7242197200866
 30
0.0
 11
-206.0616730492974
 21
206.7242197200866
 31
0.0
  0
LINE
  5
92
  8
0
  6
CONTINUOUS
 62
     9
 10
-183.5660363170466
 20
193.5129128696195
 30
0.0
 11
-206.5573097815482
 21
193.5129128696195
 31
0.0
  0
LINE
  5
93
  8
0
  6
CONTINUOUS
 62
     7
 10
-203.0468286280623
 20
173.967238225854
 30
0.0
 11
-203.0681476765266
 21
177.2709806564442
 31
0.0
  0
LINE
  5
94
  8
0
  6
CONTINUOUS
 62
     7
 10
-67.01484442123504
 20
174.335958767392
 30
0.0
 11
-66.99347809296945
 21
177.6490159080212
 31
0.0
  0
LINE
  5
95
  8
0
  6
CONTINUOUS
 62
     7
 10
-56.99999999999999
 20
149.385958767392
 30
0.0
 11
-93.0
 21
149.385958767392
 31
0.0
  0
LINE
  5
96
  8
0
  6
CONTINUOUS
 62
     7
 10
-82.98515557876499
 20
166.335958767392
 30
0.0
 11
-83.00647462722922
 21
169.6397011979821
 31
0.0
  0
LINE
  5
97
  8
0
  6
CONTINUOUS
 62
     7
 10
-187.0765174705324
 20
181.967238225854
 30
0.0
 11
-187.0765174705324
 21
185.467238225854
 31
0.0
  0
LINE
  5
98
  8
0
  6
CONTINUOUS
 62
     7
 10
-177.0616730492974
 20
191.073962866494
 30
0.0
 11
-213.0616730492974
 21
191.073962866494
 31
0.0
  0
LINE
  5
99
  8
0
  6
CONTINUOUS
 62
     7
 10
-67.01484442123504
 20
166.335958767392
 30
0.0
 11
-66.99352537277079
 21
169.6397011979821
 31
0.0
  0
LINE
  5
9A
  8
0
  6
CENTER
 62
     1
 10
-75.0
 20
220.0000000000001
 30
0.0
 11
-75.0
 21
116.885958767392
 31
0.0
  0
LINE
  5
9B
  8
0
  6
CENTER
 62
     1
 10
-195.0616730492974
 20
227.0932423628872
 30
0.0
 11
-195.0616730492974
 21
267.0932423628872
 31
0.0
  0
LINE
  5
9C
  8
0
  6
CENTER
 62
     1
 10
-215.0616730492974
 20
247.0932423628872
 30
0.0
 11
-175.0616730492974
 21
247.0932423628872
 31
0.0
  0
LINE
  5
9D
  8
0
  6
CENTER
 62
     1
 10
-95.0
 20
250.0
 30
0.0
 11
-55.00000000000002
 21
250.0
 31
0.0
  0
LINE
  5
9E
  8
0
  6
CENTER
 62
     1
 10
-75.00000000000001
 20
230.0
 30
0.0
 11
-75.00000000000001
 21
270.0
 31
0.0
  0
INSERT
  5
17D
  8
0
  6
CONTINUOUS
 62
     7
  2
D_FRAME_VIEW_1489
 10
0.0
 20
0.0
 30
0.0
  0
INSERT
  5
185
  8
0
  6
CONTINUOUS
 62
     7
  2
D_FRAME_VIEW_2029
 10
0.0
 20
0.0
 30
0.0
  0
INSERT
  5
28A
  8
0
  6
CONTINUOUS
 62
     7
  2
D_FRAME_VIEW_2048
 10
0.0
 20
0.0
 30
0.0
  0
INSERT
  5
295
  8
0
  6
CONTINUOUS
 62
     7
  2
D_FRAME_VIEW_2455
 10
0.0
 20
0.0
 30
0.0
  0
ENDSEC
  0
EOF
