  0
SECTION
  2
HEADER
  9
$ACADVER
  1
AC1006
  9
$DWGCODEPAGE
  3
ansi_932
  9
$INSBASE
 10
0.0
 20
0.0
 30
0.0
  9
$EXTMIN
 10
40.22094380863859
 20
95.02727272727282
  9
$EXTMAX
 10
159.9293610543917
 20
243.8613452701683
  9
$LIMMIN
 10
0.0
 20
0.0
  9
$LIMMAX
 10
12.0
 20
9.0
  9
$ORTHOMODE
 70
     0
  9
$REGENMODE
 70
     1
  9
$FILLMODE
 70
     1
  9
$QTEXTMODE
 70
     0
  9
$MIRRTEXT
 70
     1
  9
$DRAGMODE
 70
     2
  9
$LTSCALE
 40
1.0
  9
$OSMODE
 70
    37
  9
$ATTMODE
 70
     1
  9
$TEXTSIZE
 40
0.2
  9
$TRACEWID
 40
0.05
  9
$TEXTSTYLE
  7
STANDARD
  9
$CLAYER
  8
0
  9
$CELTYPE
  6
BYLAYER
  9
$CECOLOR
 62
   256
  9
$DIMSCALE
 40
1.0
  9
$DIMASZ
 40
3.0
  9
$DIMEXO
 40
0.0625
  9
$DIMDLI
 40
0.38
  9
$DIMRND
 40
0.0
  9
$DIMDLE
 40
0.0
  9
$DIMEXE
 40
1.5
  9
$DIMTP
 40
0.0
  9
$DIMTM
 40
0.0
  9
$DIMTXT
 40
3.0
  9
$DIMCEN
 40
0.09
  9
$DIMTSZ
 40
0.0
  9
$DIMTOL
 70
     0
  9
$DIMLIM
 70
     0
  9
$DIMTIH
 70
     1
  9
$DIMTOH
 70
     1
  9
$DIMSE1
 70
     0
  9
$DIMSE2
 70
     0
  9
$DIMTAD
 70
     1
  9
$DIMZIN
 70
     0
  9
$DIMBLK
  1

  9
$DIMASO
 70
     1
  9
$DIMSHO
 70
     1
  9
$DIMPOST
  1

  9
$DIMAPOST
  1

  9
$DIMALT
 70
     0
  9
$DIMALTD
 70
     2
  9
$DIMALTF
 40
25.4
  9
$DIMLFAC
 40
1.0
  9
$DIMTOFL
 70
     0
  9
$DIMTVP
 40
0.0
  9
$DIMTIX
 70
     0
  9
$DIMSOXD
 70
     0
  9
$DIMSAH
 70
     0
  9
$DIMBLK1
  1

  9
$DIMBLK2
  1

  9
$LUNITS
 70
     2
  9
$LUPREC
 70
     4
  9
$SKETCHINC
 40
0.1
  9
$FILLETRAD
 40
0.5
  9
$AUNITS
 70
     0
  9
$AUPREC
 70
     0
  9
$MENU
  1
.
  9
$ELEVATION
 40
0.0
  9
$THICKNESS
 40
0.0
  9
$LIMCHECK
 70
     0
  9
$CHAMFERA
 40
0.0
  9
$CHAMFERB
 40
0.0
  9
$SKPOLY
 70
     0
  9
$TDCREATE
 40
2460605.615757454
  9
$TDUPDATE
 40
2460605.615757546
  9
$TDINDWG
 40
0.0000000116
  9
$TDUSRTIMER
 40
0.0000000116
  9
$USRTIMER
 70
     1
  9
$ANGBASE
 50
0.0
  9
$ANGDIR
 70
     0
  9
$PDMODE
 70
     0
  9
$PDSIZE
 40
0.0
  9
$PLINEWID
 40
0.0
  9
$COORDS
 70
     1
  9
$SPLFRAME
 70
     0
  9
$SPLINETYPE
 70
     6
  9
$SPLINESEGS
 70
     8
  9
$ATTDIA
 70
     0
  9
$ATTREQ
 70
     1
  9
$HANDLING
 70
     1
  9
$HANDSEED
  5
213
  9
$SURFTAB1
 70
     6
  9
$SURFTAB2
 70
     6
  9
$SURFTYPE
 70
     6
  9
$SURFU
 70
     6
  9
$SURFV
 70
     6
  9
$UCSNAME
  2

  9
$UCSORG
 10
0.0
 20
0.0
 30
0.0
  9
$UCSXDIR
 10
1.0
 20
0.0
 30
0.0
  9
$UCSYDIR
 10
0.0
 20
1.0
 30
0.0
  9
$USERI1
 70
     0
  9
$USERI2
 70
     0
  9
$USERI3
 70
     0
  9
$USERI4
 70
     0
  9
$USERI5
 70
     0
  9
$USERR1
 40
0.0
  9
$USERR2
 40
0.0
  9
$USERR3
 40
0.0
  9
$USERR4
 40
0.0
  9
$USERR5
 40
0.0
  9
$WORLDVIEW
 70
     1
  0
ENDSEC
  0
SECTION
  2
TABLES
  0
TABLE
  2
VPORT
 70
     1
  0
VPORT
  2
*ACTIVE
 70
     0
 10
0.0
 20
0.0
 11
1.0
 21
1.0
 12
100.0751524315152
 22
169.4443089987206
 13
0.0
 23
0.0
 14
0.5
 24
0.5
 15
0.5
 25
0.5
 16
0.0
 26
0.0
 36
1.0
 17
0.0
 27
0.0
 37
0.0
 40
148.8340725428955
 41
1.6
 42
50.0
 43
0.0
 44
0.0
 50
0.0
 51
0.0
 71
     0
 72
   100
 73
     1
 74
     3
 75
     0
 76
     0
 77
     0
 78
     0
  0
ENDTAB
  0
TABLE
  2
LTYPE
 70
     3
  0
LTYPE
  2
CONTINUOUS
 70
     0
  3
Solid line
 72
    65
 73
     0
 40
0.0
  0
LTYPE
  2
DOT
 70
     0
  3

 72
    65
 73
     0
 40
0.0
  0
LTYPE
  2
CENTER
 70
     0
  3

 72
    65
 73
     0
 40
0.0
  0
ENDTAB
  0
TABLE
  2
LAYER
 70
     3
  0
LAYER
  2
0
 70
     0
 62
     7
  6
CONTINUOUS
  0
LAYER
  2
1
 70
     0
 62
     7
  6
CONTINUOUS
  0
LAYER
  2
2
 70
     0
 62
     7
  6
CONTINUOUS
  0
ENDTAB
  0
TABLE
  2
STYLE
 70
     2
  0
STYLE
  2
STANDARD
 70
     0
 40
0.0
 41
1.0
 50
0.0
 71
     0
 42
0.2
  3
txt
  4

  0
STYLE
  2
ＭＳ_ゴシック
 70
     0
 40
0.0
 41
1.0
 50
0.0
 71
     0
 42
0.2
  3
ＭＳ ゴシック.shx
  4

  0
ENDTAB
  0
TABLE
  2
VIEW
 70
     0
  0
ENDTAB
  0
TABLE
  2
UCS
 70
     0
  0
ENDTAB
  0
ENDSEC
  0
SECTION
  2
BLOCKS
  0
BLOCK
  8
0
  2
D_FRAME_VIEW_1482
 70
     0
 10
0.0
 20
0.0
 30
0.0
  0
POLYLINE
  5
73
  8
1
  6
CONTINUOUS
 62
     7
 66
     1
 10
0.0
 20
0.0
 30
0.0
  0
VERTEX
  5
133
  8
1
  6
CONTINUOUS
 62
     7
 10
46.49999999999999
 20
193.3690213485487
 30
0.0
  0
VERTEX
  5
134
  8
1
  6
CONTINUOUS
 62
     7
 10
46.71136191556445
 20
193.3240790507215
 30
0.0
  0
VERTEX
  5
135
  8
1
  6
CONTINUOUS
 62
     7
 10
47.33732514237582
 20
193.2808638601958
 30
0.0
  0
VERTEX
  5
136
  8
1
  6
CONTINUOUS
 62
     7
 10
48.35383426467198
 20
193.2410365125082
 30
0.0
  0
VERTEX
  5
137
  8
1
  6
CONTINUOUS
 62
     7
 10
49.72182540694795
 20
193.206127550295
 30
0.0
  0
VERTEX
  5
138
  8
1
  6
CONTINUOUS
 62
     7
 10
51.38872743678434
 20
193.1774785053967
 30
0.0
  0
VERTEX
  5
139
  8
1
  6
CONTINUOUS
 62
     7
 10
53.29048224398397
 20
193.1561903445423
 30
0.0
  0
VERTEX
  5
13A
  8
1
  6
CONTINUOUS
 62
     7
 10
55.35400645782254
 20
193.1430811598149
 30
0.0
  0
VERTEX
  5
13B
  8
1
  6
CONTINUOUS
 62
     7
 10
57.49999999999995
 20
193.1386547298318
 30
0.0
  0
VERTEX
  5
13C
  8
1
  6
CONTINUOUS
 62
     7
 10
59.64599354217736
 20
193.1430811598149
 30
0.0
  0
VERTEX
  5
13D
  8
1
  6
CONTINUOUS
 62
     7
 10
61.70951775601593
 20
193.1561903445423
 30
0.0
  0
VERTEX
  5
13E
  8
1
  6
CONTINUOUS
 62
     7
 10
63.61127256321557
 20
193.1774785053967
 30
0.0
  0
VERTEX
  5
13F
  8
1
  6
CONTINUOUS
 62
     7
 10
65.27817459305197
 20
193.206127550295
 30
0.0
  0
VERTEX
  5
140
  8
1
  6
CONTINUOUS
 62
     7
 10
66.64616573532795
 20
193.2410365125082
 30
0.0
  0
VERTEX
  5
141
  8
1
  6
CONTINUOUS
 62
     7
 10
67.66267485762413
 20
193.2808638601958
 30
0.0
  0
VERTEX
  5
142
  8
1
  6
CONTINUOUS
 62
     7
 10
68.28863808443552
 20
193.3240790507215
 30
0.0
  0
VERTEX
  5
143
  8
1
  6
CONTINUOUS
 62
     7
 10
68.49999999999999
 20
193.3690213485487
 30
0.0
  0
SEQEND
  5
206
  8
1
  6
CONTINUOUS
 62
     7
  0
LINE
  5
74
  8
1
  6
CONTINUOUS
 62
     7
 10
67.39663169092381
 20
228.3613452701684
 30
0.0
 11
66.81675012565067
 21
228.3613452701684
 31
0.0
  0
LINE
  5
75
  8
1
  6
CONTINUOUS
 62
     7
 10
57.522549814932
 20
238.8388210041344
 30
0.0
 11
57.66419861612955
 21
238.8275742592522
 31
0.0
  0
LINE
  5
76
  8
1
  6
CONTINUOUS
 62
     7
 10
57.66419861612955
 20
238.8275742592522
 30
0.0
 11
58.78840720912032
 21
238.6708156506508
 31
0.0
  0
ARC
  5
77
  8
1
  6
CONTINUOUS
 62
     7
 10
56.88754877540485
 20
228.3350402615615
 30
0.0
 40
10.50911583715444
 50
0.1434152568497211
 51
79.57914723325177
  0
ARC
  5
78
  8
1
  6
CONTINUOUS
 62
     7
 10
57.57392284589766
 20
227.7266713652885
 30
0.0
 40
9.84319155658826
 50
269.4613024532686
 51
3.696908702395944
  0
ARC
  5
79
  8
1
  6
CONTINUOUS
 62
     7
 10
50.86047190431928
 20
239.8613452701683
 30
0.0
 40
2.000000000000002
 50
90.00000000000001
 51
150.0
  0
LINE
  5
7A
  8
1
  6
CONTINUOUS
 62
     7
 10
50.86047190431928
 20
241.8613452701683
 30
0.0
 11
64.13952809568067
 21
241.8613452701683
 31
0.0
  0
ARC
  5
7B
  8
1
  6
CONTINUOUS
 62
     7
 10
64.13952809568067
 20
239.8613452701683
 30
0.0
 40
2.000000000000008
 50
29.99999999999994
 51
90.0
  0
LINE
  5
7C
  8
1
  6
CONTINUOUS
 62
     7
 10
65.87157890324956
 20
240.8613452701683
 30
0.0
 11
72.51110699893025
 21
229.3613452701684
 31
0.0
  0
ARC
  5
7D
  8
1
  6
CONTINUOUS
 62
     7
 10
70.77905619136138
 20
228.3613452701684
 30
0.0
 40
1.999999999999996
 50
330.0
 51
30.0
  0
LINE
  5
7E
  8
1
  6
CONTINUOUS
 62
     7
 10
72.51110699893025
 20
227.3613452701684
 30
0.0
 11
65.87157890324956
 21
215.8613452701684
 31
0.0
  0
ARC
  5
7F
  8
1
  6
CONTINUOUS
 62
     7
 10
64.13952809568069
 20
216.8613452701684
 30
0.0
 40
2.000000000000002
 50
270.0
 51
330.0
  0
LINE
  5
80
  8
1
  6
CONTINUOUS
 62
     7
 10
64.13952809568069
 20
214.8613452701684
 30
0.0
 11
50.86047190431929
 21
214.8613452701683
 31
0.0
  0
ARC
  5
81
  8
1
  6
CONTINUOUS
 62
     7
 10
50.86047190431929
 20
216.8613452701683
 30
0.0
 40
2.000000000000002
 50
210.0
 51
270.0
  0
LINE
  5
82
  8
1
  6
CONTINUOUS
 62
     7
 10
49.1284210967504
 20
215.8613452701683
 30
0.0
 11
42.48889300106971
 21
227.3613452701684
 31
0.0
  0
ARC
  5
83
  8
1
  6
CONTINUOUS
 62
     7
 10
44.22094380863859
 20
228.3613452701684
 30
0.0
 40
1.999999999999996
 50
150.0000000000001
 51
210.0
  0
LINE
  5
84
  8
1
  6
CONTINUOUS
 62
     7
 10
42.48889300106971
 20
229.3613452701684
 30
0.0
 11
49.1284210967504
 21
240.8613452701683
 31
0.0
  0
ARC
  5
85
  8
1
  6
CONTINUOUS
 62
     7
 10
57.49999999999998
 20
228.3613452701684
 30
0.0
 40
10.4775
 50
89.87668716565555
 51
269.8981661745646
  0
LINE
  5
86
  8
1
  6
CONTINUOUS
 62
     9
 10
48.18325077411657
 20
228.3613452701684
 30
0.0
 11
47.02249999999997
 21
228.3613452701684
 31
0.0
  0
LINE
  5
87
  8
1
  6
CONTINUOUS
 62
     9
 10
57.67929235275999
 20
214.5625100203278
 30
0.0
 11
57.67929235275999
 21
214.8613452701684
 31
0.0
  0
LINE
  5
88
  8
1
  6
CONTINUOUS
 62
     7
 10
49.85307745878971
 20
235.5238519226961
 30
0.0
 11
49.77487990727789
 21
235.4393877212326
 31
0.0
  0
CIRCLE
  5
89
  8
1
  6
CONTINUOUS
 62
     7
 10
57.49999999999998
 20
228.3613452701684
 30
0.0
 40
9.000000000000007
  0
CIRCLE
  5
8A
  8
1
  6
CONTINUOUS
 62
     7
 10
57.49999999999998
 20
228.3613452701684
 30
0.0
 40
6.880194167739551
  0
LINE
  5
8B
  8
1
  6
CONTINUOUS
 62
     7
 10
46.49999999999999
 20
220.413904153426
 30
0.0
 11
46.49999999999999
 21
193.3690213485487
 31
0.0
  0
LINE
  5
8C
  8
1
  6
CONTINUOUS
 62
     7
 10
68.49999999999997
 20
193.3690213485487
 30
0.0
 11
68.49999999999997
 21
220.413904153426
 31
0.0
  0
LINE
  5
8D
  8
1
  6
CONTINUOUS
 62
     7
 10
57.508142861899
 20
238.8398605727328
 30
0.0
 11
57.66571646144292
 21
238.827409607096
 31
0.0
  0
LINE
  5
8E
  8
1
  6
CONTINUOUS
 62
     7
 10
57.66571646144292
 20
238.827409607096
 30
0.0
 11
58.78792724589857
 21
238.6683019816469
 31
0.0
  0
ARC
  5
8F
  8
1
  6
CONTINUOUS
 62
     7
 10
56.99538275818111
 20
228.9913719492488
 30
0.0
 40
9.841554277266106
 50
356.3295867549903
 51
79.50554391773284
  0
ARC
  5
90
  8
1
  6
CONTINUOUS
 62
     7
 10
57.49999999999998
 20
228.3613922030698
 30
0.0
 40
9.316749226001633
 50
180.000288626119
 51
359.9997113738809
  0
ARC
  5
91
  8
1
  6
CONTINUOUS
 62
     7
 10
57.49999999999998
 20
228.3612983372669
 30
0.0
 40
9.316749226001626
 50
0.0002886261191293
 51
179.9997113738809
  0
ARC
  5
92
  8
1
  6
CONTINUOUS
 62
     7
 10
57.49999999999998
 20
228.3613921387228
 30
0.0
 40
9.316749235553502
 50
180.0002882304003
 51
359.9997117695995
  0
ENDBLK
  8
0
  0
BLOCK
  8
0
  2
D_FRAME_VIEW_1636
 70
     0
 10
0.0
 20
0.0
 30
0.0
  0
POLYLINE
  5
A0
  8
1
  6
CONTINUOUS
 62
     7
 66
     1
 10
0.0
 20
0.0
 30
0.0
  0
VERTEX
  5
144
  8
1
  6
CONTINUOUS
 62
     7
 10
46.49999999999999
 20
119.8376542496909
 30
0.0
  0
VERTEX
  5
145
  8
1
  6
CONTINUOUS
 62
     7
 10
46.71136191556445
 20
117.6921313593601
 30
0.0
  0
VERTEX
  5
146
  8
1
  6
CONTINUOUS
 62
     7
 10
47.33732514237582
 20
115.6290597104817
 30
0.0
  0
VERTEX
  5
147
  8
1
  6
CONTINUOUS
 62
     7
 10
48.35383426467197
 20
113.7277219895381
 30
0.0
  0
VERTEX
  5
148
  8
1
  6
CONTINUOUS
 62
     7
 10
49.72182540694794
 20
112.0611855388626
 30
0.0
  0
VERTEX
  5
149
  8
1
  6
CONTINUOUS
 62
     7
 10
51.38872743678432
 20
110.6934944196504
 30
0.0
  0
VERTEX
  5
14A
  8
1
  6
CONTINUOUS
 62
     7
 10
53.29048224398395
 20
109.6772082346028
 30
0.0
  0
VERTEX
  5
14B
  8
1
  6
CONTINUOUS
 62
     7
 10
55.35400645782252
 20
109.0513822918712
 30
0.0
  0
VERTEX
  5
14C
  8
1
  6
CONTINUOUS
 62
     7
 10
57.49999999999992
 20
108.8400667314676
 30
0.0
  0
SEQEND
  5
207
  8
1
  6
CONTINUOUS
 62
     7
  0
POLYLINE
  5
A1
  8
1
  6
CONTINUOUS
 62
     7
 66
     1
 10
0.0
 20
0.0
 30
0.0
 70
     1
  0
VERTEX
  5
14D
  8
1
  6
CONTINUOUS
 62
     7
 10
47.34999999999999
 20
119.8376542496909
 30
0.0
  0
VERTEX
  5
14E
  8
1
  6
CONTINUOUS
 62
     7
 10
47.5450294039072
 20
117.857921764522
 30
0.0
  0
VERTEX
  5
14F
  8
1
  6
CONTINUOUS
 62
     7
 10
48.12262274501042
 20
115.9542692885115
 30
0.0
  0
VERTEX
  5
150
  8
1
  6
CONTINUOUS
 62
     7
 10
49.06058343512915
 20
114.1998531187317
 30
0.0
  0
VERTEX
  5
151
  8
1
  6
CONTINUOUS
 62
     7
 10
50.32286617095653
 20
112.6620944846994
 30
0.0
  0
VERTEX
  5
152
  8
1
  6
CONTINUOUS
 62
     7
 10
51.86096213485102
 20
111.4000885883354
 30
0.0
  0
VERTEX
  5
153
  8
1
  6
CONTINUOUS
 62
     7
 10
53.61576316149432
 20
110.4623336084959
 30
0.0
  0
VERTEX
  5
154
  8
1
  6
CONTINUOUS
 62
     7
 10
55.51983323153628
 20
109.8848669431572
 30
0.0
  0
VERTEX
  5
155
  8
1
  6
CONTINUOUS
 62
     7
 10
57.49999999999999
 20
109.6898803124212
 30
0.0
  0
VERTEX
  5
156
  8
1
  6
CONTINUOUS
 62
     7
 10
59.48016676846369
 20
109.8848669431572
 30
0.0
  0
VERTEX
  5
157
  8
1
  6
CONTINUOUS
 62
     7
 10
61.38423683850564
 20
110.4623336084959
 30
0.0
  0
VERTEX
  5
158
  8
1
  6
CONTINUOUS
 62
     7
 10
63.13903786514894
 20
111.4000885883354
 30
0.0
  0
VERTEX
  5
159
  8
1
  6
CONTINUOUS
 62
     7
 10
64.67713382904344
 20
112.6620944846994
 30
0.0
  0
VERTEX
  5
15A
  8
1
  6
CONTINUOUS
 62
     7
 10
65.93941656487083
 20
114.1998531187317
 30
0.0
  0
VERTEX
  5
15B
  8
1
  6
CONTINUOUS
 62
     7
 10
66.87737725498954
 20
115.9542692885115
 30
0.0
  0
VERTEX
  5
15C
  8
1
  6
CONTINUOUS
 62
     7
 10
67.45497059609278
 20
117.857921764522
 30
0.0
  0
VERTEX
  5
15D
  8
1
  6
CONTINUOUS
 62
     7
 10
67.64999999999998
 20
119.8376542496909
 30
0.0
  0
VERTEX
  5
15E
  8
1
  6
CONTINUOUS
 62
     7
 10
67.45497059609278
 20
121.8173867348597
 30
0.0
  0
VERTEX
  5
15F
  8
1
  6
CONTINUOUS
 62
     7
 10
66.87737725498954
 20
123.7210392108702
 30
0.0
  0
VERTEX
  5
160
  8
1
  6
CONTINUOUS
 62
     7
 10
65.93941656487081
 20
125.47545538065
 30
0.0
  0
VERTEX
  5
161
  8
1
  6
CONTINUOUS
 62
     7
 10
64.67713382904343
 20
127.0132140146824
 30
0.0
  0
VERTEX
  5
162
  8
1
  6
CONTINUOUS
 62
     7
 10
63.13903786514894
 20
128.2752199110463
 30
0.0
  0
VERTEX
  5
163
  8
1
  6
CONTINUOUS
 62
     7
 10
61.38423683850563
 20
129.2129748908858
 30
0.0
  0
VERTEX
  5
164
  8
1
  6
CONTINUOUS
 62
     7
 10
59.48016676846367
 20
129.7904415562245
 30
0.0
  0
VERTEX
  5
165
  8
1
  6
CONTINUOUS
 62
     7
 10
57.49999999999996
 20
129.9854281869605
 30
0.0
  0
VERTEX
  5
166
  8
1
  6
CONTINUOUS
 62
     7
 10
55.51983323153626
 20
129.7904415562245
 30
0.0
  0
VERTEX
  5
167
  8
1
  6
CONTINUOUS
 62
     7
 10
53.6157631614943
 20
129.2129748908858
 30
0.0
  0
VERTEX
  5
168
  8
1
  6
CONTINUOUS
 62
     7
 10
51.860962134851
 20
128.2752199110463
 30
0.0
  0
VERTEX
  5
169
  8
1
  6
CONTINUOUS
 62
     7
 10
50.3228661709565
 20
127.0132140146823
 30
0.0
  0
VERTEX
  5
16A
  8
1
  6
CONTINUOUS
 62
     7
 10
49.06058343512913
 20
125.47545538065
 30
0.0
  0
VERTEX
  5
16B
  8
1
  6
CONTINUOUS
 62
     7
 10
48.12262274501041
 20
123.7210392108702
 30
0.0
  0
VERTEX
  5
16C
  8
1
  6
CONTINUOUS
 62
     7
 10
47.54502940390719
 20
121.8173867348596
 30
0.0
  0
SEQEND
  5
208
  8
1
  6
CONTINUOUS
 62
     7
  0
POLYLINE
  5
A2
  8
1
  6
CONTINUOUS
 62
     7
 66
     1
 10
0.0
 20
0.0
 30
0.0
  0
VERTEX
  5
16D
  8
1
  6
CONTINUOUS
 62
     7
 10
57.50000000000054
 20
108.8400667314676
 30
0.0
  0
VERTEX
  5
16E
  8
1
  6
CONTINUOUS
 62
     7
 10
59.64599354217795
 20
109.0513822918712
 30
0.0
  0
VERTEX
  5
16F
  8
1
  6
CONTINUOUS
 62
     7
 10
61.7095177560165
 20
109.677208234603
 30
0.0
  0
VERTEX
  5
170
  8
1
  6
CONTINUOUS
 62
     7
 10
63.61127256321609
 20
110.6934944196507
 30
0.0
  0
VERTEX
  5
171
  8
1
  6
CONTINUOUS
 62
     7
 10
65.27817459305243
 20
112.061185538863
 30
0.0
  0
VERTEX
  5
172
  8
1
  6
CONTINUOUS
 62
     7
 10
66.64616573532831
 20
113.7277219895386
 30
0.0
  0
VERTEX
  5
173
  8
1
  6
CONTINUOUS
 62
     7
 10
67.66267485762437
 20
115.6290597104823
 30
0.0
  0
VERTEX
  5
174
  8
1
  6
CONTINUOUS
 62
     7
 10
68.28863808443565
 20
117.6921313593607
 30
0.0
  0
VERTEX
  5
175
  8
1
  6
CONTINUOUS
 62
     7
 10
68.49999999999999
 20
119.8376542496915
 30
0.0
  0
SEQEND
  5
209
  8
1
  6
CONTINUOUS
 62
     7
  0
POLYLINE
  5
A3
  8
1
  6
CONTINUOUS
 62
     7
 66
     1
 10
0.0
 20
0.0
 30
0.0
  0
VERTEX
  5
176
  8
1
  6
CONTINUOUS
 62
     7
 10
68.49999999999999
 20
119.8376542496908
 30
0.0
  0
VERTEX
  5
177
  8
1
  6
CONTINUOUS
 62
     7
 10
68.28863808443553
 20
121.9831771400215
 30
0.0
  0
VERTEX
  5
178
  8
1
  6
CONTINUOUS
 62
     7
 10
67.66267485762415
 20
124.0462487889
 30
0.0
  0
VERTEX
  5
179
  8
1
  6
CONTINUOUS
 62
     7
 10
66.64616573532801
 20
125.9475865098436
 30
0.0
  0
VERTEX
  5
17A
  8
1
  6
CONTINUOUS
 62
     7
 10
65.27817459305204
 20
127.6141229605191
 30
0.0
  0
VERTEX
  5
17B
  8
1
  6
CONTINUOUS
 62
     7
 10
63.61127256321564
 20
128.9818140797313
 30
0.0
  0
VERTEX
  5
17C
  8
1
  6
CONTINUOUS
 62
     7
 10
61.70951775601601
 20
129.9981002647789
 30
0.0
  0
VERTEX
  5
17D
  8
1
  6
CONTINUOUS
 62
     7
 10
59.64599354217743
 20
130.6239262075106
 30
0.0
  0
VERTEX
  5
17E
  8
1
  6
CONTINUOUS
 62
     7
 10
57.50000000000001
 20
130.8352417679142
 30
0.0
  0
VERTEX
  5
17F
  8
1
  6
CONTINUOUS
 62
     7
 10
55.35400645782261
 20
130.6239262075106
 30
0.0
  0
VERTEX
  5
180
  8
1
  6
CONTINUOUS
 62
     7
 10
53.29048224398402
 20
129.998100264779
 30
0.0
  0
VERTEX
  5
181
  8
1
  6
CONTINUOUS
 62
     7
 10
51.38872743678438
 20
128.9818140797313
 30
0.0
  0
VERTEX
  5
182
  8
1
  6
CONTINUOUS
 62
     7
 10
49.72182540694798
 20
127.6141229605191
 30
0.0
  0
VERTEX
  5
183
  8
1
  6
CONTINUOUS
 62
     7
 10
48.353834264672
 20
125.9475865098437
 30
0.0
  0
VERTEX
  5
184
  8
1
  6
CONTINUOUS
 62
     7
 10
47.33732514237583
 20
124.0462487889
 30
0.0
  0
VERTEX
  5
185
  8
1
  6
CONTINUOUS
 62
     7
 10
46.71136191556445
 20
121.9831771400216
 30
0.0
  0
VERTEX
  5
186
  8
1
  6
CONTINUOUS
 62
     7
 10
46.49999999999999
 20
119.8376542496909
 30
0.0
  0
SEQEND
  5
20A
  8
1
  6
CONTINUOUS
 62
     7
  0
POLYLINE
  5
A4
  8
1
  6
CONTINUOUS
 62
     7
 66
     1
 10
0.0
 20
0.0
 30
0.0
  0
VERTEX
  5
187
  8
1
  6
CONTINUOUS
 62
     7
 10
68.49999999999997
 20
120.5706389456083
 30
0.0
  0
VERTEX
  5
188
  8
1
  6
CONTINUOUS
 62
     7
 10
68.28863808443552
 20
122.6721510862987
 30
0.0
  0
VERTEX
  5
189
  8
1
  6
CONTINUOUS
 62
     7
 10
67.66267485762414
 20
124.692903293964
 30
0.0
  0
VERTEX
  5
18A
  8
1
  6
CONTINUOUS
 62
     7
 10
66.646165735328
 20
126.5552391945145
 30
0.0
  0
VERTEX
  5
18B
  8
1
  6
CONTINUOUS
 62
     7
 10
65.27817459305201
 20
128.1875902637019
 30
0.0
  0
VERTEX
  5
18C
  8
1
  6
CONTINUOUS
 62
     7
 10
63.61127256321563
 20
129.5272261653706
 30
0.0
  0
VERTEX
  5
18D
  8
1
  6
CONTINUOUS
 62
     7
 10
61.70951775601599
 20
130.5226654430957
 30
0.0
  0
VERTEX
  5
18E
  8
1
  6
CONTINUOUS
 62
     7
 10
59.64599354217741
 20
131.1356539236832
 30
0.0
  0
VERTEX
  5
18F
  8
1
  6
CONTINUOUS
 62
     7
 10
57.5
 20
131.3426348035919
 30
0.0
  0
VERTEX
  5
190
  8
1
  6
CONTINUOUS
 62
     7
 10
55.35400645782259
 20
131.1356539236832
 30
0.0
  0
VERTEX
  5
191
  8
1
  6
CONTINUOUS
 62
     7
 10
53.29048224398401
 20
130.5226654430958
 30
0.0
  0
VERTEX
  5
192
  8
1
  6
CONTINUOUS
 62
     7
 10
51.38872743678436
 20
129.5272261653706
 30
0.0
  0
VERTEX
  5
193
  8
1
  6
CONTINUOUS
 62
     7
 10
49.72182540694796
 20
128.187590263702
 30
0.0
  0
VERTEX
  5
194
  8
1
  6
CONTINUOUS
 62
     7
 10
48.35383426467199
 20
126.5552391945145
 30
0.0
  0
VERTEX
  5
195
  8
1
  6
CONTINUOUS
 62
     7
 10
47.33732514237583
 20
124.6929032939641
 30
0.0
  0
VERTEX
  5
196
  8
1
  6
CONTINUOUS
 62
     7
 10
46.71136191556445
 20
122.6721510862988
 30
0.0
  0
VERTEX
  5
197
  8
1
  6
CONTINUOUS
 62
     7
 10
46.49999999999998
 20
120.5706389456083
 30
0.0
  0
SEQEND
  5
20B
  8
1
  6
CONTINUOUS
 62
     7
  0
POLYLINE
  5
A5
  8
1
  6
CONTINUOUS
 62
     7
 66
     1
 10
0.0
 20
0.0
 30
0.0
  0
VERTEX
  5
198
  8
1
  6
CONTINUOUS
 62
     7
 10
57.50000000000004
 20
128.9950533662968
 30
0.0
  0
VERTEX
  5
199
  8
1
  6
CONTINUOUS
 62
     7
 10
55.70699775533177
 20
128.8174690542391
 30
0.0
  0
VERTEX
  5
19A
  8
1
  6
CONTINUOUS
 62
     7
 10
53.98369627806747
 20
128.2916194908121
 30
0.0
  0
VERTEX
  5
19B
  8
1
  6
CONTINUOUS
 62
     7
 10
52.39708680360069
 20
127.4379464340886
 30
0.0
  0
VERTEX
  5
19C
  8
1
  6
CONTINUOUS
 62
     7
 10
51.0088468330442
 20
126.2896353791471
 30
0.0
  0
VERTEX
  5
19D
  8
1
  6
CONTINUOUS
 62
     7
 10
49.87294249587521
 20
124.8913255125729
 30
0.0
  0
SEQEND
  5
20C
  8
1
  6
CONTINUOUS
 62
     7
  0
POLYLINE
  5
A6
  8
1
  6
CONTINUOUS
 62
     7
 66
     1
 10
0.0
 20
0.0
 30
0.0
  0
VERTEX
  5
19E
  8
1
  6
CONTINUOUS
 62
     7
 10
57.4999999999999
 20
111.5340981179057
 30
0.0
  0
VERTEX
  5
19F
  8
1
  6
CONTINUOUS
 62
     7
 10
59.20273204158176
 20
111.699408517034
 30
0.0
  0
VERTEX
  5
1A0
  8
1
  6
CONTINUOUS
 62
     7
 10
60.84183898485644
 20
112.1891626471298
 30
0.0
  0
VERTEX
  5
1A1
  8
1
  6
CONTINUOUS
 62
     7
 10
62.35607317731312
 20
112.9850601215717
 30
0.0
  0
VERTEX
  5
1A2
  8
1
  6
CONTINUOUS
 62
     7
 10
63.68885302125916
 20
114.0573610553884
 30
0.0
  0
VERTEX
  5
1A3
  8
1
  6
CONTINUOUS
 62
     7
 10
64.7903772288101
 20
115.3659973399974
 30
0.0
  0
VERTEX
  5
1A4
  8
1
  6
CONTINUOUS
 62
     7
 10
65.61948572058665
 20
116.8620698472778
 30
0.0
  0
VERTEX
  5
1A5
  8
1
  6
CONTINUOUS
 62
     7
 10
66.14519763288958
 20
118.4896756177353
 30
0.0
  0
VERTEX
  5
1A6
  8
1
  6
CONTINUOUS
 62
     7
 10
66.3478689634421
 20
120.187996757173
 30
0.0
  0
VERTEX
  5
1A7
  8
1
  6
CONTINUOUS
 62
     7
 10
66.21992659855661
 20
121.8935729871587
 30
0.0
  0
VERTEX
  5
1A8
  8
1
  6
CONTINUOUS
 62
     7
 10
65.76615129371588
 20
123.5426729320838
 30
0.0
  0
VERTEX
  5
1A9
  8
1
  6
CONTINUOUS
 62
     7
 10
65.0034990335815
 20
125.0736755361672
 30
0.0
  0
SEQEND
  5
20D
  8
1
  6
CONTINUOUS
 62
     7
  0
POLYLINE
  5
A7
  8
1
  6
CONTINUOUS
 62
     7
 66
     1
 10
0.0
 20
0.0
 30
0.0
  0
VERTEX
  5
1AA
  8
1
  6
CONTINUOUS
 62
     7
 10
65.12705750412462
 20
124.8913255125731
 30
0.0
  0
VERTEX
  5
1AB
  8
1
  6
CONTINUOUS
 62
     7
 10
63.99115316695561
 20
126.2896353791472
 30
0.0
  0
VERTEX
  5
1AC
  8
1
  6
CONTINUOUS
 62
     7
 10
62.60291319639912
 20
127.4379464340887
 30
0.0
  0
VERTEX
  5
1AD
  8
1
  6
CONTINUOUS
 62
     7
 10
61.01630372193234
 20
128.2916194908121
 30
0.0
  0
VERTEX
  5
1AE
  8
1
  6
CONTINUOUS
 62
     7
 10
59.29300224466805
 20
128.8174690542392
 30
0.0
  0
VERTEX
  5
1AF
  8
1
  6
CONTINUOUS
 62
     7
 10
57.49999999999979
 20
128.9950533662968
 30
0.0
  0
SEQEND
  5
20E
  8
1
  6
CONTINUOUS
 62
     7
  0
POLYLINE
  5
A8
  8
1
  6
CONTINUOUS
 62
     7
 66
     1
 10
0.0
 20
0.0
 30
0.0
  0
VERTEX
  5
1B0
  8
1
  6
CONTINUOUS
 62
     7
 10
49.87294249587519
 20
124.8913255125729
 30
0.0
  0
VERTEX
  5
1B1
  8
1
  6
CONTINUOUS
 62
     7
 10
49.03922336909693
 20
123.3113508758425
 30
0.0
  0
VERTEX
  5
1B2
  8
1
  6
CONTINUOUS
 62
     7
 10
48.52894538439184
 20
121.5993832480009
 30
0.0
  0
VERTEX
  5
1B3
  8
1
  6
CONTINUOUS
 62
     7
 10
48.36161560374109
 20
119.8208682481559
 30
0.0
  0
VERTEX
  5
1B4
  8
1
  6
CONTINUOUS
 62
     7
 10
48.54363076088644
 20
118.0437954885899
 30
0.0
  0
VERTEX
  5
1B5
  8
1
  6
CONTINUOUS
 62
     7
 10
49.0680327250475
 20
116.3360994471855
 30
0.0
  0
VERTEX
  5
1B6
  8
1
  6
CONTINUOUS
 62
     7
 10
49.91477449846117
 20
114.763062447545
 30
0.0
  0
VERTEX
  5
1B7
  8
1
  6
CONTINUOUS
 62
     7
 10
51.05148657910873
 20
113.3848190264708
 30
0.0
  0
VERTEX
  5
1B8
  8
1
  6
CONTINUOUS
 62
     7
 10
52.43471439188295
 20
112.2540570926045
 30
0.0
  0
VERTEX
  5
1B9
  8
1
  6
CONTINUOUS
 62
     7
 10
54.01157948330039
 20
111.4140037570327
 30
0.0
  0
VERTEX
  5
1BA
  8
1
  6
CONTINUOUS
 62
     7
 10
55.72180097510212
 20
110.8967728341383
 30
0.0
  0
VERTEX
  5
1BB
  8
1
  6
CONTINUOUS
 62
     7
 10
57.50000000000001
 20
110.722137184938
 30
0.0
  0
VERTEX
  5
1BC
  8
1
  6
CONTINUOUS
 62
     7
 10
59.27819902489789
 20
110.8967728341383
 30
0.0
  0
VERTEX
  5
1BD
  8
1
  6
CONTINUOUS
 62
     7
 10
60.98842051669963
 20
111.4140037570327
 30
0.0
  0
VERTEX
  5
1BE
  8
1
  6
CONTINUOUS
 62
     7
 10
62.56528560811707
 20
112.2540570926045
 30
0.0
  0
VERTEX
  5
1BF
  8
1
  6
CONTINUOUS
 62
     7
 10
63.94851342089128
 20
113.3848190264708
 30
0.0
  0
VERTEX
  5
1C0
  8
1
  6
CONTINUOUS
 62
     7
 10
65.08522550153883
 20
114.7630624475451
 30
0.0
  0
VERTEX
  5
1C1
  8
1
  6
CONTINUOUS
 62
     7
 10
65.93196727495248
 20
116.3360994471855
 30
0.0
  0
VERTEX
  5
1C2
  8
1
  6
CONTINUOUS
 62
     7
 10
66.45636923911354
 20
118.0437954885899
 30
0.0
  0
VERTEX
  5
1C3
  8
1
  6
CONTINUOUS
 62
     7
 10
66.63838439625889
 20
119.8208682481559
 30
0.0
  0
VERTEX
  5
1C4
  8
1
  6
CONTINUOUS
 62
     7
 10
66.47105461560813
 20
121.5993832480009
 30
0.0
  0
VERTEX
  5
1C5
  8
1
  6
CONTINUOUS
 62
     7
 10
65.96077663090303
 20
123.3113508758425
 30
0.0
  0
VERTEX
  5
1C6
  8
1
  6
CONTINUOUS
 62
     7
 10
65.12705750412476
 20
124.8913255125729
 30
0.0
  0
SEQEND
  5
20F
  8
1
  6
CONTINUOUS
 62
     7
  0
POLYLINE
  5
A9
  8
1
  6
CONTINUOUS
 62
     7
 66
     1
 10
0.0
 20
0.0
 30
0.0
  0
VERTEX
  5
1C7
  8
1
  6
CONTINUOUS
 62
     7
 10
49.99650096641847
 20
125.0736755361673
 30
0.0
  0
VERTEX
  5
1C8
  8
1
  6
CONTINUOUS
 62
     7
 10
49.2338487062841
 20
123.5426729320838
 30
0.0
  0
VERTEX
  5
1C9
  8
1
  6
CONTINUOUS
 62
     7
 10
48.78007340144336
 20
121.8935729871588
 30
0.0
  0
VERTEX
  5
1CA
  8
1
  6
CONTINUOUS
 62
     7
 10
48.65213103655786
 20
120.187996757173
 30
0.0
  0
VERTEX
  5
1CB
  8
1
  6
CONTINUOUS
 62
     7
 10
48.85480236711037
 20
118.4896756177354
 30
0.0
  0
VERTEX
  5
1CC
  8
1
  6
CONTINUOUS
 62
     7
 10
49.38051427941328
 20
116.8620698472779
 30
0.0
  0
VERTEX
  5
1CD
  8
1
  6
CONTINUOUS
 62
     7
 10
50.20962277118981
 20
115.3659973399974
 30
0.0
  0
VERTEX
  5
1CE
  8
1
  6
CONTINUOUS
 62
     7
 10
51.31114697874074
 20
114.0573610553885
 30
0.0
  0
VERTEX
  5
1CF
  8
1
  6
CONTINUOUS
 62
     7
 10
52.64392682268677
 20
112.9850601215718
 30
0.0
  0
VERTEX
  5
1D0
  8
1
  6
CONTINUOUS
 62
     7
 10
54.15816101514343
 20
112.1891626471298
 30
0.0
  0
VERTEX
  5
1D1
  8
1
  6
CONTINUOUS
 62
     7
 10
55.7972679584181
 20
111.699408517034
 30
0.0
  0
VERTEX
  5
1D2
  8
1
  6
CONTINUOUS
 62
     7
 10
57.49999999999994
 20
111.5340981179057
 30
0.0
  0
SEQEND
  5
210
  8
1
  6
CONTINUOUS
 62
     7
  0
LINE
  5
AA
  8
1
  6
CONTINUOUS
 62
     7
 10
70.99999999999997
 20
144.9706389456084
 30
0.0
 11
70.63925416452545
 21
144.9706389456084
 31
0.0
  0
LINE
  5
AB
  8
1
  6
CONTINUOUS
 62
     7
 10
70.99999999999997
 20
150.2706389456083
 30
0.0
 11
57.49999999999998
 21
150.2706389456083
 31
0.0
  0
LINE
  5
AC
  8
1
  6
CONTINUOUS
 62
     7
 10
43.99999999999999
 20
141.5706389456084
 30
0.0
 11
44.36074583547451
 21
141.5706389456084
 31
0.0
  0
LINE
  5
AD
  8
1
  6
CONTINUOUS
 62
     7
 10
43.99999999999999
 20
140.8706389456083
 30
0.0
 11
70.99999999999997
 21
140.8706389456083
 31
0.0
  0
LINE
  5
AE
  8
1
  6
CONTINUOUS
 62
     7
 10
70.63925416452545
 20
144.9706389456084
 30
0.0
 11
70.63925416452544
 21
141.5706389456084
 31
0.0
  0
LINE
  5
AF
  8
1
  6
CONTINUOUS
 62
     7
 10
70.63925416452545
 20
141.5706389456084
 30
0.0
 11
70.99999999999997
 21
141.5706389456084
 31
0.0
  0
LINE
  5
B0
  8
1
  6
CONTINUOUS
 62
     7
 10
57.49999999999998
 20
150.2706389456083
 30
0.0
 11
43.99999999999999
 21
150.2706389456083
 31
0.0
  0
LINE
  5
B1
  8
1
  6
CONTINUOUS
 62
     7
 10
44.36074583547452
 20
141.5706389456084
 30
0.0
 11
44.3607458354745
 21
144.9706389456084
 31
0.0
  0
LINE
  5
B2
  8
1
  6
CONTINUOUS
 62
     7
 10
44.36074583547451
 20
144.9706389456084
 30
0.0
 11
43.99999999999999
 21
144.9706389456084
 31
0.0
  0
LINE
  5
B3
  8
1
  6
CONTINUOUS
 62
     7
 10
69.69999999999999
 20
139.5706389456083
 30
0.0
 11
57.49999999999998
 21
139.5706389456083
 31
0.0
  0
LINE
  5
B4
  8
1
  6
CONTINUOUS
 62
     7
 10
57.49999999999998
 20
139.5706389456083
 30
0.0
 11
45.29999999999998
 21
139.5706389456083
 31
0.0
  0
LINE
  5
B5
  8
1
  6
CONTINUOUS
 62
     7
 10
45.29999999999999
 20
133.7706389456083
 30
0.0
 11
69.69999999999997
 21
133.7706389456083
 31
0.0
  0
LINE
  5
B6
  8
1
  6
CONTINUOUS
 62
     7
 10
68.49999999999997
 20
132.5706389456083
 30
0.0
 11
57.49999999999998
 21
132.5706389456083
 31
0.0
  0
LINE
  5
B7
  8
1
  6
CONTINUOUS
 62
     7
 10
57.49999999999998
 20
132.5706389456083
 30
0.0
 11
46.49999999999999
 21
132.5706389456083
 31
0.0
  0
POLYLINE
  5
B8
  8
1
  6
CONTINUOUS
 62
     7
 66
     1
 10
0.0
 20
0.0
 30
0.0
 70
     1
  0
VERTEX
  5
1D3
  8
1
  6
CONTINUOUS
 62
     7
 10
50.18571307457425
 20
120.3821571666581
 30
0.0
  0
VERTEX
  5
1D4
  8
1
  6
CONTINUOUS
 62
     7
 10
50.32625504689662
 20
118.9555235280265
 30
0.0
  0
VERTEX
  5
1D5
  8
1
  6
CONTINUOUS
 62
     7
 10
50.74248001468423
 20
117.5837146200621
 30
0.0
  0
VERTEX
  5
1D6
  8
1
  6
CONTINUOUS
 62
     7
 10
51.41839268584667
 20
116.3194482897788
 30
0.0
  0
VERTEX
  5
1D7
  8
1
  6
CONTINUOUS
 62
     7
 10
52.32801811548734
 20
115.2113095832405
 30
0.0
  0
VERTEX
  5
1D8
  8
1
  6
CONTINUOUS
 62
     7
 10
53.43639990846897
 20
114.3018836494883
 30
0.0
  0
VERTEX
  5
1D9
  8
1
  6
CONTINUOUS
 62
     7
 10
54.70094357407496
 20
113.6261192171442
 30
0.0
  0
VERTEX
  5
1DA
  8
1
  6
CONTINUOUS
 62
     7
 10
56.07305340840031
 20
113.2099855343702
 30
0.0
  0
VERTEX
  5
1DB
  8
1
  6
CONTINUOUS
 62
     7
 10
57.49999999999998
 20
113.0694743852249
 30
0.0
  0
VERTEX
  5
1DC
  8
1
  6
CONTINUOUS
 62
     7
 10
58.92694659159964
 20
113.2099855343702
 30
0.0
  0
VERTEX
  5
1DD
  8
1
  6
CONTINUOUS
 62
     7
 10
60.299056425925
 20
113.6261192171442
 30
0.0
  0
VERTEX
  5
1DE
  8
1
  6
CONTINUOUS
 62
     7
 10
61.56360009153098
 20
114.3018836494883
 30
0.0
  0
VERTEX
  5
1DF
  8
1
  6
CONTINUOUS
 62
     7
 10
62.67198188451262
 20
115.2113095832405
 30
0.0
  0
VERTEX
  5
1E0
  8
1
  6
CONTINUOUS
 62
     7
 10
63.58160731415329
 20
116.3194482897788
 30
0.0
  0
VERTEX
  5
1E1
  8
1
  6
CONTINUOUS
 62
     7
 10
64.25751998531572
 20
117.5837146200622
 30
0.0
  0
VERTEX
  5
1E2
  8
1
  6
CONTINUOUS
 62
     7
 10
64.67374495310334
 20
118.9555235280265
 30
0.0
  0
VERTEX
  5
1E3
  8
1
  6
CONTINUOUS
 62
     7
 10
64.8142869254257
 20
120.3821571666581
 30
0.0
  0
VERTEX
  5
1E4
  8
1
  6
CONTINUOUS
 62
     7
 10
64.67374495310334
 20
121.8087908052897
 30
0.0
  0
VERTEX
  5
1E5
  8
1
  6
CONTINUOUS
 62
     7
 10
64.25751998531572
 20
123.1805997132541
 30
0.0
  0
VERTEX
  5
1E6
  8
1
  6
CONTINUOUS
 62
     7
 10
63.58160731415328
 20
124.4448660435374
 30
0.0
  0
VERTEX
  5
1E7
  8
1
  6
CONTINUOUS
 62
     7
 10
62.67198188451261
 20
125.5530047500757
 30
0.0
  0
VERTEX
  5
1E8
  8
1
  6
CONTINUOUS
 62
     7
 10
61.56360009153097
 20
126.4624306838279
 30
0.0
  0
VERTEX
  5
1E9
  8
1
  6
CONTINUOUS
 62
     7
 10
60.29905642592498
 20
127.138195116172
 30
0.0
  0
VERTEX
  5
1EA
  8
1
  6
CONTINUOUS
 62
     7
 10
58.92694659159962
 20
127.554328798946
 30
0.0
  0
VERTEX
  5
1EB
  8
1
  6
CONTINUOUS
 62
     7
 10
57.49999999999996
 20
127.6948399480914
 30
0.0
  0
VERTEX
  5
1EC
  8
1
  6
CONTINUOUS
 62
     7
 10
56.0730534084003
 20
127.554328798946
 30
0.0
  0
VERTEX
  5
1ED
  8
1
  6
CONTINUOUS
 62
     7
 10
54.70094357407494
 20
127.138195116172
 30
0.0
  0
VERTEX
  5
1EE
  8
1
  6
CONTINUOUS
 62
     7
 10
53.43639990846896
 20
126.4624306838279
 30
0.0
  0
VERTEX
  5
1EF
  8
1
  6
CONTINUOUS
 62
     7
 10
52.32801811548732
 20
125.5530047500757
 30
0.0
  0
VERTEX
  5
1F0
  8
1
  6
CONTINUOUS
 62
     7
 10
51.41839268584665
 20
124.4448660435374
 30
0.0
  0
VERTEX
  5
1F1
  8
1
  6
CONTINUOUS
 62
     7
 10
50.74248001468423
 20
123.1805997132541
 30
0.0
  0
VERTEX
  5
1F2
  8
1
  6
CONTINUOUS
 62
     7
 10
50.32625504689661
 20
121.8087908052897
 30
0.0
  0
SEQEND
  5
211
  8
1
  6
CONTINUOUS
 62
     7
  0
ARC
  5
B9
  8
1
  6
CONTINUOUS
 62
     7
 10
57.49999999999998
 20
120.6650397156458
 30
0.0
 40
7.000636507160171
 50
359.2273660215876
 51
180.772633978413
  0
POLYLINE
  5
BA
  8
1
  6
CONTINUOUS
 62
     7
 66
     1
 10
0.0
 20
0.0
 30
0.0
  0
VERTEX
  5
1F3
  8
1
  6
CONTINUOUS
 62
     7
 10
50.49999999999997
 20
120.5706389456085
 30
0.0
  0
VERTEX
  5
1F4
  8
1
  6
CONTINUOUS
 62
     7
 10
50.63450303717733
 20
119.2053061972162
 30
0.0
  0
VERTEX
  5
1F5
  8
1
  6
CONTINUOUS
 62
     7
 10
51.03284327242092
 20
117.8924424206572
 30
0.0
  0
VERTEX
  5
1F6
  8
1
  6
CONTINUOUS
 62
     7
 10
51.67971271388209
 20
116.6825002346021
 30
0.0
  0
VERTEX
  5
1F7
  8
1
  6
CONTINUOUS
 62
     7
 10
52.55025253169406
 20
115.6219770387177
 30
0.0
  0
VERTEX
  5
1F8
  8
1
  6
CONTINUOUS
 62
     7
 10
53.61100836886268
 20
114.7516281446736
 30
0.0
  0
VERTEX
  5
1F9
  8
1
  6
CONTINUOUS
 62
     7
 10
54.82121597344426
 20
114.1049005723705
 30
0.0
  0
VERTEX
  5
1FA
  8
1
  6
CONTINUOUS
 62
     7
 10
56.134367745887
 20
113.7066476997231
 30
0.0
  0
VERTEX
  5
1FB
  8
1
  6
CONTINUOUS
 62
     7
 10
57.4999999999999
 20
113.5721741612844
 30
0.0
  0
VERTEX
  5
1FC
  8
1
  6
CONTINUOUS
 62
     7
 10
58.86563225411281
 20
113.706647699723
 30
0.0
  0
VERTEX
  5
1FD
  8
1
  6
CONTINUOUS
 62
     7
 10
60.17878402655555
 20
114.1049005723704
 30
0.0
  0
VERTEX
  5
1FE
  8
1
  6
CONTINUOUS
 62
     7
 10
61.38899163113715
 20
114.7516281446735
 30
0.0
  0
VERTEX
  5
1FF
  8
1
  6
CONTINUOUS
 62
     7
 10
62.44974746830579
 20
115.6219770387176
 30
0.0
  0
VERTEX
  5
200
  8
1
  6
CONTINUOUS
 62
     7
 10
63.32028728611778
 20
116.682500234602
 30
0.0
  0
VERTEX
  5
201
  8
1
  6
CONTINUOUS
 62
     7
 10
63.96715672757898
 20
117.892442420657
 30
0.0
  0
VERTEX
  5
202
  8
1
  6
CONTINUOUS
 62
     7
 10
64.36549696282259
 20
119.205306197216
 30
0.0
  0
VERTEX
  5
203
  8
1
  6
CONTINUOUS
 62
     7
 10
64.49999999999999
 20
120.5706389456083
 30
0.0
  0
SEQEND
  5
212
  8
1
  6
CONTINUOUS
 62
     7
  0
LINE
  5
BB
  8
1
  6
CONTINUOUS
 62
     7
 10
70.99999999999997
 20
150.5706389456084
 30
0.0
 11
57.49999999999998
 21
150.5706389456084
 31
0.0
  0
LINE
  5
BC
  8
1
  6
CONTINUOUS
 62
     7
 10
57.49999999999998
 20
150.5706389456084
 30
0.0
 11
43.99999999999999
 21
150.5706389456084
 31
0.0
  0
LINE
  5
BD
  8
1
  6
CONTINUOUS
 62
     9
 10
64.13952809568069
 20
160.5706389456083
 30
0.0
 11
64.13952809568069
 21
170.5706389456083
 31
0.0
  0
LINE
  5
BE
  8
1
  6
CONTINUOUS
 62
     9
 10
50.86047190431929
 20
170.5706389456083
 30
0.0
 11
50.86047190431929
 21
160.5706389456083
 31
0.0
  0
LINE
  5
BF
  8
1
  6
CONTINUOUS
 62
     7
 10
64.13952809568069
 20
170.5706389456083
 30
0.0
 11
50.86047190431929
 21
170.5706389456083
 31
0.0
  0
LINE
  5
C0
  8
1
  6
CONTINUOUS
 62
     7
 10
57.49999999999998
 20
160.5706389456084
 30
0.0
 11
64.13952809568069
 21
160.5706389456083
 31
0.0
  0
LINE
  5
C1
  8
1
  6
CONTINUOUS
 62
     7
 10
50.86047190431929
 20
160.5706389456083
 30
0.0
 11
57.49999999999998
 21
160.5706389456084
 31
0.0
  0
LINE
  5
C2
  8
1
  6
CONTINUOUS
 62
     9
 10
49.1284210967504
 20
160.5706389456083
 30
0.0
 11
49.1284210967504
 21
170.5706389456083
 31
0.0
  0
LINE
  5
C3
  8
1
  6
CONTINUOUS
 62
     7
 10
49.12842109675041
 20
170.5706389456083
 30
0.0
 11
50.86047190431929
 21
170.5706389456083
 31
0.0
  0
LINE
  5
C4
  8
1
  6
CONTINUOUS
 62
     7
 10
50.86047190431929
 20
160.5706389456084
 30
0.0
 11
49.12842109675041
 21
160.5706389456084
 31
0.0
  0
LINE
  5
C5
  8
1
  6
CONTINUOUS
 62
     7
 10
68.99999999999996
 20
150.5531852100268
 30
0.0
 11
57.49999999999998
 21
150.5531852100268
 31
0.0
  0
LINE
  5
C6
  8
1
  6
CONTINUOUS
 62
     7
 10
57.49999999999998
 20
150.5531852100268
 30
0.0
 11
46.0
 21
150.5531852100268
 31
0.0
  0
LINE
  5
C7
  8
1
  6
CONTINUOUS
 62
     9
 10
65.87157890324956
 20
170.5706389456083
 30
0.0
 11
65.87157890324956
 21
160.5706389456083
 31
0.0
  0
LINE
  5
C8
  8
1
  6
CONTINUOUS
 62
     7
 10
64.13952809568069
 20
170.5706389456083
 30
0.0
 11
65.87157890324956
 21
170.5706389456083
 31
0.0
  0
LINE
  5
C9
  8
1
  6
CONTINUOUS
 62
     7
 10
65.87157890324956
 20
160.5706389456083
 30
0.0
 11
64.13952809568069
 21
160.5706389456084
 31
0.0
  0
LINE
  5
CA
  8
1
  6
CONTINUOUS
 62
     7
 10
42.48889300106971
 20
160.5706389456083
 30
0.0
 11
45.80865704891005
 21
160.5706389456084
 31
0.0
  0
LINE
  5
CB
  8
1
  6
CONTINUOUS
 62
     9
 10
42.48889300106971
 20
170.5706389456083
 30
0.0
 11
42.48889300106971
 21
160.5706389456083
 31
0.0
  0
LINE
  5
CC
  8
1
  6
CONTINUOUS
 62
     7
 10
49.1284210967504
 20
170.5706389456083
 30
0.0
 11
42.48889300106971
 21
170.5706389456083
 31
0.0
  0
LINE
  5
CD
  8
1
  6
CONTINUOUS
 62
     7
 10
45.80865704891005
 20
160.5706389456084
 30
0.0
 11
49.1284210967504
 21
160.5706389456083
 31
0.0
  0
LINE
  5
CE
  8
1
  6
CONTINUOUS
 62
     9
 10
72.51110699893025
 20
160.5706389456083
 30
0.0
 11
72.51110699893025
 21
170.5706389456083
 31
0.0
  0
LINE
  5
CF
  8
1
  6
CONTINUOUS
 62
     7
 10
69.19134295108992
 20
160.5706389456084
 30
0.0
 11
72.51110699893025
 21
160.5706389456083
 31
0.0
  0
LINE
  5
D0
  8
1
  6
CONTINUOUS
 62
     7
 10
72.51110699893025
 20
170.5706389456083
 30
0.0
 11
65.87157890324956
 21
170.5706389456083
 31
0.0
  0
LINE
  5
D1
  8
1
  6
CONTINUOUS
 62
     7
 10
65.87157890324956
 20
160.5706389456083
 30
0.0
 11
69.19134295108992
 21
160.5706389456084
 31
0.0
  0
LINE
  5
D2
  8
1
  6
CONTINUOUS
 62
     7
 10
42.22094380863859
 20
170.5706389456083
 30
0.0
 11
42.48889300106971
 21
170.5706389456083
 31
0.0
  0
LINE
  5
D3
  8
1
  6
CONTINUOUS
 62
     7
 10
42.48889300106971
 20
160.5706389456083
 30
0.0
 11
42.22094380863859
 21
160.5706389456083
 31
0.0
  0
LINE
  5
D4
  8
1
  6
CONTINUOUS
 62
     7
 10
72.77905619136136
 20
160.5706389456084
 30
0.0
 11
72.51110699893025
 21
160.5706389456084
 31
0.0
  0
LINE
  5
D5
  8
1
  6
CONTINUOUS
 62
     7
 10
72.51110699893025
 20
170.5706389456083
 30
0.0
 11
72.77905619136136
 21
170.5706389456083
 31
0.0
  0
LINE
  5
D6
  8
1
  6
CONTINUOUS
 62
     7
 10
46.49999999999999
 20
120.5706389456083
 30
0.0
 11
46.49999999999999
 21
119.8376542496908
 31
0.0
  0
LINE
  5
D7
  8
1
  6
CONTINUOUS
 62
     7
 10
68.49999999999997
 20
119.8376542496909
 30
0.0
 11
68.49999999999997
 21
120.5706389456084
 31
0.0
  0
LINE
  5
D8
  8
1
  6
CONTINUOUS
 62
     7
 10
70.99999999999997
 20
144.9706389456084
 30
0.0
 11
70.99999999999997
 21
150.2706389456083
 31
0.0
  0
LINE
  5
D9
  8
1
  6
CONTINUOUS
 62
     7
 10
70.99999999999997
 20
140.8706389456083
 30
0.0
 11
70.99999999999997
 21
141.5706389456084
 31
0.0
  0
LINE
  5
DA
  8
1
  6
CONTINUOUS
 62
     7
 10
43.99999999999999
 20
141.5706389456084
 30
0.0
 11
43.99999999999999
 21
140.8706389456083
 31
0.0
  0
LINE
  5
DB
  8
1
  6
CONTINUOUS
 62
     7
 10
43.99999999999999
 20
150.2706389456083
 30
0.0
 11
43.99999999999999
 21
144.9706389456084
 31
0.0
  0
LINE
  5
DC
  8
1
  6
CONTINUOUS
 62
     7
 10
43.99999999999999
 20
140.8706389456083
 30
0.0
 11
45.29999999999998
 21
139.5706389456083
 31
0.0
  0
LINE
  5
DD
  8
1
  6
CONTINUOUS
 62
     7
 10
69.69999999999999
 20
139.5706389456083
 30
0.0
 11
70.99999999999997
 21
140.8706389456083
 31
0.0
  0
LINE
  5
DE
  8
1
  6
CONTINUOUS
 62
     7
 10
69.69999999999999
 20
133.7706389456083
 30
0.0
 11
69.69999999999999
 21
139.5706389456083
 31
0.0
  0
LINE
  5
DF
  8
1
  6
CONTINUOUS
 62
     7
 10
45.29999999999998
 20
135.2729116728811
 30
0.0
 11
45.29999999999998
 21
133.7706389456083
 31
0.0
  0
LINE
  5
E0
  8
1
  6
CONTINUOUS
 62
     7
 10
45.29999999999998
 20
139.5706389456083
 30
0.0
 11
45.29999999999998
 21
138.0683662183356
 31
0.0
  0
LINE
  5
E1
  8
1
  6
CONTINUOUS
 62
     7
 10
45.29999999999998
 20
133.7706389456083
 30
0.0
 11
46.49999999999999
 21
132.5706389456083
 31
0.0
  0
LINE
  5
E2
  8
1
  6
CONTINUOUS
 62
     7
 10
68.49999999999997
 20
132.5706389456083
 30
0.0
 11
69.69999999999999
 21
133.7706389456083
 31
0.0
  0
LINE
  5
E3
  8
1
  6
CONTINUOUS
 62
     7
 10
68.49999999999997
 20
120.5706389456083
 30
0.0
 11
68.49999999999997
 21
132.5706389456083
 31
0.0
  0
LINE
  5
E4
  8
1
  6
CONTINUOUS
 62
     7
 10
46.49999999999999
 20
132.5706389456083
 30
0.0
 11
46.49999999999999
 21
120.5706389456083
 31
0.0
  0
LINE
  5
E5
  8
1
  6
CONTINUOUS
 62
     7
 10
70.99999999999997
 20
150.5706389456084
 30
0.0
 11
70.99999999999997
 21
160.5706389456084
 31
0.0
  0
LINE
  5
E6
  8
1
  6
CONTINUOUS
 62
     7
 10
43.99999999999998
 20
160.5706389456084
 30
0.0
 11
43.99999999999998
 21
150.5706389456084
 31
0.0
  0
LINE
  5
E7
  8
1
  6
CONTINUOUS
 62
     7
 10
43.99999999999999
 20
150.5706389456084
 30
0.0
 11
46.00000000000003
 21
150.5531852100268
 31
0.0
  0
LINE
  5
E8
  8
1
  6
CONTINUOUS
 62
     7
 10
68.99999999999993
 20
150.5531852100268
 30
0.0
 11
70.99999999999997
 21
150.5706389456084
 31
0.0
  0
LINE
  5
E9
  8
1
  6
CONTINUOUS
 62
     7
 10
68.99999999999997
 20
150.2706389456083
 30
0.0
 11
68.99999999999997
 21
150.5531852100268
 31
0.0
  0
LINE
  5
EA
  8
1
  6
CONTINUOUS
 62
     7
 10
45.99999999999999
 20
150.5531852100268
 30
0.0
 11
45.99999999999999
 21
150.2706389456083
 31
0.0
  0
LINE
  5
EB
  8
1
  6
CONTINUOUS
 62
     7
 10
42.22094380863859
 20
170.5706389456083
 30
0.0
 11
42.22094380863859
 21
160.5706389456084
 31
0.0
  0
LINE
  5
EC
  8
1
  6
CONTINUOUS
 62
     7
 10
72.77905619136136
 20
160.5706389456084
 30
0.0
 11
72.77905619136136
 21
170.5706389456083
 31
0.0
  0
ENDBLK
  8
0
  0
BLOCK
  8
0
  2
D_FRAME_VIEW_3287
 70
     0
 10
0.0
 20
0.0
 30
0.0
  0
LINE
  5
F1
  8
1
  6
CONTINUOUS
 62
     7
 10
117.2293610543918
 20
241.8613452701683
 30
0.0
 11
117.2293610543918
 21
214.8613452701683
 31
0.0
  0
LINE
  5
F2
  8
1
  6
CONTINUOUS
 62
     7
 10
126.6293610543917
 20
214.8613452701683
 30
0.0
 11
126.6293610543917
 21
241.8613452701683
 31
0.0
  0
LINE
  5
F3
  8
1
  6
CONTINUOUS
 62
     7
 10
122.5293610543917
 20
231.4613452701684
 30
0.0
 11
122.5293610543917
 21
225.2613452701684
 31
0.0
  0
LINE
  5
F4
  8
1
  6
CONTINUOUS
 62
     7
 10
122.5293610543917
 20
225.2613452701684
 30
0.0
 11
125.9293610543917
 21
225.2613452701684
 31
0.0
  0
LINE
  5
F5
  8
1
  6
CONTINUOUS
 62
     7
 10
125.9293610543917
 20
225.2613452701684
 30
0.0
 11
125.9293610543917
 21
231.4613452701684
 31
0.0
  0
LINE
  5
F6
  8
1
  6
CONTINUOUS
 62
     7
 10
125.9293610543917
 20
231.4613452701684
 30
0.0
 11
122.5293610543917
 21
231.4613452701684
 31
0.0
  0
LINE
  5
F7
  8
1
  6
CONTINUOUS
 62
     7
 10
127.9293610543917
 20
240.5613452701683
 30
0.0
 11
127.9293610543917
 21
216.1613452701683
 31
0.0
  0
LINE
  5
F8
  8
1
  6
CONTINUOUS
 62
     7
 10
133.7293610543917
 20
216.1613452701683
 30
0.0
 11
133.7293610543917
 21
240.5613452701683
 31
0.0
  0
LINE
  5
F9
  8
1
  6
CONTINUOUS
 62
     7
 10
134.9293610543917
 20
239.3613452701684
 30
0.0
 11
134.9293610543917
 21
217.3613452701683
 31
0.0
  0
LINE
  5
FA
  8
1
  6
CONTINUOUS
 62
     9
 10
157.926948572615
 20
228.5917118888853
 30
0.0
 11
146.9293610543917
 21
228.3613452701684
 31
0.0
  0
LINE
  5
FB
  8
1
  6
CONTINUOUS
 62
     7
 10
136.6647582320859
 20
193.1386547298318
 30
0.0
 11
158.6599332685325
 21
193.5993879672657
 31
0.0
  0
LINE
  5
FC
  8
1
  6
CONTINUOUS
 62
     7
 10
146.9293610543917
 20
228.3613452701684
 30
0.0
 11
136.1573651964081
 21
217.3613452701684
 31
0.0
  0
LINE
  5
FD
  8
1
  6
CONTINUOUS
 62
     9
 10
146.9293610543917
 20
239.3613452701683
 30
0.0
 11
146.9293610543917
 21
228.3613452701684
 31
0.0
  0
LINE
  5
FE
  8
1
  6
CONTINUOUS
 62
     9
 10
96.92936105439175
 20
229.3613452701684
 30
0.0
 11
106.9293610543917
 21
229.3613452701684
 31
0.0
  0
LINE
  5
FF
  8
1
  6
CONTINUOUS
 62
     9
 10
106.9293610543917
 20
227.3613452701684
 30
0.0
 11
96.92936105439173
 21
227.3613452701684
 31
0.0
  0
LINE
  5
100
  8
1
  6
CONTINUOUS
 62
     7
 10
106.9293610543917
 20
229.3613452701684
 30
0.0
 11
106.9293610543917
 21
227.3613452701684
 31
0.0
  0
LINE
  5
101
  8
1
  6
CONTINUOUS
 62
     7
 10
96.92936105439175
 20
227.3613452701684
 30
0.0
 11
96.92936105439175
 21
229.3613452701684
 31
0.0
  0
LINE
  5
102
  8
1
  6
CONTINUOUS
 62
     7
 10
106.9293610543917
 20
215.8613452701684
 30
0.0
 11
106.9293610543917
 21
221.6113452701683
 31
0.0
  0
LINE
  5
103
  8
1
  6
CONTINUOUS
 62
     9
 10
96.92936105439175
 20
215.8613452701684
 30
0.0
 11
106.9293610543917
 21
215.8613452701684
 31
0.0
  0
LINE
  5
104
  8
1
  6
CONTINUOUS
 62
     7
 10
106.9293610543917
 20
221.6113452701683
 30
0.0
 11
106.9293610543917
 21
227.3613452701684
 31
0.0
  0
LINE
  5
105
  8
1
  6
CONTINUOUS
 62
     7
 10
96.92936105439175
 20
227.3613452701684
 30
0.0
 11
96.92936105439175
 21
215.8613452701684
 31
0.0
  0
LINE
  5
106
  8
1
  6
CONTINUOUS
 62
     9
 10
106.9293610543917
 20
240.8613452701683
 30
0.0
 11
96.92936105439173
 21
240.8613452701683
 31
0.0
  0
LINE
  5
107
  8
1
  6
CONTINUOUS
 62
     7
 10
106.9293610543917
 20
235.1113452701684
 30
0.0
 11
106.9293610543917
 21
240.8613452701683
 31
0.0
  0
LINE
  5
108
  8
1
  6
CONTINUOUS
 62
     7
 10
106.9293610543917
 20
229.3613452701684
 30
0.0
 11
106.9293610543917
 21
235.1113452701684
 31
0.0
  0
LINE
  5
109
  8
1
  6
CONTINUOUS
 62
     7
 10
96.92936105439175
 20
240.8613452701683
 30
0.0
 11
96.92936105439175
 21
229.3613452701684
 31
0.0
  0
LINE
  5
10A
  8
1
  6
CONTINUOUS
 62
     7
 10
116.9293610543917
 20
241.8613452701684
 30
0.0
 11
116.9293610543917
 21
214.8613452701683
 31
0.0
  0
LINE
  5
10B
  8
1
  6
CONTINUOUS
 62
     7
 10
116.9468147899733
 20
239.8613452701683
 30
0.0
 11
116.9468147899733
 21
216.8613452701684
 31
0.0
  0
LINE
  5
10C
  8
1
  6
CONTINUOUS
 62
     7
 10
122.5793610543917
 20
231.4613452701684
 30
0.0
 11
122.5793610543917
 21
225.2613452701684
 31
0.0
  0
LINE
  5
10D
  8
1
  6
CONTINUOUS
 62
     7
 10
125.3293610543917
 20
225.2613452701684
 30
0.0
 11
125.3293610543917
 21
231.4613452701684
 31
0.0
  0
LINE
  5
10E
  8
1
  6
CONTINUOUS
 62
     7
 10
125.8337243221409
 20
231.4613452701684
 30
0.0
 11
125.8337243221409
 21
225.2613452701684
 31
0.0
  0
LINE
  5
10F
  8
1
  6
CONTINUOUS
 62
     7
 10
122.5671434394847
 20
231.4613452701684
 30
0.0
 11
122.5671434394847
 21
225.2613452701684
 31
0.0
  0
LINE
  5
110
  8
1
  6
CONTINUOUS
 62
     7
 10
125.8433240428569
 20
231.4613452701684
 30
0.0
 11
125.8433240428569
 21
225.2613452701684
 31
0.0
  0
LINE
  5
111
  8
1
  6
CONTINUOUS
 62
     7
 10
106.9293610543917
 20
214.8613452701684
 30
0.0
 11
96.92936105439173
 21
214.8613452701684
 31
0.0
  0
LINE
  5
112
  8
1
  6
CONTINUOUS
 62
     7
 10
106.9293610543917
 20
215.8613452701684
 30
0.0
 11
106.9293610543917
 21
214.8613452701684
 31
0.0
  0
LINE
  5
113
  8
1
  6
CONTINUOUS
 62
     7
 10
96.92936105439175
 20
214.8613452701684
 30
0.0
 11
96.92936105439175
 21
215.8613452701684
 31
0.0
  0
LINE
  5
114
  8
1
  6
CONTINUOUS
 62
     7
 10
96.92936105439175
 20
241.8613452701683
 30
0.0
 11
106.9293610543917
 21
241.8613452701683
 31
0.0
  0
LINE
  5
115
  8
1
  6
CONTINUOUS
 62
     7
 10
106.9293610543917
 20
241.8613452701683
 30
0.0
 11
106.9293610543917
 21
240.8613452701683
 31
0.0
  0
LINE
  5
116
  8
1
  6
CONTINUOUS
 62
     7
 10
96.92936105439175
 20
240.8613452701683
 30
0.0
 11
96.92936105439175
 21
241.8613452701683
 31
0.0
  0
LINE
  5
117
  8
1
  6
CONTINUOUS
 62
     7
 10
126.6293610543917
 20
241.8613452701683
 30
0.0
 11
117.2293610543917
 21
241.8613452701683
 31
0.0
  0
LINE
  5
118
  8
1
  6
CONTINUOUS
 62
     7
 10
117.2293610543918
 20
214.8613452701683
 30
0.0
 11
126.6293610543918
 21
214.8613452701683
 31
0.0
  0
LINE
  5
119
  8
1
  6
CONTINUOUS
 62
     7
 10
126.6293610543917
 20
214.8613452701683
 30
0.0
 11
127.9293610543917
 21
216.1613452701683
 31
0.0
  0
LINE
  5
11A
  8
1
  6
CONTINUOUS
 62
     7
 10
127.9293610543917
 20
240.5613452701683
 30
0.0
 11
126.6293610543917
 21
241.8613452701683
 31
0.0
  0
LINE
  5
11B
  8
1
  6
CONTINUOUS
 62
     7
 10
133.7293610543917
 20
240.5613452701683
 30
0.0
 11
127.9293610543917
 21
240.5613452701683
 31
0.0
  0
LINE
  5
11C
  8
1
  6
CONTINUOUS
 62
     7
 10
127.9293610543917
 20
216.1613452701683
 30
0.0
 11
133.7293610543917
 21
216.1613452701683
 31
0.0
  0
LINE
  5
11D
  8
1
  6
CONTINUOUS
 62
     7
 10
133.7293610543917
 20
216.1613452701683
 30
0.0
 11
134.9293610543917
 21
217.3613452701683
 31
0.0
  0
LINE
  5
11E
  8
1
  6
CONTINUOUS
 62
     7
 10
134.9293610543917
 20
239.3613452701684
 30
0.0
 11
133.7293610543917
 21
240.5613452701683
 31
0.0
  0
LINE
  5
11F
  8
1
  6
CONTINUOUS
 62
     7
 10
136.1573651964081
 20
217.3613452701684
 30
0.0
 11
136.6647582320859
 21
193.1386547298318
 31
0.0
  0
LINE
  5
120
  8
1
  6
CONTINUOUS
 62
     7
 10
158.6599332685325
 20
193.5993879672656
 30
0.0
 11
157.926948572615
 21
228.5917118888853
 31
0.0
  0
LINE
  5
121
  8
1
  6
CONTINUOUS
 62
     7
 10
146.9293610543917
 20
239.3613452701683
 30
0.0
 11
134.9293610543917
 21
239.3613452701684
 31
0.0
  0
LINE
  5
122
  8
1
  6
CONTINUOUS
 62
     7
 10
134.9293610543917
 20
217.3613452701683
 30
0.0
 11
136.1573651964081
 21
217.3613452701683
 31
0.0
  0
ARC
  5
123
  8
1
  6
CONTINUOUS
 62
     7
 10
146.9293610543917
 20
228.3613452701684
 30
0.0
 40
11.0
 50
1.200000000000002
 51
90.0
  0
LINE
  5
124
  8
1
  6
CONTINUOUS
 62
     7
 10
116.9293610543917
 20
241.8613452701684
 30
0.0
 11
106.9293610543917
 21
241.8613452701684
 31
0.0
  0
LINE
  5
125
  8
1
  6
CONTINUOUS
 62
     7
 10
115.9293610543917
 20
214.8613452701683
 30
0.0
 11
116.9293610543917
 21
214.8613452701683
 31
0.0
  0
LINE
  5
126
  8
1
  6
CONTINUOUS
 62
     7
 10
106.9293610543917
 20
214.8613452701683
 30
0.0
 11
107.9293610543917
 21
214.8613452701683
 31
0.0
  0
LINE
  5
127
  8
1
  6
CONTINUOUS
 62
     7
 10
116.9293610543917
 20
214.8613452701684
 30
0.0
 11
116.9468147899732
 21
216.8613452701685
 31
0.0
  0
LINE
  5
128
  8
1
  6
CONTINUOUS
 62
     7
 10
116.9468147899733
 20
239.8613452701684
 30
0.0
 11
116.9293610543918
 21
241.8613452701684
 31
0.0
  0
LINE
  5
129
  8
1
  6
CONTINUOUS
 62
     7
 10
117.2293610543918
 20
239.8613452701683
 30
0.0
 11
116.9468147899733
 21
239.8613452701683
 31
0.0
  0
LINE
  5
12A
  8
1
  6
CONTINUOUS
 62
     7
 10
116.9468147899733
 20
216.8613452701684
 30
0.0
 11
117.2293610543918
 21
216.8613452701684
 31
0.0
  0
ENDBLK
  8
0
  0
ENDSEC
  0
SECTION
  2
ENTITIES
  0
TEXT
  5
71
  8
1
  6
CONTINUOUS
 62
     7
 10
82.52180505189443
 20
94.68523821433047
 30
0.0
 40
3.0
  1
DA-UE
  0
INSERT
  5
93
  8
1
  6
DOT
 62
     7
  2
D_FRAME_VIEW_1482
 10
0.0
 20
0.0
 30
0.0
  0
LINE
  5
95
  8
2
  6
CONTINUOUS
 62
     7
 10
45.29999999999998
 20
138.0683662183356
 30
0.0
 11
45.29999999999998
 21
135.272911672881
 31
0.0
  0
LINE
  5
96
  8
2
  6
CONTINUOUS
 62
     7
 10
107.9293610543917
 20
214.8613452701683
 30
0.0
 11
115.9293610543917
 21
214.8613452701683
 31
0.0
  0
LINE
  5
97
  8
2
  6
CENTER
 62
     1
 10
94.92936105439175
 20
228.3613452701684
 30
0.0
 11
159.9293610543917
 21
228.3613452701684
 31
0.0
  0
LINE
  5
99
  8
2
  6
CENTER
 62
     1
 10
57.49999999999998
 20
172.5706389456083
 30
0.0
 11
57.49999999999998
 21
106.8400667314675
 31
0.0
  0
LINE
  5
9A
  8
2
  6
CENTER
 62
     1
 10
57.49999999999998
 20
191.1386547298318
 30
0.0
 11
57.49999999999998
 21
243.8613452701683
 31
0.0
  0
LINE
  5
9B
  8
2
  6
CENTER
 62
     1
 10
146.6571095959081
 20
241.3584941553414
 30
0.0
 11
147.7042305900759
 21
191.3694599815991
 31
0.0
  0
LINE
  5
9C
  8
2
  6
CENTER
 62
     1
 10
40.22094380863859
 20
228.3613452701684
 30
0.0
 11
74.77905619136136
 21
228.3613452701684
 31
0.0
  0
INSERT
  5
ED
  8
1
  6
DOT
 62
     7
  2
D_FRAME_VIEW_1636
 10
0.0
 20
0.0
 30
0.0
  0
INSERT
  5
12B
  8
1
  6
DOT
 62
     7
  2
D_FRAME_VIEW_3287
 10
0.0
 20
0.0
 30
0.0
  0
ENDSEC
  0
EOF
