  0
SECTION
  2
HEADER
  9
$ACADVER
  1
AC1006
  9
$DWGCODEPAGE
  3
ansi_932
  9
$INSBASE
 10
0.0
 20
0.0
 30
0.0
  9
$EXTMIN
 10
49.72094380863854
 20
83.67045454545459
  9
$EXTMAX
 10
80.27905619136133
 20
193.5
  9
$LIMMIN
 10
0.0
 20
0.0
  9
$LIMMAX
 10
12.0
 20
9.0
  9
$ORTHOMODE
 70
     0
  9
$REGENMODE
 70
     1
  9
$FILLMODE
 70
     1
  9
$QTEXTMODE
 70
     0
  9
$MIRRTEXT
 70
     1
  9
$DRAGMODE
 70
     2
  9
$LTSCALE
 40
1.0
  9
$OSMODE
 70
    37
  9
$ATTMODE
 70
     1
  9
$TEXTSIZE
 40
0.2
  9
$TRACEWID
 40
0.05
  9
$TEXTSTYLE
  7
STANDARD
  9
$CLAYER
  8
0
  9
$CELTYPE
  6
BYLAYER
  9
$CECOLOR
 62
   256
  9
$DIMSCALE
 40
1.0
  9
$DIMASZ
 40
3.0
  9
$DIMEXO
 40
0.0625
  9
$DIMDLI
 40
0.38
  9
$DIMRND
 40
0.0
  9
$DIMDLE
 40
0.0
  9
$DIMEXE
 40
1.5
  9
$DIMTP
 40
0.0
  9
$DIMTM
 40
0.0
  9
$DIMTXT
 40
3.0
  9
$DIMCEN
 40
0.09
  9
$DIMTSZ
 40
0.0
  9
$DIMTOL
 70
     0
  9
$DIMLIM
 70
     0
  9
$DIMTIH
 70
     1
  9
$DIMTOH
 70
     1
  9
$DIMSE1
 70
     0
  9
$DIMSE2
 70
     0
  9
$DIMTAD
 70
     1
  9
$DIMZIN
 70
     0
  9
$DIMBLK
  1

  9
$DIMASO
 70
     1
  9
$DIMSHO
 70
     1
  9
$DIMPOST
  1

  9
$DIMAPOST
  1

  9
$DIMALT
 70
     0
  9
$DIMALTD
 70
     2
  9
$DIMALTF
 40
25.4
  9
$DIMLFAC
 40
1.0
  9
$DIMTOFL
 70
     0
  9
$DIMTVP
 40
0.0
  9
$DIMTIX
 70
     0
  9
$DIMSOXD
 70
     0
  9
$DIMSAH
 70
     0
  9
$DIMBLK1
  1

  9
$DIMBLK2
  1

  9
$LUNITS
 70
     2
  9
$LUPREC
 70
     4
  9
$SKETCHINC
 40
0.1
  9
$FILLETRAD
 40
0.5
  9
$AUNITS
 70
     0
  9
$AUPREC
 70
     0
  9
$MENU
  1
.
  9
$ELEVATION
 40
0.0
  9
$THICKNESS
 40
0.0
  9
$LIMCHECK
 70
     0
  9
$CHAMFERA
 40
0.0
  9
$CHAMFERB
 40
0.0
  9
$SKPOLY
 70
     0
  9
$TDCREATE
 40
2459608.568393171
  9
$TDUPDATE
 40
2459608.568393298
  9
$TDINDWG
 40
0.0000000116
  9
$TDUSRTIMER
 40
0.0000000116
  9
$USRTIMER
 70
     1
  9
$ANGBASE
 50
0.0
  9
$ANGDIR
 70
     0
  9
$PDMODE
 70
     0
  9
$PDSIZE
 40
0.0
  9
$PLINEWID
 40
0.0
  9
$COORDS
 70
     1
  9
$SPLFRAME
 70
     0
  9
$SPLINETYPE
 70
     6
  9
$SPLINESEGS
 70
     8
  9
$ATTDIA
 70
     0
  9
$ATTREQ
 70
     1
  9
$HANDLING
 70
     1
  9
$HANDSEED
  5
D3
  9
$SURFTAB1
 70
     6
  9
$SURFTAB2
 70
     6
  9
$SURFTYPE
 70
     6
  9
$SURFU
 70
     6
  9
$SURFV
 70
     6
  9
$UCSNAME
  2

  9
$UCSORG
 10
0.0
 20
0.0
 30
0.0
  9
$UCSXDIR
 10
1.0
 20
0.0
 30
0.0
  9
$UCSYDIR
 10
0.0
 20
1.0
 30
0.0
  9
$USERI1
 70
     0
  9
$USERI2
 70
     0
  9
$USERI3
 70
     0
  9
$USERI4
 70
     0
  9
$USERI5
 70
     0
  9
$USERR1
 40
0.0
  9
$USERR2
 40
0.0
  9
$USERR3
 40
0.0
  9
$USERR4
 40
0.0
  9
$USERR5
 40
0.0
  9
$WORLDVIEW
 70
     1
  0
ENDSEC
  0
SECTION
  2
TABLES
  0
TABLE
  2
VPORT
 70
     1
  0
VPORT
  2
*ACTIVE
 70
     0
 10
0.0
 20
0.0
 11
1.0
 21
1.0
 12
64.99999999999994
 22
138.5852272727273
 13
0.0
 23
0.0
 14
0.5
 24
0.5
 15
0.5
 25
0.5
 16
0.0
 26
0.0
 36
1.0
 17
0.0
 27
0.0
 37
0.0
 40
109.8295454545454
 41
1.6
 42
50.0
 43
0.0
 44
0.0
 50
0.0
 51
0.0
 71
     0
 72
   100
 73
     1
 74
     3
 75
     0
 76
     0
 77
     0
 78
     0
  0
ENDTAB
  0
TABLE
  2
LTYPE
 70
     2
  0
LTYPE
  2
CONTINUOUS
 70
     0
  3
Solid line
 72
    65
 73
     0
 40
0.0
  0
LTYPE
  2
DOT
 70
     0
  3

 72
    65
 73
     0
 40
0.0
  0
ENDTAB
  0
TABLE
  2
LAYER
 70
     2
  0
LAYER
  2
0
 70
     0
 62
     7
  6
CONTINUOUS
  0
LAYER
  2
1
 70
     0
 62
     7
  6
CONTINUOUS
  0
ENDTAB
  0
TABLE
  2
STYLE
 70
     2
  0
STYLE
  2
STANDARD
 70
     0
 40
0.0
 41
1.0
 50
0.0
 71
     0
 42
0.2
  3
txt
  4

  0
STYLE
  2
FG教科書体NT-M
 70
     0
 40
0.0
 41
1.0
 50
0.0
 71
     0
 42
0.2
  3
FGCNTKYM.TTC
  4

  0
ENDTAB
  0
TABLE
  2
VIEW
 70
     0
  0
ENDTAB
  0
TABLE
  2
UCS
 70
     0
  0
ENDTAB
  0
ENDSEC
  0
SECTION
  2
BLOCKS
  0
BLOCK
  8
0
  2
D_FRAME_VIEW_1482
 70
     0
 10
0.0
 20
0.0
 30
0.0
  0
LINE
  5
72
  8
1
  6
CONTINUOUS
 62
     7
 10
74.89663169092377
 20
180.0
 30
0.0
 11
74.31675012565063
 21
180.0
 31
0.0
  0
LINE
  5
73
  8
1
  6
CONTINUOUS
 62
     7
 10
65.02254981493195
 20
190.477475733966
 30
0.0
 11
65.1641986161295
 21
190.4662289890839
 31
0.0
  0
LINE
  5
74
  8
1
  6
CONTINUOUS
 62
     7
 10
65.1641986161295
 20
190.4662289890839
 30
0.0
 11
66.28840720912027
 21
190.3094703804824
 31
0.0
  0
ARC
  5
75
  8
1
  6
CONTINUOUS
 62
     7
 10
64.3875487754048
 20
179.9736949913932
 30
0.0
 40
10.50911583715444
 50
0.1434152568497211
 51
79.57914723325177
  0
ARC
  5
76
  8
1
  6
CONTINUOUS
 62
     7
 10
65.07392284589761
 20
179.3653260951202
 30
0.0
 40
9.84319155658826
 50
269.4613024532684
 51
3.696908702395944
  0
ARC
  5
77
  8
1
  6
CONTINUOUS
 62
     7
 10
58.36047190431923
 20
191.5
 30
0.0
 40
2.000000000000002
 50
90.00000000000001
 51
150.0
  0
LINE
  5
78
  8
1
  6
CONTINUOUS
 62
     7
 10
58.36047190431923
 20
193.5
 30
0.0
 11
71.63952809568062
 21
193.5
 31
0.0
  0
ARC
  5
79
  8
1
  6
CONTINUOUS
 62
     7
 10
71.63952809568062
 20
191.5
 30
0.0
 40
2.000000000000008
 50
29.99999999999994
 51
90.0
  0
LINE
  5
7A
  8
1
  6
CONTINUOUS
 62
     7
 10
73.37157890324951
 20
192.5
 30
0.0
 11
80.0111069989302
 21
181.0
 31
0.0
  0
ARC
  5
7B
  8
1
  6
CONTINUOUS
 62
     7
 10
78.27905619136133
 20
180.0
 30
0.0
 40
1.999999999999996
 50
330.0
 51
30.0
  0
LINE
  5
7C
  8
1
  6
CONTINUOUS
 62
     7
 10
80.0111069989302
 20
179.0
 30
0.0
 11
73.37157890324951
 21
167.5
 31
0.0
  0
ARC
  5
7D
  8
1
  6
CONTINUOUS
 62
     7
 10
71.63952809568063
 20
168.5
 30
0.0
 40
2.000000000000002
 50
270.0
 51
330.0
  0
LINE
  5
7E
  8
1
  6
CONTINUOUS
 62
     7
 10
71.63952809568063
 20
166.5
 30
0.0
 11
58.36047190431924
 21
166.5
 31
0.0
  0
ARC
  5
7F
  8
1
  6
CONTINUOUS
 62
     7
 10
58.36047190431924
 20
168.5
 30
0.0
 40
2.000000000000002
 50
210.0
 51
270.0
  0
LINE
  5
80
  8
1
  6
CONTINUOUS
 62
     7
 10
56.62842109675036
 20
167.5
 30
0.0
 11
49.98889300106966
 21
179.0
 31
0.0
  0
ARC
  5
81
  8
1
  6
CONTINUOUS
 62
     7
 10
51.72094380863854
 20
180.0
 30
0.0
 40
1.999999999999996
 50
150.0000000000001
 51
210.0
  0
LINE
  5
82
  8
1
  6
CONTINUOUS
 62
     7
 10
49.98889300106966
 20
181.0
 30
0.0
 11
56.62842109675036
 21
192.5
 31
0.0
  0
ARC
  5
83
  8
1
  6
CONTINUOUS
 62
     7
 10
64.99999999999993
 20
180.0
 30
0.0
 40
10.4775
 50
89.87668716565555
 51
269.8981661745646
  0
LINE
  5
84
  8
1
  6
CONTINUOUS
 62
     7
 10
57.35307745878966
 20
187.1625066525278
 30
0.0
 11
57.27487990727784
 21
187.0780424510643
 31
0.0
  0
CIRCLE
  5
85
  8
1
  6
CONTINUOUS
 62
     7
 10
64.99999999999993
 20
180.0
 30
0.0
 40
9.000000000000007
  0
CIRCLE
  5
86
  8
1
  6
CONTINUOUS
 62
     7
 10
64.99999999999993
 20
180.0
 30
0.0
 40
6.880194167739551
  0
LINE
  5
87
  8
1
  6
CONTINUOUS
 62
     7
 10
65.00814286189896
 20
190.4785153025645
 30
0.0
 11
65.16571646144287
 21
190.4660643369277
 31
0.0
  0
LINE
  5
88
  8
1
  6
CONTINUOUS
 62
     7
 10
65.16571646144287
 20
190.4660643369277
 30
0.0
 11
66.28792724589853
 21
190.3069567114785
 31
0.0
  0
ARC
  5
89
  8
1
  6
CONTINUOUS
 62
     7
 10
64.49538275818107
 20
180.6300266790804
 30
0.0
 40
9.841554277266107
 50
356.3295867549904
 51
79.50554391773278
  0
ARC
  5
8A
  8
1
  6
CONTINUOUS
 62
     7
 10
64.99999999999993
 20
180.0000469329015
 30
0.0
 40
9.316749226001633
 50
180.000288626119
 51
359.9997113738809
  0
ARC
  5
8B
  8
1
  6
CONTINUOUS
 62
     7
 10
64.99999999999993
 20
179.9999530670986
 30
0.0
 40
9.316749226001626
 50
0.0002886261191293
 51
179.9997113738809
  0
ARC
  5
8C
  8
1
  6
CONTINUOUS
 62
     7
 10
64.99999999999993
 20
180.0000468685545
 30
0.0
 40
9.316749235553502
 50
180.0002882304003
 51
359.9997117695995
  0
ENDBLK
  8
0
  0
BLOCK
  8
0
  2
D_FRAME_VIEW_1617
 70
     0
 10
0.0
 20
0.0
 30
0.0
  0
LINE
  5
92
  8
1
  6
CONTINUOUS
 62
     7
 10
51.49999999999994
 20
136.4053528385379
 30
0.0
 11
78.49999999999993
 21
136.4053528385379
 31
0.0
  0
LINE
  5
93
  8
1
  6
CONTINUOUS
 62
     7
 10
51.49999999999994
 20
127.0053528385379
 30
0.0
 11
78.49999999999993
 21
127.0053528385379
 31
0.0
  0
LINE
  5
94
  8
1
  6
CONTINUOUS
 62
     7
 10
68.09999999999994
 20
127.7053528385379
 30
0.0
 11
68.09999999999994
 21
131.1053528385379
 31
0.0
  0
LINE
  5
95
  8
1
  6
CONTINUOUS
 62
     7
 10
61.89999999999991
 20
131.1053528385379
 30
0.0
 11
61.89999999999992
 21
127.7053528385378
 31
0.0
  0
LINE
  5
96
  8
1
  6
CONTINUOUS
 62
     7
 10
68.09999999999994
 20
131.1053528385379
 30
0.0
 11
61.89999999999991
 21
131.1053528385379
 31
0.0
  0
LINE
  5
97
  8
1
  6
CONTINUOUS
 62
     7
 10
61.89999999999992
 20
127.7053528385379
 30
0.0
 11
68.09999999999994
 21
127.7053528385379
 31
0.0
  0
LINE
  5
98
  8
1
  6
CONTINUOUS
 62
     7
 10
52.79999999999994
 20
125.7053528385379
 30
0.0
 11
77.19999999999992
 21
125.7053528385379
 31
0.0
  0
LINE
  5
99
  8
1
  6
CONTINUOUS
 62
     7
 10
52.79999999999992
 20
119.9053528385379
 30
0.0
 11
77.19999999999993
 21
119.9053528385379
 31
0.0
  0
LINE
  5
9A
  8
1
  6
CONTINUOUS
 62
     7
 10
53.99999999999993
 20
118.7053528385379
 30
0.0
 11
75.99999999999993
 21
118.7053528385379
 31
0.0
  0
LINE
  5
9B
  8
1
  6
CONTINUOUS
 62
     7
 10
53.99999999999993
 20
92.70535283853786
 30
0.0
 11
75.99999999999994
 21
92.70535283853786
 31
0.0
  0
LINE
  5
9C
  8
1
  6
CONTINUOUS
 62
     7
 10
78.49999999999993
 20
136.7053528385379
 30
0.0
 11
64.99999999999993
 21
136.7053528385379
 31
0.0
  0
LINE
  5
9D
  8
1
  6
CONTINUOUS
 62
     7
 10
64.99999999999993
 20
136.7053528385379
 30
0.0
 11
51.49999999999994
 21
136.7053528385379
 31
0.0
  0
LINE
  5
9E
  8
1
  6
CONTINUOUS
 62
     7
 10
71.63952809568063
 20
156.7053528385379
 30
0.0
 11
58.36047190431924
 21
156.7053528385379
 31
0.0
  0
LINE
  5
9F
  8
1
  6
CONTINUOUS
 62
     7
 10
58.36047190431924
 20
146.7053528385379
 30
0.0
 11
64.99999999999993
 21
146.7053528385379
 31
0.0
  0
LINE
  5
A0
  8
1
  6
CONTINUOUS
 62
     7
 10
64.99999999999993
 20
146.7053528385379
 30
0.0
 11
71.63952809568063
 21
146.7053528385379
 31
0.0
  0
LINE
  5
A1
  8
1
  6
CONTINUOUS
 62
     7
 10
56.62842109675036
 20
156.7053528385379
 30
0.0
 11
58.36047190431924
 21
156.7053528385379
 31
0.0
  0
LINE
  5
A2
  8
1
  6
CONTINUOUS
 62
     7
 10
58.36047190431924
 20
146.7053528385379
 30
0.0
 11
56.62842109675036
 21
146.7053528385379
 31
0.0
  0
LINE
  5
A3
  8
1
  6
CONTINUOUS
 62
     7
 10
76.49999999999991
 20
136.6878991029564
 30
0.0
 11
64.99999999999993
 21
136.6878991029564
 31
0.0
  0
LINE
  5
A4
  8
1
  6
CONTINUOUS
 62
     7
 10
64.99999999999993
 20
136.6878991029564
 30
0.0
 11
53.49999999999995
 21
136.6878991029564
 31
0.0
  0
LINE
  5
A5
  8
1
  6
CONTINUOUS
 62
     7
 10
71.63952809568063
 20
156.7053528385379
 30
0.0
 11
73.37157890324951
 21
156.7053528385379
 31
0.0
  0
LINE
  5
A6
  8
1
  6
CONTINUOUS
 62
     7
 10
73.37157890324951
 20
146.7053528385379
 30
0.0
 11
71.63952809568063
 21
146.7053528385379
 31
0.0
  0
LINE
  5
A7
  8
1
  6
CONTINUOUS
 62
     7
 10
49.98889300106966
 20
146.7053528385379
 30
0.0
 11
53.30865704891
 21
146.7053528385379
 31
0.0
  0
LINE
  5
A8
  8
1
  6
CONTINUOUS
 62
     7
 10
56.62842109675036
 20
156.7053528385379
 30
0.0
 11
49.98889300106966
 21
156.7053528385379
 31
0.0
  0
LINE
  5
A9
  8
1
  6
CONTINUOUS
 62
     7
 10
53.30865704891
 20
146.7053528385379
 30
0.0
 11
56.62842109675036
 21
146.7053528385379
 31
0.0
  0
LINE
  5
AA
  8
1
  6
CONTINUOUS
 62
     7
 10
76.69134295108987
 20
146.7053528385379
 30
0.0
 11
80.0111069989302
 21
146.7053528385379
 31
0.0
  0
LINE
  5
AB
  8
1
  6
CONTINUOUS
 62
     7
 10
80.0111069989302
 20
156.7053528385379
 30
0.0
 11
73.37157890324951
 21
156.7053528385379
 31
0.0
  0
LINE
  5
AC
  8
1
  6
CONTINUOUS
 62
     7
 10
73.37157890324951
 20
146.7053528385379
 30
0.0
 11
76.69134295108987
 21
146.7053528385379
 31
0.0
  0
LINE
  5
AD
  8
1
  6
CONTINUOUS
 62
     7
 10
68.09999999999992
 20
130.3053528385379
 30
0.0
 11
61.89999999999993
 21
130.3053528385379
 31
0.0
  0
LINE
  5
AE
  8
1
  6
CONTINUOUS
 62
     7
 10
68.09999999999994
 20
127.7913898500726
 30
0.0
 11
61.89999999999993
 21
127.7913898500726
 31
0.0
  0
LINE
  5
AF
  8
1
  6
CONTINUOUS
 62
     7
 10
68.09999999999994
 20
131.0553528385379
 30
0.0
 11
64.99999999999993
 21
131.0553528385379
 31
0.0
  0
LINE
  5
B0
  8
1
  6
CONTINUOUS
 62
     7
 10
64.99999999999993
 20
131.0553528385379
 30
0.0
 11
61.89999999999993
 21
131.0553528385379
 31
0.0
  0
LINE
  5
B1
  8
1
  6
CONTINUOUS
 62
     7
 10
68.09999999999994
 20
131.0675704534449
 30
0.0
 11
64.99999999999993
 21
131.0675704534449
 31
0.0
  0
LINE
  5
B2
  8
1
  6
CONTINUOUS
 62
     7
 10
64.99999999999993
 20
131.0675704534449
 30
0.0
 11
61.89999999999993
 21
131.0675704534449
 31
0.0
  0
LINE
  5
B3
  8
1
  6
CONTINUOUS
 62
     7
 10
49.72094380863854
 20
156.7053528385379
 30
0.0
 11
49.98889300106966
 21
156.7053528385379
 31
0.0
  0
LINE
  5
B4
  8
1
  6
CONTINUOUS
 62
     7
 10
49.98889300106966
 20
146.7053528385379
 30
0.0
 11
49.72094380863854
 21
146.7053528385379
 31
0.0
  0
LINE
  5
B5
  8
1
  6
CONTINUOUS
 62
     7
 10
80.27905619136132
 20
146.7053528385379
 30
0.0
 11
80.0111069989302
 21
146.7053528385379
 31
0.0
  0
LINE
  5
B6
  8
1
  6
CONTINUOUS
 62
     7
 10
80.0111069989302
 20
156.7053528385379
 30
0.0
 11
80.27905619136132
 21
156.7053528385379
 31
0.0
  0
LINE
  5
B7
  8
1
  6
CONTINUOUS
 62
     7
 10
51.49999999999994
 20
136.4053528385379
 30
0.0
 11
51.49999999999994
 21
127.0053528385379
 31
0.0
  0
LINE
  5
B8
  8
1
  6
CONTINUOUS
 62
     7
 10
78.49999999999993
 20
127.0053528385379
 30
0.0
 11
78.49999999999993
 21
136.4053528385379
 31
0.0
  0
LINE
  5
B9
  8
1
  6
CONTINUOUS
 62
     7
 10
51.49999999999994
 20
127.0053528385379
 30
0.0
 11
52.79999999999993
 21
125.7053528385379
 31
0.0
  0
LINE
  5
BA
  8
1
  6
CONTINUOUS
 62
     7
 10
77.19999999999993
 20
125.7053528385379
 30
0.0
 11
78.49999999999993
 21
127.0053528385379
 31
0.0
  0
LINE
  5
BB
  8
1
  6
CONTINUOUS
 62
     7
 10
52.79999999999992
 20
119.9053528385379
 30
0.0
 11
53.99999999999992
 21
118.7053528385379
 31
0.0
  0
LINE
  5
BC
  8
1
  6
CONTINUOUS
 62
     7
 10
75.99999999999994
 20
118.7053528385379
 30
0.0
 11
77.19999999999993
 21
119.9053528385379
 31
0.0
  0
LINE
  5
BD
  8
1
  6
CONTINUOUS
 62
     7
 10
52.79999999999992
 20
125.7053528385379
 30
0.0
 11
52.79999999999992
 21
119.9053528385379
 31
0.0
  0
LINE
  5
BE
  8
1
  6
CONTINUOUS
 62
     7
 10
77.19999999999993
 20
119.9053528385379
 30
0.0
 11
77.19999999999993
 21
125.7053528385379
 31
0.0
  0
LINE
  5
BF
  8
1
  6
CONTINUOUS
 62
     7
 10
53.99999999999993
 20
118.7053528385379
 30
0.0
 11
53.99999999999993
 21
92.70535283853786
 31
0.0
  0
LINE
  5
C0
  8
1
  6
CONTINUOUS
 62
     7
 10
75.99999999999993
 20
92.70535283853786
 30
0.0
 11
75.99999999999993
 21
118.7053528385379
 31
0.0
  0
LINE
  5
C1
  8
1
  6
CONTINUOUS
 62
     7
 10
78.49999999999993
 20
136.7053528385379
 30
0.0
 11
78.49999999999993
 21
146.7053528385379
 31
0.0
  0
LINE
  5
C2
  8
1
  6
CONTINUOUS
 62
     7
 10
51.49999999999993
 20
146.7053528385379
 30
0.0
 11
51.49999999999993
 21
136.7053528385379
 31
0.0
  0
LINE
  5
C3
  8
1
  6
CONTINUOUS
 62
     7
 10
51.49999999999994
 20
136.7053528385379
 30
0.0
 11
53.49999999999998
 21
136.6878991029564
 31
0.0
  0
LINE
  5
C4
  8
1
  6
CONTINUOUS
 62
     7
 10
76.49999999999989
 20
136.6878991029564
 30
0.0
 11
78.49999999999993
 21
136.7053528385379
 31
0.0
  0
LINE
  5
C5
  8
1
  6
CONTINUOUS
 62
     7
 10
76.49999999999993
 20
136.4053528385379
 30
0.0
 11
76.49999999999993
 21
136.6878991029564
 31
0.0
  0
LINE
  5
C6
  8
1
  6
CONTINUOUS
 62
     7
 10
53.49999999999994
 20
136.6878991029564
 30
0.0
 11
53.49999999999994
 21
136.4053528385379
 31
0.0
  0
LINE
  5
C7
  8
1
  6
CONTINUOUS
 62
     7
 10
49.72094380863854
 20
156.7053528385379
 30
0.0
 11
49.72094380863854
 21
146.7053528385379
 31
0.0
  0
LINE
  5
C8
  8
1
  6
CONTINUOUS
 62
     7
 10
80.27905619136132
 20
146.7053528385379
 30
0.0
 11
80.27905619136132
 21
156.7053528385379
 31
0.0
  0
ENDBLK
  8
0
  0
ENDSEC
  0
SECTION
  2
ENTITIES
  0
TEXT
  5
70
  8
1
  6
CONTINUOUS
 62
     7
 10
59.79225959734894
 20
83.32842003251224
 30
0.0
 40
3.0
  1
DA-UMN
  0
INSERT
  5
8D
  8
1
  6
DOT
 62
     7
  2
D_FRAME_VIEW_1482
 10
0.0
 20
0.0
 30
0.0
  0
INSERT
  5
C9
  8
1
  6
DOT
 62
     7
  2
D_FRAME_VIEW_1617
 10
0.0
 20
0.0
 30
0.0
  0
ENDSEC
  0
EOF
