  0
SECTION
  2
HEADER
  9
$ACADVER
  1
AC1006
  9
$DWGCODEPAGE
  3
ansi_932
  9
$INSBASE
 10
0.0
 20
0.0
 30
0.0
  9
$EXTMIN
 10
45.22094380863859
 20
90.02727272727282
  9
$EXTMAX
 10
168.7903361757864
 20
240.7456890143243
  9
$LIMMIN
 10
0.0
 20
0.0
  9
$LIMMAX
 10
12.0
 20
9.0
  9
$ORTHOMODE
 70
     0
  9
$REGENMODE
 70
     1
  9
$FILLMODE
 70
     1
  9
$QTEXTMODE
 70
     0
  9
$MIRRTEXT
 70
     1
  9
$DRAGMODE
 70
     2
  9
$LTSCALE
 40
1.0
  9
$OSMODE
 70
    37
  9
$ATTMODE
 70
     1
  9
$TEXTSIZE
 40
0.2
  9
$TRACEWID
 40
0.05
  9
$TEXTSTYLE
  7
STANDARD
  9
$CLAYER
  8
0
  9
$CELTYPE
  6
BYLAYER
  9
$CECOLOR
 62
   256
  9
$DIMSCALE
 40
1.0
  9
$DIMASZ
 40
3.0
  9
$DIMEXO
 40
0.0625
  9
$DIMDLI
 40
0.38
  9
$DIMRND
 40
0.0
  9
$DIMDLE
 40
0.0
  9
$DIMEXE
 40
1.5
  9
$DIMTP
 40
0.0
  9
$DIMTM
 40
0.0
  9
$DIMTXT
 40
3.0
  9
$DIMCEN
 40
0.09
  9
$DIMTSZ
 40
0.0
  9
$DIMTOL
 70
     0
  9
$DIMLIM
 70
     0
  9
$DIMTIH
 70
     1
  9
$DIMTOH
 70
     1
  9
$DIMSE1
 70
     0
  9
$DIMSE2
 70
     0
  9
$DIMTAD
 70
     1
  9
$DIMZIN
 70
     0
  9
$DIMBLK
  1

  9
$DIMASO
 70
     1
  9
$DIMSHO
 70
     1
  9
$DIMPOST
  1

  9
$DIMAPOST
  1

  9
$DIMALT
 70
     0
  9
$DIMALTD
 70
     2
  9
$DIMALTF
 40
25.4
  9
$DIMLFAC
 40
1.0
  9
$DIMTOFL
 70
     0
  9
$DIMTVP
 40
0.0
  9
$DIMTIX
 70
     0
  9
$DIMSOXD
 70
     0
  9
$DIMSAH
 70
     0
  9
$DIMBLK1
  1

  9
$DIMBLK2
  1

  9
$LUNITS
 70
     2
  9
$LUPREC
 70
     4
  9
$SKETCHINC
 40
0.1
  9
$FILLETRAD
 40
0.5
  9
$AUNITS
 70
     0
  9
$AUPREC
 70
     0
  9
$MENU
  1
.
  9
$ELEVATION
 40
0.0
  9
$THICKNESS
 40
0.0
  9
$LIMCHECK
 70
     0
  9
$CHAMFERA
 40
0.0
  9
$CHAMFERB
 40
0.0
  9
$SKPOLY
 70
     0
  9
$TDCREATE
 40
2460605.615895324
  9
$TDUPDATE
 40
2460605.615895382
  9
$TDINDWG
 40
0.0000000116
  9
$TDUSRTIMER
 40
0.0000000116
  9
$USRTIMER
 70
     1
  9
$ANGBASE
 50
0.0
  9
$ANGDIR
 70
     0
  9
$PDMODE
 70
     0
  9
$PDSIZE
 40
0.0
  9
$PLINEWID
 40
0.0
  9
$COORDS
 70
     1
  9
$SPLFRAME
 70
     0
  9
$SPLINETYPE
 70
     6
  9
$SPLINESEGS
 70
     8
  9
$ATTDIA
 70
     0
  9
$ATTREQ
 70
     1
  9
$HANDLING
 70
     1
  9
$HANDSEED
  5
1D2
  9
$SURFTAB1
 70
     6
  9
$SURFTAB2
 70
     6
  9
$SURFTYPE
 70
     6
  9
$SURFU
 70
     6
  9
$SURFV
 70
     6
  9
$UCSNAME
  2

  9
$UCSORG
 10
0.0
 20
0.0
 30
0.0
  9
$UCSXDIR
 10
1.0
 20
0.0
 30
0.0
  9
$UCSYDIR
 10
0.0
 20
1.0
 30
0.0
  9
$USERI1
 70
     0
  9
$USERI2
 70
     0
  9
$USERI3
 70
     0
  9
$USERI4
 70
     0
  9
$USERI5
 70
     0
  9
$USERR1
 40
0.0
  9
$USERR2
 40
0.0
  9
$USERR3
 40
0.0
  9
$USERR4
 40
0.0
  9
$USERR5
 40
0.0
  9
$WORLDVIEW
 70
     1
  0
ENDSEC
  0
SECTION
  2
TABLES
  0
TABLE
  2
VPORT
 70
     1
  0
VPORT
  2
*ACTIVE
 70
     0
 10
0.0
 20
0.0
 11
1.0
 21
1.0
 12
107.0056399922125
 22
165.3864808707986
 13
0.0
 23
0.0
 14
0.5
 24
0.5
 15
0.5
 25
0.5
 16
0.0
 26
0.0
 36
1.0
 17
0.0
 27
0.0
 37
0.0
 40
150.7184162870515
 41
1.6
 42
50.0
 43
0.0
 44
0.0
 50
0.0
 51
0.0
 71
     0
 72
   100
 73
     1
 74
     3
 75
     0
 76
     0
 77
     0
 78
     0
  0
ENDTAB
  0
TABLE
  2
LTYPE
 70
     3
  0
LTYPE
  2
CONTINUOUS
 70
     0
  3
Solid line
 72
    65
 73
     0
 40
0.0
  0
LTYPE
  2
DOT
 70
     0
  3

 72
    65
 73
     0
 40
0.0
  0
LTYPE
  2
CENTER
 70
     0
  3

 72
    65
 73
     0
 40
0.0
  0
ENDTAB
  0
TABLE
  2
LAYER
 70
     3
  0
LAYER
  2
0
 70
     0
 62
     7
  6
CONTINUOUS
  0
LAYER
  2
1
 70
     0
 62
     7
  6
CONTINUOUS
  0
LAYER
  2
2
 70
     0
 62
     7
  6
CONTINUOUS
  0
ENDTAB
  0
TABLE
  2
STYLE
 70
     2
  0
STYLE
  2
STANDARD
 70
     0
 40
0.0
 41
1.0
 50
0.0
 71
     0
 42
0.2
  3
txt
  4

  0
STYLE
  2
ＭＳ_ゴシック
 70
     0
 40
0.0
 41
1.0
 50
0.0
 71
     0
 42
0.2
  3
ＭＳ ゴシック.shx
  4

  0
ENDTAB
  0
TABLE
  2
VIEW
 70
     0
  0
ENDTAB
  0
TABLE
  2
UCS
 70
     0
  0
ENDTAB
  0
ENDSEC
  0
SECTION
  2
BLOCKS
  0
BLOCK
  8
0
  2
D_FRAME_VIEW_1482
 70
     0
 10
0.0
 20
0.0
 30
0.0
  0
POLYLINE
  5
72
  8
1
  6
CONTINUOUS
 62
     7
 66
     1
 10
0.0
 20
0.0
 30
0.0
  0
VERTEX
  5
12F
  8
1
  6
CONTINUOUS
 62
     7
 10
51.49999999999999
 20
204.0324855787279
 30
0.0
  0
VERTEX
  5
130
  8
1
  6
CONTINUOUS
 62
     7
 10
51.71136191556445
 20
202.5150389926717
 30
0.0
  0
VERTEX
  5
131
  8
1
  6
CONTINUOUS
 62
     7
 10
52.33732514237583
 20
201.0559070279238
 30
0.0
  0
VERTEX
  5
132
  8
1
  6
CONTINUOUS
 62
     7
 10
53.35383426467199
 20
199.7111633075988
 30
0.0
  0
VERTEX
  5
133
  8
1
  6
CONTINUOUS
 62
     7
 10
54.72182540694796
 20
198.5324855787279
 30
0.0
  0
VERTEX
  5
134
  8
1
  6
CONTINUOUS
 62
     7
 10
56.38872743678436
 20
197.5651697654214
 30
0.0
  0
VERTEX
  5
135
  8
1
  6
CONTINUOUS
 62
     7
 10
58.29048224398399
 20
196.8463892719078
 30
0.0
  0
VERTEX
  5
136
  8
1
  6
CONTINUOUS
 62
     7
 10
60.35400645782257
 20
196.4037664294561
 30
0.0
  0
VERTEX
  5
137
  8
1
  6
CONTINUOUS
 62
     7
 10
62.49999999999998
 20
196.2543109856759
 30
0.0
  0
VERTEX
  5
138
  8
1
  6
CONTINUOUS
 62
     7
 10
64.6459935421774
 20
196.4037664294561
 30
0.0
  0
VERTEX
  5
139
  8
1
  6
CONTINUOUS
 62
     7
 10
66.70951775601597
 20
196.8463892719078
 30
0.0
  0
VERTEX
  5
13A
  8
1
  6
CONTINUOUS
 62
     7
 10
68.61127256321559
 20
197.5651697654214
 30
0.0
  0
VERTEX
  5
13B
  8
1
  6
CONTINUOUS
 62
     7
 10
70.278174593052
 20
198.5324855787279
 30
0.0
  0
VERTEX
  5
13C
  8
1
  6
CONTINUOUS
 62
     7
 10
71.64616573532797
 20
199.7111633075988
 30
0.0
  0
VERTEX
  5
13D
  8
1
  6
CONTINUOUS
 62
     7
 10
72.66267485762413
 20
201.0559070279238
 30
0.0
  0
VERTEX
  5
13E
  8
1
  6
CONTINUOUS
 62
     7
 10
73.28863808443552
 20
202.5150389926717
 30
0.0
  0
VERTEX
  5
13F
  8
1
  6
CONTINUOUS
 62
     7
 10
73.49999999999997
 20
204.0324855787279
 30
0.0
  0
SEQEND
  5
1C7
  8
1
  6
CONTINUOUS
 62
     7
  0
POLYLINE
  5
73
  8
1
  6
CONTINUOUS
 62
     7
 66
     1
 10
0.0
 20
0.0
 30
0.0
  0
VERTEX
  5
140
  8
1
  6
CONTINUOUS
 62
     7
 10
69.2701939652524
 20
224.0203133745074
 30
0.0
  0
VERTEX
  5
141
  8
1
  6
CONTINUOUS
 62
     7
 10
68.6563099562127
 20
224.9741078154059
 30
0.0
  0
VERTEX
  5
142
  8
1
  6
CONTINUOUS
 62
     7
 10
67.77717648198035
 20
225.8177385349796
 30
0.0
  0
VERTEX
  5
143
  8
1
  6
CONTINUOUS
 62
     7
 10
66.67067170098657
 20
226.5148570389553
 30
0.0
  0
VERTEX
  5
144
  8
1
  6
CONTINUOUS
 62
     7
 10
65.38447024356664
 20
227.0354274273099
 30
0.0
  0
VERTEX
  5
145
  8
1
  6
CONTINUOUS
 62
     7
 10
63.97398911294765
 20
227.3570205146893
 30
0.0
  0
VERTEX
  5
146
  8
1
  6
CONTINUOUS
 62
     7
 10
62.49999999999998
 20
227.4657802095314
 30
0.0
  0
SEQEND
  5
1C8
  8
1
  6
CONTINUOUS
 62
     7
  0
POLYLINE
  5
74
  8
1
  6
CONTINUOUS
 62
     7
 66
     1
 10
0.0
 20
0.0
 30
0.0
  0
VERTEX
  5
147
  8
1
  6
CONTINUOUS
 62
     7
 10
62.49999999999998
 20
227.4657802095314
 30
0.0
  0
VERTEX
  5
148
  8
1
  6
CONTINUOUS
 62
     7
 10
61.02601088705231
 20
227.3570205146893
 30
0.0
  0
VERTEX
  5
149
  8
1
  6
CONTINUOUS
 62
     7
 10
59.61552975643333
 20
227.0354274273099
 30
0.0
  0
VERTEX
  5
14A
  8
1
  6
CONTINUOUS
 62
     7
 10
58.3293282990134
 20
226.5148570389553
 30
0.0
  0
VERTEX
  5
14B
  8
1
  6
CONTINUOUS
 62
     7
 10
57.22282351801963
 20
225.8177385349796
 30
0.0
  0
VERTEX
  5
14C
  8
1
  6
CONTINUOUS
 62
     7
 10
56.34369004378728
 20
224.9741078154059
 30
0.0
  0
VERTEX
  5
14D
  8
1
  6
CONTINUOUS
 62
     7
 10
55.72980603474755
 20
224.0203133745074
 30
0.0
  0
SEQEND
  5
1C9
  8
1
  6
CONTINUOUS
 62
     7
  0
LINE
  5
75
  8
1
  6
CONTINUOUS
 62
     7
 10
72.39663169092383
 20
225.2456890143243
 30
0.0
 11
71.81675012565069
 21
225.2456890143243
 31
0.0
  0
LINE
  5
76
  8
1
  6
CONTINUOUS
 62
     7
 10
62.52254981493199
 20
235.7231647482903
 30
0.0
 11
62.66419861612954
 21
235.7119180034082
 31
0.0
  0
LINE
  5
77
  8
1
  6
CONTINUOUS
 62
     7
 10
62.66419861612954
 20
235.7119180034082
 30
0.0
 11
63.78847208647522
 21
235.5551468221094
 31
0.0
  0
ARC
  5
78
  8
1
  6
CONTINUOUS
 62
     7
 10
61.90717421065245
 20
225.2357701492318
 30
0.0
 40
10.48946216992586
 50
0.0541790592164944
 51
79.66802729123502
  0
ARC
  5
79
  8
1
  6
CONTINUOUS
 62
     7
 10
62.56245104152691
 20
224.6218713829236
 30
0.0
 40
9.853946289797749
 50
269.5285958215495
 51
3.629615334114987
  0
ARC
  5
7A
  8
1
  6
CONTINUOUS
 62
     7
 10
55.86047190431928
 20
236.7456890143243
 30
0.0
 40
2.000000000000002
 50
90.00000000000001
 51
150.0
  0
LINE
  5
7B
  8
1
  6
CONTINUOUS
 62
     7
 10
55.86047190431928
 20
238.7456890143243
 30
0.0
 11
69.13952809568067
 21
238.7456890143243
 31
0.0
  0
ARC
  5
7C
  8
1
  6
CONTINUOUS
 62
     7
 10
69.13952809568067
 20
236.7456890143243
 30
0.0
 40
2.000000000000002
 50
29.99999999999994
 51
90.0
  0
LINE
  5
7D
  8
1
  6
CONTINUOUS
 62
     7
 10
70.87157890324954
 20
237.7456890143243
 30
0.0
 11
77.51110699893025
 21
226.2456890143243
 31
0.0
  0
ARC
  5
7E
  8
1
  6
CONTINUOUS
 62
     7
 10
75.77905619136136
 20
225.2456890143243
 30
0.0
 40
2.000000000000008
 50
330.0
 51
30.0
  0
LINE
  5
7F
  8
1
  6
CONTINUOUS
 62
     7
 10
77.51110699893026
 20
224.2456890143243
 30
0.0
 11
70.87157890324954
 21
212.7456890143243
 31
0.0
  0
ARC
  5
80
  8
1
  6
CONTINUOUS
 62
     7
 10
69.13952809568067
 20
213.7456890143243
 30
0.0
 40
2.000000000000002
 50
270.0
 51
330.0
  0
LINE
  5
81
  8
1
  6
CONTINUOUS
 62
     7
 10
69.13952809568067
 20
211.7456890143243
 30
0.0
 11
55.86047190431929
 21
211.7456890143243
 31
0.0
  0
ARC
  5
82
  8
1
  6
CONTINUOUS
 62
     7
 10
55.86047190431929
 20
213.7456890143243
 30
0.0
 40
2.000000000000002
 50
210.0
 51
270.0
  0
LINE
  5
83
  8
1
  6
CONTINUOUS
 62
     7
 10
54.1284210967504
 20
212.7456890143243
 30
0.0
 11
47.48889300106971
 21
224.2456890143243
 31
0.0
  0
ARC
  5
84
  8
1
  6
CONTINUOUS
 62
     7
 10
49.22094380863859
 20
225.2456890143243
 30
0.0
 40
2.000000000000008
 50
150.0000000000001
 51
210.0
  0
LINE
  5
85
  8
1
  6
CONTINUOUS
 62
     7
 10
47.48889300106971
 20
226.2456890143243
 30
0.0
 11
54.1284210967504
 21
237.7456890143243
 31
0.0
  0
ARC
  5
86
  8
1
  6
CONTINUOUS
 62
     7
 10
62.49999999999998
 20
225.2456890143243
 30
0.0
 40
10.4775
 50
89.87668716565555
 51
269.8981661745646
  0
LINE
  5
87
  8
1
  6
CONTINUOUS
 62
     9
 10
53.18325077411657
 20
225.2456890143243
 30
0.0
 11
52.02249999999997
 21
225.2456890143243
 31
0.0
  0
LINE
  5
88
  8
1
  6
CONTINUOUS
 62
     9
 10
62.67929235275999
 20
211.4468537644838
 30
0.0
 11
62.67929235275999
 21
211.7456890143243
 31
0.0
  0
LINE
  5
89
  8
1
  6
CONTINUOUS
 62
     7
 10
54.8530774587897
 20
232.4081956668521
 30
0.0
 11
54.77487990727789
 21
232.3237314653886
 31
0.0
  0
CIRCLE
  5
8A
  8
1
  6
CONTINUOUS
 62
     7
 10
62.49999999999998
 20
225.2456890143243
 30
0.0
 40
9.000000000000007
  0
CIRCLE
  5
8B
  8
1
  6
CONTINUOUS
 62
     7
 10
62.49999999999998
 20
225.2456890143243
 30
0.0
 40
6.880194167739551
  0
LINE
  5
8C
  8
1
  6
CONTINUOUS
 62
     7
 10
51.49999999999998
 20
217.2982478975819
 30
0.0
 11
51.49999999999998
 21
204.0324855787279
 31
0.0
  0
LINE
  5
8D
  8
1
  6
CONTINUOUS
 62
     7
 10
73.49999999999999
 20
204.0324855787279
 30
0.0
 11
73.49999999999999
 21
217.298247897582
 31
0.0
  0
LINE
  5
8E
  8
1
  6
CONTINUOUS
 62
     7
 10
62.508142861899
 20
235.7242043168887
 30
0.0
 11
62.66571646144292
 21
235.711753351252
 31
0.0
  0
ARC
  5
8F
  8
1
  6
CONTINUOUS
 62
     7
 10
61.99538452963053
 20
225.8757162868605
 30
0.0
 40
9.84155254744152
 50
356.3295826468709
 51
79.50516235594705
  0
ARC
  5
90
  8
1
  6
CONTINUOUS
 62
     7
 10
62.49999999999998
 20
225.2457359472257
 30
0.0
 40
9.316749226001633
 50
180.000288626119
 51
359.9997113738809
  0
ARC
  5
91
  8
1
  6
CONTINUOUS
 62
     7
 10
62.49999999999998
 20
225.2456420814229
 30
0.0
 40
9.316749226001626
 50
0.0002886261191293
 51
179.9997113738809
  0
ARC
  5
92
  8
1
  6
CONTINUOUS
 62
     7
 10
62.49999999999998
 20
225.2457358828788
 30
0.0
 40
9.316749235553496
 50
180.0002882304003
 51
359.9997117695995
  0
ENDBLK
  8
0
  0
BLOCK
  8
0
  2
D_FRAME_VIEW_1636
 70
     0
 10
0.0
 20
0.0
 30
0.0
  0
POLYLINE
  5
A1
  8
1
  6
CONTINUOUS
 62
     7
 66
     1
 10
0.0
 20
0.0
 30
0.0
  0
VERTEX
  5
14E
  8
1
  6
CONTINUOUS
 62
     7
 10
51.49999999999997
 20
106.4878384172657
 30
0.0
  0
VERTEX
  5
14F
  8
1
  6
CONTINUOUS
 62
     7
 10
51.71136191556444
 20
104.9703918312095
 30
0.0
  0
VERTEX
  5
150
  8
1
  6
CONTINUOUS
 62
     7
 10
52.33732514237582
 20
103.5112598664616
 30
0.0
  0
VERTEX
  5
151
  8
1
  6
CONTINUOUS
 62
     7
 10
53.35383426467197
 20
102.1665161461367
 30
0.0
  0
VERTEX
  5
152
  8
1
  6
CONTINUOUS
 62
     7
 10
54.72182540694795
 20
100.9878384172657
 30
0.0
  0
VERTEX
  5
153
  8
1
  6
CONTINUOUS
 62
     7
 10
56.38872743678435
 20
100.0205226039593
 30
0.0
  0
VERTEX
  5
154
  8
1
  6
CONTINUOUS
 62
     7
 10
58.29048224398399
 20
99.30174211044564
 30
0.0
  0
VERTEX
  5
155
  8
1
  6
CONTINUOUS
 62
     7
 10
60.35400645782256
 20
98.8591192679939
 30
0.0
  0
VERTEX
  5
156
  8
1
  6
CONTINUOUS
 62
     7
 10
62.49999999999997
 20
98.70966382421369
 30
0.0
  0
SEQEND
  5
1CA
  8
1
  6
CONTINUOUS
 62
     7
  0
POLYLINE
  5
A2
  8
1
  6
CONTINUOUS
 62
     7
 66
     1
 10
0.0
 20
0.0
 30
0.0
 70
     1
  0
VERTEX
  5
157
  8
1
  6
CONTINUOUS
 62
     7
 10
52.34999999999997
 20
106.4878384172657
 30
0.0
  0
VERTEX
  5
158
  8
1
  6
CONTINUOUS
 62
     7
 10
52.54502940390719
 20
105.0876490674048
 30
0.0
  0
VERTEX
  5
159
  8
1
  6
CONTINUOUS
 62
     7
 10
53.12262274501041
 20
103.7412682090238
 30
0.0
  0
VERTEX
  5
15A
  8
1
  6
CONTINUOUS
 62
     7
 10
54.06058343512914
 20
102.5004365034512
 30
0.0
  0
VERTEX
  5
15B
  8
1
  6
CONTINUOUS
 62
     7
 10
55.32286617095652
 20
101.4128384172657
 30
0.0
  0
VERTEX
  5
15C
  8
1
  6
CONTINUOUS
 62
     7
 10
56.86096213485101
 20
100.5202697349875
 30
0.0
  0
VERTEX
  5
15D
  8
1
  6
CONTINUOUS
 62
     7
 10
58.61576316149431
 20
99.8570313705181
 30
0.0
  0
VERTEX
  5
15E
  8
1
  6
CONTINUOUS
 62
     7
 10
60.51983323153627
 20
99.44861120225582
 30
0.0
  0
VERTEX
  5
15F
  8
1
  6
CONTINUOUS
 62
     7
 10
62.49999999999997
 20
99.31070458822226
 30
0.0
  0
VERTEX
  5
160
  8
1
  6
CONTINUOUS
 62
     7
 10
64.48016676846368
 20
99.44861120225582
 30
0.0
  0
VERTEX
  5
161
  8
1
  6
CONTINUOUS
 62
     7
 10
66.38423683850563
 20
99.8570313705181
 30
0.0
  0
VERTEX
  5
162
  8
1
  6
CONTINUOUS
 62
     7
 10
68.13903786514894
 20
100.5202697349875
 30
0.0
  0
VERTEX
  5
163
  8
1
  6
CONTINUOUS
 62
     7
 10
69.67713382904343
 20
101.4128384172657
 30
0.0
  0
VERTEX
  5
164
  8
1
  6
CONTINUOUS
 62
     7
 10
70.93941656487081
 20
102.5004365034512
 30
0.0
  0
VERTEX
  5
165
  8
1
  6
CONTINUOUS
 62
     7
 10
71.87737725498954
 20
103.7412682090238
 30
0.0
  0
VERTEX
  5
166
  8
1
  6
CONTINUOUS
 62
     7
 10
72.45497059609276
 20
105.0876490674048
 30
0.0
  0
VERTEX
  5
167
  8
1
  6
CONTINUOUS
 62
     7
 10
72.64999999999998
 20
106.4878384172657
 30
0.0
  0
VERTEX
  5
168
  8
1
  6
CONTINUOUS
 62
     7
 10
72.45497059609275
 20
107.8880277671267
 30
0.0
  0
VERTEX
  5
169
  8
1
  6
CONTINUOUS
 62
     7
 10
71.87737725498953
 20
109.2344086255077
 30
0.0
  0
VERTEX
  5
16A
  8
1
  6
CONTINUOUS
 62
     7
 10
70.9394165648708
 20
110.4752403310803
 30
0.0
  0
VERTEX
  5
16B
  8
1
  6
CONTINUOUS
 62
     7
 10
69.67713382904341
 20
111.5628384172657
 30
0.0
  0
VERTEX
  5
16C
  8
1
  6
CONTINUOUS
 62
     7
 10
68.13903786514892
 20
112.455407099544
 30
0.0
  0
VERTEX
  5
16D
  8
1
  6
CONTINUOUS
 62
     7
 10
66.38423683850561
 20
113.1186454640133
 30
0.0
  0
VERTEX
  5
16E
  8
1
  6
CONTINUOUS
 62
     7
 10
64.48016676846365
 20
113.5270656322756
 30
0.0
  0
VERTEX
  5
16F
  8
1
  6
CONTINUOUS
 62
     7
 10
62.49999999999994
 20
113.6649722463092
 30
0.0
  0
VERTEX
  5
170
  8
1
  6
CONTINUOUS
 62
     7
 10
60.51983323153625
 20
113.5270656322756
 30
0.0
  0
VERTEX
  5
171
  8
1
  6
CONTINUOUS
 62
     7
 10
58.61576316149429
 20
113.1186454640133
 30
0.0
  0
VERTEX
  5
172
  8
1
  6
CONTINUOUS
 62
     7
 10
56.86096213485099
 20
112.455407099544
 30
0.0
  0
VERTEX
  5
173
  8
1
  6
CONTINUOUS
 62
     7
 10
55.32286617095649
 20
111.5628384172657
 30
0.0
  0
VERTEX
  5
174
  8
1
  6
CONTINUOUS
 62
     7
 10
54.06058343512912
 20
110.4752403310802
 30
0.0
  0
VERTEX
  5
175
  8
1
  6
CONTINUOUS
 62
     7
 10
53.1226227450104
 20
109.2344086255076
 30
0.0
  0
VERTEX
  5
176
  8
1
  6
CONTINUOUS
 62
     7
 10
52.54502940390718
 20
107.8880277671266
 30
0.0
  0
SEQEND
  5
1CB
  8
1
  6
CONTINUOUS
 62
     7
  0
POLYLINE
  5
A3
  8
1
  6
CONTINUOUS
 62
     7
 66
     1
 10
0.0
 20
0.0
 30
0.0
  0
VERTEX
  5
177
  8
1
  6
CONTINUOUS
 62
     7
 10
62.49999999999997
 20
98.70966382421369
 30
0.0
  0
VERTEX
  5
178
  8
1
  6
CONTINUOUS
 62
     7
 10
64.64599354217738
 20
98.8591192679939
 30
0.0
  0
VERTEX
  5
179
  8
1
  6
CONTINUOUS
 62
     7
 10
66.70951775601596
 20
99.30174211044564
 30
0.0
  0
VERTEX
  5
17A
  8
1
  6
CONTINUOUS
 62
     7
 10
68.61127256321559
 20
100.0205226039593
 30
0.0
  0
VERTEX
  5
17B
  8
1
  6
CONTINUOUS
 62
     7
 10
70.27817459305199
 20
100.9878384172657
 30
0.0
  0
VERTEX
  5
17C
  8
1
  6
CONTINUOUS
 62
     7
 10
71.64616573532797
 20
102.1665161461367
 30
0.0
  0
VERTEX
  5
17D
  8
1
  6
CONTINUOUS
 62
     7
 10
72.66267485762413
 20
103.5112598664616
 30
0.0
  0
VERTEX
  5
17E
  8
1
  6
CONTINUOUS
 62
     7
 10
73.2886380844355
 20
104.9703918312095
 30
0.0
  0
VERTEX
  5
17F
  8
1
  6
CONTINUOUS
 62
     7
 10
73.49999999999997
 20
106.4878384172657
 30
0.0
  0
SEQEND
  5
1CC
  8
1
  6
CONTINUOUS
 62
     7
  0
POLYLINE
  5
A4
  8
1
  6
CONTINUOUS
 62
     7
 66
     1
 10
0.0
 20
0.0
 30
0.0
  0
VERTEX
  5
180
  8
1
  6
CONTINUOUS
 62
     7
 10
73.49999999999997
 20
106.4878384172657
 30
0.0
  0
VERTEX
  5
181
  8
1
  6
CONTINUOUS
 62
     7
 10
73.2886380844355
 20
108.0052850033219
 30
0.0
  0
VERTEX
  5
182
  8
1
  6
CONTINUOUS
 62
     7
 10
72.66267485762413
 20
109.4644169680698
 30
0.0
  0
VERTEX
  5
183
  8
1
  6
CONTINUOUS
 62
     7
 10
71.64616573532797
 20
110.8091606883948
 30
0.0
  0
VERTEX
  5
184
  8
1
  6
CONTINUOUS
 62
     7
 10
70.27817459305199
 20
111.9878384172657
 30
0.0
  0
VERTEX
  5
185
  8
1
  6
CONTINUOUS
 62
     7
 10
68.61127256321558
 20
112.9551542305722
 30
0.0
  0
VERTEX
  5
186
  8
1
  6
CONTINUOUS
 62
     7
 10
66.70951775601594
 20
113.6739347240858
 30
0.0
  0
VERTEX
  5
187
  8
1
  6
CONTINUOUS
 62
     7
 10
64.64599354217737
 20
114.1165575665375
 30
0.0
  0
VERTEX
  5
188
  8
1
  6
CONTINUOUS
 62
     7
 10
62.49999999999996
 20
114.2660130103177
 30
0.0
  0
VERTEX
  5
189
  8
1
  6
CONTINUOUS
 62
     7
 10
60.35400645782254
 20
114.1165575665375
 30
0.0
  0
VERTEX
  5
18A
  8
1
  6
CONTINUOUS
 62
     7
 10
58.29048224398397
 20
113.6739347240858
 30
0.0
  0
VERTEX
  5
18B
  8
1
  6
CONTINUOUS
 62
     7
 10
56.38872743678433
 20
112.9551542305722
 30
0.0
  0
VERTEX
  5
18C
  8
1
  6
CONTINUOUS
 62
     7
 10
54.72182540694793
 20
111.9878384172657
 30
0.0
  0
VERTEX
  5
18D
  8
1
  6
CONTINUOUS
 62
     7
 10
53.35383426467196
 20
110.8091606883948
 30
0.0
  0
VERTEX
  5
18E
  8
1
  6
CONTINUOUS
 62
     7
 10
52.33732514237581
 20
109.4644169680698
 30
0.0
  0
VERTEX
  5
18F
  8
1
  6
CONTINUOUS
 62
     7
 10
51.71136191556443
 20
108.0052850033219
 30
0.0
  0
VERTEX
  5
190
  8
1
  6
CONTINUOUS
 62
     7
 10
51.49999999999997
 20
106.4878384172657
 30
0.0
  0
SEQEND
  5
1CD
  8
1
  6
CONTINUOUS
 62
     7
  0
POLYLINE
  5
A5
  8
1
  6
CONTINUOUS
 62
     7
 66
     1
 10
0.0
 20
0.0
 30
0.0
  0
VERTEX
  5
191
  8
1
  6
CONTINUOUS
 62
     7
 10
73.49999999999997
 20
127.7010418528622
 30
0.0
  0
VERTEX
  5
192
  8
1
  6
CONTINUOUS
 62
     7
 10
73.2886380844355
 20
128.5899414827971
 30
0.0
  0
VERTEX
  5
193
  8
1
  6
CONTINUOUS
 62
     7
 10
72.66267485762413
 20
129.4446811984543
 30
0.0
  0
VERTEX
  5
194
  8
1
  6
CONTINUOUS
 62
     7
 10
71.64616573532797
 20
130.2324138319047
 30
0.0
  0
VERTEX
  5
195
  8
1
  6
CONTINUOUS
 62
     7
 10
70.27817459305199
 20
130.9228672598101
 30
0.0
  0
VERTEX
  5
196
  8
1
  6
CONTINUOUS
 62
     7
 10
68.61127256321558
 20
131.4895077441471
 30
0.0
  0
VERTEX
  5
197
  8
1
  6
CONTINUOUS
 62
     7
 10
66.70951775601594
 20
131.9105596088781
 30
0.0
  0
VERTEX
  5
198
  8
1
  6
CONTINUOUS
 62
     7
 10
64.64599354217737
 20
132.1698420669703
 30
0.0
  0
VERTEX
  5
199
  8
1
  6
CONTINUOUS
 62
     7
 10
62.49999999999996
 20
132.2573910389662
 30
0.0
  0
VERTEX
  5
19A
  8
1
  6
CONTINUOUS
 62
     7
 10
60.35400645782254
 20
132.1698420669703
 30
0.0
  0
VERTEX
  5
19B
  8
1
  6
CONTINUOUS
 62
     7
 10
58.29048224398397
 20
131.9105596088781
 30
0.0
  0
VERTEX
  5
19C
  8
1
  6
CONTINUOUS
 62
     7
 10
56.38872743678433
 20
131.4895077441471
 30
0.0
  0
VERTEX
  5
19D
  8
1
  6
CONTINUOUS
 62
     7
 10
54.72182540694793
 20
130.9228672598101
 30
0.0
  0
VERTEX
  5
19E
  8
1
  6
CONTINUOUS
 62
     7
 10
53.35383426467196
 20
130.2324138319047
 30
0.0
  0
VERTEX
  5
19F
  8
1
  6
CONTINUOUS
 62
     7
 10
52.33732514237581
 20
129.4446811984543
 30
0.0
  0
VERTEX
  5
1A0
  8
1
  6
CONTINUOUS
 62
     7
 10
51.71136191556443
 20
128.5899414827971
 30
0.0
  0
VERTEX
  5
1A1
  8
1
  6
CONTINUOUS
 62
     7
 10
51.49999999999997
 20
127.7010418528622
 30
0.0
  0
SEQEND
  5
1CE
  8
1
  6
CONTINUOUS
 62
     7
  0
POLYLINE
  5
A6
  8
1
  6
CONTINUOUS
 62
     7
 66
     1
 10
0.0
 20
0.0
 30
0.0
  0
VERTEX
  5
1A2
  8
1
  6
CONTINUOUS
 62
     7
 10
62.49999999999997
 20
113.6567667989622
 30
0.0
  0
VERTEX
  5
1A3
  8
1
  6
CONTINUOUS
 62
     7
 10
60.73010379808232
 20
113.534415494243
 30
0.0
  0
VERTEX
  5
1A4
  8
1
  6
CONTINUOUS
 62
     7
 10
59.02723127637157
 20
113.1719948657614
 30
0.0
  0
VERTEX
  5
1A5
  8
1
  6
CONTINUOUS
 62
     7
 10
57.45586801498514
 20
112.5832293140091
 30
0.0
  0
VERTEX
  5
1A6
  8
1
  6
CONTINUOUS
 62
     7
 10
56.07551950842939
 20
111.790414628996
 30
0.0
  0
VERTEX
  5
1A7
  8
1
  6
CONTINUOUS
 62
     7
 10
54.93845776947956
 20
110.8235736775174
 30
0.0
  0
VERTEX
  5
1A8
  8
1
  6
CONTINUOUS
 62
     7
 10
54.08774185565793
 20
109.7193194760162
 30
0.0
  0
VERTEX
  5
1A9
  8
1
  6
CONTINUOUS
 62
     7
 10
53.55558727841267
 20
108.5194687030006
 30
0.0
  0
VERTEX
  5
1AA
  8
1
  6
CONTINUOUS
 62
     7
 10
53.36214604336267
 20
107.2694581555095
 30
0.0
  0
SEQEND
  5
1CF
  8
1
  6
CONTINUOUS
 62
     7
  0
POLYLINE
  5
A7
  8
1
  6
CONTINUOUS
 62
     7
 66
     1
 10
0.0
 20
0.0
 30
0.0
  0
VERTEX
  5
1AB
  8
1
  6
CONTINUOUS
 62
     7
 10
71.63785395663727
 20
107.2694581555095
 30
0.0
  0
VERTEX
  5
1AC
  8
1
  6
CONTINUOUS
 62
     7
 10
71.44441272158727
 20
108.5194687030006
 30
0.0
  0
VERTEX
  5
1AD
  8
1
  6
CONTINUOUS
 62
     7
 10
70.91225814434202
 20
109.7193194760162
 30
0.0
  0
VERTEX
  5
1AE
  8
1
  6
CONTINUOUS
 62
     7
 10
70.06154223052039
 20
110.8235736775174
 30
0.0
  0
VERTEX
  5
1AF
  8
1
  6
CONTINUOUS
 62
     7
 10
68.92448049157055
 20
111.790414628996
 30
0.0
  0
VERTEX
  5
1B0
  8
1
  6
CONTINUOUS
 62
     7
 10
67.5441319850148
 20
112.5832293140091
 30
0.0
  0
VERTEX
  5
1B1
  8
1
  6
CONTINUOUS
 62
     7
 10
65.97276872362836
 20
113.1719948657614
 30
0.0
  0
VERTEX
  5
1B2
  8
1
  6
CONTINUOUS
 62
     7
 10
64.26989620191762
 20
113.534415494243
 30
0.0
  0
VERTEX
  5
1B3
  8
1
  6
CONTINUOUS
 62
     7
 10
62.49999999999996
 20
113.6567667989622
 30
0.0
  0
SEQEND
  5
1D0
  8
1
  6
CONTINUOUS
 62
     7
  0
POLYLINE
  5
A8
  8
1
  6
CONTINUOUS
 62
     7
 66
     1
 10
0.0
 20
0.0
 30
0.0
  0
VERTEX
  5
1B4
  8
1
  6
CONTINUOUS
 62
     7
 10
53.36214604336267
 20
107.2694581555095
 30
0.0
  0
VERTEX
  5
1B5
  8
1
  6
CONTINUOUS
 62
     7
 10
53.51958772903293
 20
105.9983011304367
 30
0.0
  0
VERTEX
  5
1B6
  8
1
  6
CONTINUOUS
 62
     7
 10
54.02721387746192
 20
104.7738045108821
 30
0.0
  0
VERTEX
  5
1B7
  8
1
  6
CONTINUOUS
 62
     7
 10
54.86522998649248
 20
103.6437166270926
 30
0.0
  0
VERTEX
  5
1B8
  8
1
  6
CONTINUOUS
 62
     7
 10
56.000958244453
 20
102.6521044112439
 30
0.0
  0
VERTEX
  5
1B9
  8
1
  6
CONTINUOUS
 62
     7
 10
57.39011177699367
 20
101.8376350403649
 30
0.0
  0
VERTEX
  5
1BA
  8
1
  6
CONTINUOUS
 62
     7
 10
58.97852158064293
 20
101.2320681386763
 30
0.0
  0
VERTEX
  5
1BB
  8
1
  6
CONTINUOUS
 62
     7
 10
60.70424880260111
 20
100.8590173347883
 30
0.0
  0
VERTEX
  5
1BC
  8
1
  6
CONTINUOUS
 62
     7
 10
62.49999999999999
 20
100.7330294659061
 30
0.0
  0
VERTEX
  5
1BD
  8
1
  6
CONTINUOUS
 62
     7
 10
64.29575119739886
 20
100.8590173347883
 30
0.0
  0
VERTEX
  5
1BE
  8
1
  6
CONTINUOUS
 62
     7
 10
66.02147841935704
 20
101.2320681386763
 30
0.0
  0
VERTEX
  5
1BF
  8
1
  6
CONTINUOUS
 62
     7
 10
67.6098882230063
 20
101.8376350403649
 30
0.0
  0
VERTEX
  5
1C0
  8
1
  6
CONTINUOUS
 62
     7
 10
68.99904175554697
 20
102.652104411244
 30
0.0
  0
VERTEX
  5
1C1
  8
1
  6
CONTINUOUS
 62
     7
 10
70.13477001350748
 20
103.6437166270926
 30
0.0
  0
VERTEX
  5
1C2
  8
1
  6
CONTINUOUS
 62
     7
 10
70.97278612253804
 20
104.7738045108821
 30
0.0
  0
VERTEX
  5
1C3
  8
1
  6
CONTINUOUS
 62
     7
 10
71.48041227096702
 20
105.9983011304368
 30
0.0
  0
VERTEX
  5
1C4
  8
1
  6
CONTINUOUS
 62
     7
 10
71.63785395663727
 20
107.2694581555095
 30
0.0
  0
SEQEND
  5
1D1
  8
1
  6
CONTINUOUS
 62
     7
  0
LINE
  5
A9
  8
1
  6
CONTINUOUS
 62
     7
 10
75.99999999999997
 20
145.1010418528622
 30
0.0
 11
75.63925416452545
 21
145.1010418528622
 31
0.0
  0
LINE
  5
AA
  8
1
  6
CONTINUOUS
 62
     7
 10
75.99999999999997
 20
150.4010418528622
 30
0.0
 11
62.49999999999997
 21
150.4010418528622
 31
0.0
  0
LINE
  5
AB
  8
1
  6
CONTINUOUS
 62
     7
 10
48.99999999999996
 20
141.7010418528622
 30
0.0
 11
49.36074583547449
 21
141.7010418528622
 31
0.0
  0
LINE
  5
AC
  8
1
  6
CONTINUOUS
 62
     7
 10
48.99999999999997
 20
141.0010418528622
 30
0.0
 11
75.99999999999997
 21
141.0010418528622
 31
0.0
  0
LINE
  5
AD
  8
1
  6
CONTINUOUS
 62
     7
 10
75.63925416452545
 20
145.1010418528622
 30
0.0
 11
75.63925416452544
 21
141.7010418528622
 31
0.0
  0
LINE
  5
AE
  8
1
  6
CONTINUOUS
 62
     7
 10
75.63925416452545
 20
141.7010418528622
 30
0.0
 11
75.99999999999997
 21
141.7010418528622
 31
0.0
  0
LINE
  5
AF
  8
1
  6
CONTINUOUS
 62
     7
 10
62.49999999999997
 20
150.4010418528622
 30
0.0
 11
48.99999999999997
 21
150.4010418528622
 31
0.0
  0
LINE
  5
B0
  8
1
  6
CONTINUOUS
 62
     7
 10
49.3607458354745
 20
141.7010418528622
 30
0.0
 11
49.36074583547449
 21
145.1010418528622
 31
0.0
  0
LINE
  5
B1
  8
1
  6
CONTINUOUS
 62
     7
 10
49.36074583547448
 20
145.1010418528622
 30
0.0
 11
48.99999999999996
 21
145.1010418528622
 31
0.0
  0
LINE
  5
B2
  8
1
  6
CONTINUOUS
 62
     7
 10
74.69999999999997
 20
139.7010418528622
 30
0.0
 11
62.49999999999997
 21
139.7010418528622
 31
0.0
  0
LINE
  5
B3
  8
1
  6
CONTINUOUS
 62
     7
 10
62.49999999999997
 20
139.7010418528622
 30
0.0
 11
50.29999999999997
 21
139.7010418528622
 31
0.0
  0
LINE
  5
B4
  8
1
  6
CONTINUOUS
 62
     7
 10
50.29999999999998
 20
133.9010418528622
 30
0.0
 11
74.69999999999996
 21
133.9010418528622
 31
0.0
  0
LINE
  5
B5
  8
1
  6
CONTINUOUS
 62
     7
 10
73.49999999999997
 20
132.7010418528621
 30
0.0
 11
62.49999999999997
 21
132.7010418528621
 31
0.0
  0
LINE
  5
B6
  8
1
  6
CONTINUOUS
 62
     7
 10
62.49999999999997
 20
132.7010418528621
 30
0.0
 11
51.49999999999998
 21
132.7010418528621
 31
0.0
  0
LINE
  5
B7
  8
1
  6
CONTINUOUS
 62
     7
 10
75.99999999999997
 20
150.7010418528621
 30
0.0
 11
62.49999999999997
 21
150.7010418528621
 31
0.0
  0
LINE
  5
B8
  8
1
  6
CONTINUOUS
 62
     7
 10
62.49999999999997
 20
150.7010418528621
 30
0.0
 11
48.99999999999997
 21
150.7010418528621
 31
0.0
  0
LINE
  5
B9
  8
1
  6
CONTINUOUS
 62
     9
 10
69.13952809568067
 20
160.7010418528621
 30
0.0
 11
69.13952809568067
 21
170.7010418528622
 31
0.0
  0
LINE
  5
BA
  8
1
  6
CONTINUOUS
 62
     9
 10
55.86047190431928
 20
170.7010418528622
 30
0.0
 11
55.86047190431928
 21
160.7010418528621
 31
0.0
  0
LINE
  5
BB
  8
1
  6
CONTINUOUS
 62
     7
 10
69.13952809568067
 20
170.7010418528622
 30
0.0
 11
55.86047190431928
 21
170.7010418528622
 31
0.0
  0
LINE
  5
BC
  8
1
  6
CONTINUOUS
 62
     7
 10
62.49999999999997
 20
160.7010418528621
 30
0.0
 11
69.13952809568067
 21
160.7010418528621
 31
0.0
  0
LINE
  5
BD
  8
1
  6
CONTINUOUS
 62
     7
 10
55.86047190431928
 20
160.7010418528621
 30
0.0
 11
62.49999999999997
 21
160.7010418528621
 31
0.0
  0
LINE
  5
BE
  8
1
  6
CONTINUOUS
 62
     9
 10
54.12842109675039
 20
160.7010418528621
 30
0.0
 11
54.12842109675039
 21
170.7010418528622
 31
0.0
  0
LINE
  5
BF
  8
1
  6
CONTINUOUS
 62
     7
 10
54.1284210967504
 20
170.7010418528622
 30
0.0
 11
55.86047190431928
 21
170.7010418528622
 31
0.0
  0
LINE
  5
C0
  8
1
  6
CONTINUOUS
 62
     7
 10
55.86047190431928
 20
160.7010418528621
 30
0.0
 11
54.1284210967504
 21
160.7010418528621
 31
0.0
  0
LINE
  5
C1
  8
1
  6
CONTINUOUS
 62
     7
 10
73.99999999999996
 20
150.6835881172807
 30
0.0
 11
62.49999999999997
 21
150.6835881172807
 31
0.0
  0
LINE
  5
C2
  8
1
  6
CONTINUOUS
 62
     7
 10
62.49999999999997
 20
150.6835881172807
 30
0.0
 11
50.99999999999999
 21
150.6835881172807
 31
0.0
  0
LINE
  5
C3
  8
1
  6
CONTINUOUS
 62
     9
 10
70.87157890324954
 20
170.7010418528622
 30
0.0
 11
70.87157890324954
 21
160.7010418528621
 31
0.0
  0
LINE
  5
C4
  8
1
  6
CONTINUOUS
 62
     7
 10
69.13952809568067
 20
170.7010418528622
 30
0.0
 11
70.87157890324954
 21
170.7010418528622
 31
0.0
  0
LINE
  5
C5
  8
1
  6
CONTINUOUS
 62
     7
 10
70.87157890324954
 20
160.7010418528621
 30
0.0
 11
69.13952809568067
 21
160.7010418528621
 31
0.0
  0
LINE
  5
C6
  8
1
  6
CONTINUOUS
 62
     7
 10
47.48889300106971
 20
160.7010418528621
 30
0.0
 11
50.80865704891004
 21
160.7010418528621
 31
0.0
  0
LINE
  5
C7
  8
1
  6
CONTINUOUS
 62
     9
 10
47.48889300106971
 20
170.7010418528622
 30
0.0
 11
47.48889300106971
 21
160.7010418528621
 31
0.0
  0
LINE
  5
C8
  8
1
  6
CONTINUOUS
 62
     7
 10
54.12842109675039
 20
170.7010418528622
 30
0.0
 11
47.48889300106971
 21
170.7010418528622
 31
0.0
  0
LINE
  5
C9
  8
1
  6
CONTINUOUS
 62
     7
 10
50.80865704891004
 20
160.7010418528621
 30
0.0
 11
54.12842109675039
 21
160.7010418528621
 31
0.0
  0
LINE
  5
CA
  8
1
  6
CONTINUOUS
 62
     9
 10
77.51110699893025
 20
160.7010418528621
 30
0.0
 11
77.51110699893025
 21
170.7010418528622
 31
0.0
  0
LINE
  5
CB
  8
1
  6
CONTINUOUS
 62
     7
 10
74.19134295108991
 20
160.7010418528621
 30
0.0
 11
77.51110699893025
 21
160.7010418528621
 31
0.0
  0
LINE
  5
CC
  8
1
  6
CONTINUOUS
 62
     7
 10
77.51110699893025
 20
170.7010418528622
 30
0.0
 11
70.87157890324954
 21
170.7010418528622
 31
0.0
  0
LINE
  5
CD
  8
1
  6
CONTINUOUS
 62
     7
 10
70.87157890324954
 20
160.7010418528621
 30
0.0
 11
74.19134295108991
 21
160.7010418528621
 31
0.0
  0
LINE
  5
CE
  8
1
  6
CONTINUOUS
 62
     7
 10
47.22094380863858
 20
170.7010418528622
 30
0.0
 11
47.48889300106971
 21
170.7010418528622
 31
0.0
  0
LINE
  5
CF
  8
1
  6
CONTINUOUS
 62
     7
 10
47.48889300106971
 20
160.7010418528621
 30
0.0
 11
47.22094380863858
 21
160.7010418528621
 31
0.0
  0
LINE
  5
D0
  8
1
  6
CONTINUOUS
 62
     7
 10
77.77905619136135
 20
160.7010418528621
 30
0.0
 11
77.51110699893025
 21
160.7010418528621
 31
0.0
  0
LINE
  5
D1
  8
1
  6
CONTINUOUS
 62
     7
 10
77.51110699893025
 20
170.7010418528622
 30
0.0
 11
77.77905619136135
 21
170.7010418528622
 31
0.0
  0
LINE
  5
D2
  8
1
  6
CONTINUOUS
 62
     7
 10
51.49999999999998
 20
127.7010418528622
 30
0.0
 11
51.49999999999998
 21
106.4878384172657
 31
0.0
  0
LINE
  5
D3
  8
1
  6
CONTINUOUS
 62
     7
 10
73.49999999999997
 20
106.4878384172657
 30
0.0
 11
73.49999999999997
 21
127.7010418528622
 31
0.0
  0
LINE
  5
D4
  8
1
  6
CONTINUOUS
 62
     7
 10
75.99999999999997
 20
145.1010418528622
 30
0.0
 11
75.99999999999997
 21
150.4010418528622
 31
0.0
  0
LINE
  5
D5
  8
1
  6
CONTINUOUS
 62
     7
 10
75.99999999999997
 20
141.0010418528622
 30
0.0
 11
75.99999999999997
 21
141.7010418528622
 31
0.0
  0
LINE
  5
D6
  8
1
  6
CONTINUOUS
 62
     7
 10
48.99999999999997
 20
141.7010418528622
 30
0.0
 11
48.99999999999997
 21
141.0010418528622
 31
0.0
  0
LINE
  5
D7
  8
1
  6
CONTINUOUS
 62
     7
 10
48.99999999999997
 20
150.4010418528622
 30
0.0
 11
48.99999999999997
 21
145.1010418528622
 31
0.0
  0
LINE
  5
D8
  8
1
  6
CONTINUOUS
 62
     7
 10
48.99999999999997
 20
141.0010418528622
 30
0.0
 11
50.29999999999998
 21
139.7010418528622
 31
0.0
  0
LINE
  5
D9
  8
1
  6
CONTINUOUS
 62
     7
 10
74.69999999999997
 20
139.7010418528622
 30
0.0
 11
75.99999999999997
 21
141.0010418528622
 31
0.0
  0
LINE
  5
DA
  8
1
  6
CONTINUOUS
 62
     7
 10
74.69999999999997
 20
133.9010418528622
 30
0.0
 11
74.69999999999997
 21
139.7010418528622
 31
0.0
  0
LINE
  5
DB
  8
1
  6
CONTINUOUS
 62
     7
 10
50.29999999999997
 20
135.4033145801349
 30
0.0
 11
50.29999999999997
 21
133.9010418528622
 31
0.0
  0
LINE
  5
DC
  8
1
  6
CONTINUOUS
 62
     7
 10
50.29999999999997
 20
139.7010418528622
 30
0.0
 11
50.29999999999997
 21
138.1987691255894
 31
0.0
  0
LINE
  5
DD
  8
1
  6
CONTINUOUS
 62
     7
 10
50.29999999999997
 20
133.9010418528622
 30
0.0
 11
51.49999999999997
 21
132.7010418528621
 31
0.0
  0
LINE
  5
DE
  8
1
  6
CONTINUOUS
 62
     7
 10
73.49999999999997
 20
132.7010418528621
 30
0.0
 11
74.69999999999997
 21
133.9010418528622
 31
0.0
  0
LINE
  5
DF
  8
1
  6
CONTINUOUS
 62
     7
 10
73.49999999999997
 20
127.7010418528622
 30
0.0
 11
73.49999999999997
 21
132.7010418528621
 31
0.0
  0
LINE
  5
E0
  8
1
  6
CONTINUOUS
 62
     7
 10
51.49999999999998
 20
132.7010418528621
 30
0.0
 11
51.49999999999998
 21
127.7010418528622
 31
0.0
  0
LINE
  5
E1
  8
1
  6
CONTINUOUS
 62
     7
 10
75.99999999999997
 20
150.7010418528621
 30
0.0
 11
75.99999999999997
 21
160.7010418528621
 31
0.0
  0
LINE
  5
E2
  8
1
  6
CONTINUOUS
 62
     7
 10
48.99999999999996
 20
160.7010418528621
 30
0.0
 11
48.99999999999996
 21
150.7010418528621
 31
0.0
  0
LINE
  5
E3
  8
1
  6
CONTINUOUS
 62
     7
 10
48.99999999999997
 20
150.7010418528621
 30
0.0
 11
51.00000000000001
 21
150.6835881172807
 31
0.0
  0
LINE
  5
E4
  8
1
  6
CONTINUOUS
 62
     7
 10
73.99999999999993
 20
150.6835881172807
 30
0.0
 11
75.99999999999997
 21
150.7010418528621
 31
0.0
  0
LINE
  5
E5
  8
1
  6
CONTINUOUS
 62
     7
 10
73.99999999999997
 20
150.4010418528622
 30
0.0
 11
73.99999999999997
 21
150.6835881172807
 31
0.0
  0
LINE
  5
E6
  8
1
  6
CONTINUOUS
 62
     7
 10
50.99999999999998
 20
150.6835881172807
 30
0.0
 11
50.99999999999998
 21
150.4010418528622
 31
0.0
  0
LINE
  5
E7
  8
1
  6
CONTINUOUS
 62
     7
 10
47.22094380863858
 20
170.7010418528622
 30
0.0
 11
47.22094380863858
 21
160.7010418528621
 31
0.0
  0
LINE
  5
E8
  8
1
  6
CONTINUOUS
 62
     7
 10
77.77905619136135
 20
160.7010418528621
 30
0.0
 11
77.77905619136135
 21
170.7010418528622
 31
0.0
  0
ENDBLK
  8
0
  0
BLOCK
  8
0
  2
D_FRAME_VIEW_3313
 70
     0
 10
0.0
 20
0.0
 30
0.0
  0
LINE
  5
ED
  8
1
  6
CONTINUOUS
 62
     7
 10
117.0989581471379
 20
238.7456890143243
 30
0.0
 11
117.0989581471379
 21
211.7456890143243
 31
0.0
  0
LINE
  5
EE
  8
1
  6
CONTINUOUS
 62
     7
 10
126.4989581471379
 20
211.7456890143243
 30
0.0
 11
126.4989581471379
 21
238.7456890143243
 31
0.0
  0
LINE
  5
EF
  8
1
  6
CONTINUOUS
 62
     7
 10
122.3989581471379
 20
228.3456890143243
 30
0.0
 11
122.3989581471379
 21
222.1456890143243
 31
0.0
  0
LINE
  5
F0
  8
1
  6
CONTINUOUS
 62
     7
 10
122.3989581471379
 20
222.1456890143243
 30
0.0
 11
125.7989581471379
 21
222.1456890143243
 31
0.0
  0
LINE
  5
F1
  8
1
  6
CONTINUOUS
 62
     7
 10
125.7989581471379
 20
222.1456890143243
 30
0.0
 11
125.7989581471379
 21
228.3456890143243
 31
0.0
  0
LINE
  5
F2
  8
1
  6
CONTINUOUS
 62
     7
 10
125.7989581471379
 20
228.3456890143243
 30
0.0
 11
122.3989581471379
 21
228.3456890143243
 31
0.0
  0
LINE
  5
F3
  8
1
  6
CONTINUOUS
 62
     7
 10
127.7989581471379
 20
237.4456890143243
 30
0.0
 11
127.7989581471379
 21
213.0456890143243
 31
0.0
  0
LINE
  5
F4
  8
1
  6
CONTINUOUS
 62
     7
 10
133.5989581471379
 20
213.0456890143243
 30
0.0
 11
133.5989581471379
 21
237.4456890143243
 31
0.0
  0
LINE
  5
F5
  8
1
  6
CONTINUOUS
 62
     7
 10
134.7989581471379
 20
236.2456890143243
 30
0.0
 11
134.7989581471379
 21
214.2456890143243
 31
0.0
  0
LINE
  5
F6
  8
1
  6
CONTINUOUS
 62
     9
 10
147.5771327401899
 20
233.0238636073763
 30
0.0
 11
139.7989581471379
 21
225.2456890143243
 31
0.0
  0
LINE
  5
F7
  8
1
  6
CONTINUOUS
 62
     7
 10
153.2339869896823
 20
196.2543109856758
 30
0.0
 11
168.7903361757864
 21
211.8106601717799
 31
0.0
  0
LINE
  5
F8
  8
1
  6
CONTINUOUS
 62
     7
 10
139.7989581471379
 20
225.2456890143243
 30
0.0
 11
135.2426089610339
 21
214.2456890143243
 31
0.0
  0
LINE
  5
F9
  8
1
  6
CONTINUOUS
 62
     9
 10
139.7989581471379
 20
236.2456890143243
 30
0.0
 11
139.7989581471379
 21
225.2456890143243
 31
0.0
  0
LINE
  5
FA
  8
1
  6
CONTINUOUS
 62
     9
 10
96.7989581471379
 20
226.2456890143243
 30
0.0
 11
106.7989581471379
 21
226.2456890143243
 31
0.0
  0
LINE
  5
FB
  8
1
  6
CONTINUOUS
 62
     9
 10
106.7989581471379
 20
224.2456890143243
 30
0.0
 11
96.7989581471379
 21
224.2456890143243
 31
0.0
  0
LINE
  5
FC
  8
1
  6
CONTINUOUS
 62
     7
 10
106.7989581471379
 20
226.2456890143243
 30
0.0
 11
106.7989581471379
 21
224.2456890143243
 31
0.0
  0
LINE
  5
FD
  8
1
  6
CONTINUOUS
 62
     7
 10
96.7989581471379
 20
224.2456890143243
 30
0.0
 11
96.7989581471379
 21
226.2456890143243
 31
0.0
  0
LINE
  5
FE
  8
1
  6
CONTINUOUS
 62
     7
 10
106.7989581471379
 20
212.7456890143243
 30
0.0
 11
106.7989581471379
 21
218.4956890143243
 31
0.0
  0
LINE
  5
FF
  8
1
  6
CONTINUOUS
 62
     9
 10
96.7989581471379
 20
212.7456890143243
 30
0.0
 11
106.7989581471379
 21
212.7456890143243
 31
0.0
  0
LINE
  5
100
  8
1
  6
CONTINUOUS
 62
     7
 10
106.7989581471379
 20
218.4956890143243
 30
0.0
 11
106.7989581471379
 21
224.2456890143243
 31
0.0
  0
LINE
  5
101
  8
1
  6
CONTINUOUS
 62
     7
 10
96.7989581471379
 20
224.2456890143243
 30
0.0
 11
96.7989581471379
 21
212.7456890143243
 31
0.0
  0
LINE
  5
102
  8
1
  6
CONTINUOUS
 62
     9
 10
106.7989581471379
 20
237.7456890143243
 30
0.0
 11
96.7989581471379
 21
237.7456890143243
 31
0.0
  0
LINE
  5
103
  8
1
  6
CONTINUOUS
 62
     7
 10
106.7989581471379
 20
231.9956890143243
 30
0.0
 11
106.7989581471379
 21
237.7456890143243
 31
0.0
  0
LINE
  5
104
  8
1
  6
CONTINUOUS
 62
     7
 10
106.7989581471379
 20
226.2456890143243
 30
0.0
 11
106.7989581471379
 21
231.9956890143243
 31
0.0
  0
LINE
  5
105
  8
1
  6
CONTINUOUS
 62
     7
 10
96.7989581471379
 20
237.7456890143243
 30
0.0
 11
96.7989581471379
 21
226.2456890143243
 31
0.0
  0
LINE
  5
106
  8
1
  6
CONTINUOUS
 62
     7
 10
116.7989581471379
 20
238.7456890143243
 30
0.0
 11
116.7989581471379
 21
211.7456890143243
 31
0.0
  0
LINE
  5
107
  8
1
  6
CONTINUOUS
 62
     7
 10
116.8164118827194
 20
236.7456890143243
 30
0.0
 11
116.8164118827194
 21
213.7456890143243
 31
0.0
  0
LINE
  5
108
  8
1
  6
CONTINUOUS
 62
     7
 10
122.4489581471379
 20
228.3456890143243
 30
0.0
 11
122.4489581471379
 21
222.1456890143243
 31
0.0
  0
LINE
  5
109
  8
1
  6
CONTINUOUS
 62
     7
 10
125.1989581471379
 20
222.1456890143243
 30
0.0
 11
125.1989581471379
 21
228.3456890143243
 31
0.0
  0
LINE
  5
10A
  8
1
  6
CONTINUOUS
 62
     7
 10
125.7033214148871
 20
228.3456890143243
 30
0.0
 11
125.7033214148871
 21
222.1456890143243
 31
0.0
  0
LINE
  5
10B
  8
1
  6
CONTINUOUS
 62
     7
 10
122.4367405322309
 20
228.3456890143243
 30
0.0
 11
122.4367405322309
 21
222.1456890143243
 31
0.0
  0
LINE
  5
10C
  8
1
  6
CONTINUOUS
 62
     7
 10
125.7129211356031
 20
228.3456890143243
 30
0.0
 11
125.7129211356031
 21
222.1456890143243
 31
0.0
  0
LINE
  5
10D
  8
1
  6
CONTINUOUS
 62
     7
 10
106.7989581471379
 20
211.7456890143243
 30
0.0
 11
96.7989581471379
 21
211.7456890143243
 31
0.0
  0
LINE
  5
10E
  8
1
  6
CONTINUOUS
 62
     7
 10
106.7989581471379
 20
212.7456890143243
 30
0.0
 11
106.7989581471379
 21
211.7456890143243
 31
0.0
  0
LINE
  5
10F
  8
1
  6
CONTINUOUS
 62
     7
 10
96.7989581471379
 20
211.7456890143243
 30
0.0
 11
96.7989581471379
 21
212.7456890143243
 31
0.0
  0
LINE
  5
110
  8
1
  6
CONTINUOUS
 62
     7
 10
96.7989581471379
 20
238.7456890143243
 30
0.0
 11
106.7989581471379
 21
238.7456890143243
 31
0.0
  0
LINE
  5
111
  8
1
  6
CONTINUOUS
 62
     7
 10
106.7989581471379
 20
238.7456890143243
 30
0.0
 11
106.7989581471379
 21
237.7456890143243
 31
0.0
  0
LINE
  5
112
  8
1
  6
CONTINUOUS
 62
     7
 10
96.7989581471379
 20
237.7456890143243
 30
0.0
 11
96.7989581471379
 21
238.7456890143243
 31
0.0
  0
LINE
  5
113
  8
1
  6
CONTINUOUS
 62
     7
 10
126.4989581471379
 20
238.7456890143243
 30
0.0
 11
117.0989581471379
 21
238.7456890143243
 31
0.0
  0
LINE
  5
114
  8
1
  6
CONTINUOUS
 62
     7
 10
117.0989581471379
 20
211.7456890143243
 30
0.0
 11
126.4989581471379
 21
211.7456890143243
 31
0.0
  0
LINE
  5
115
  8
1
  6
CONTINUOUS
 62
     7
 10
126.4989581471379
 20
211.7456890143243
 30
0.0
 11
127.7989581471379
 21
213.0456890143243
 31
0.0
  0
LINE
  5
116
  8
1
  6
CONTINUOUS
 62
     7
 10
127.7989581471379
 20
237.4456890143243
 30
0.0
 11
126.4989581471379
 21
238.7456890143243
 31
0.0
  0
LINE
  5
117
  8
1
  6
CONTINUOUS
 62
     7
 10
133.5989581471379
 20
237.4456890143243
 30
0.0
 11
127.7989581471379
 21
237.4456890143243
 31
0.0
  0
LINE
  5
118
  8
1
  6
CONTINUOUS
 62
     7
 10
127.7989581471379
 20
213.0456890143243
 30
0.0
 11
133.5989581471379
 21
213.0456890143243
 31
0.0
  0
LINE
  5
119
  8
1
  6
CONTINUOUS
 62
     7
 10
133.5989581471379
 20
213.0456890143243
 30
0.0
 11
134.7989581471379
 21
214.2456890143243
 31
0.0
  0
LINE
  5
11A
  8
1
  6
CONTINUOUS
 62
     7
 10
134.7989581471379
 20
236.2456890143243
 30
0.0
 11
133.5989581471379
 21
237.4456890143243
 31
0.0
  0
LINE
  5
11B
  8
1
  6
CONTINUOUS
 62
     7
 10
135.2426089610339
 20
214.2456890143243
 30
0.0
 11
153.2339869896823
 21
196.2543109856759
 31
0.0
  0
LINE
  5
11C
  8
1
  6
CONTINUOUS
 62
     7
 10
168.7903361757864
 20
211.8106601717799
 30
0.0
 11
147.5771327401899
 21
233.0238636073763
 31
0.0
  0
LINE
  5
11D
  8
1
  6
CONTINUOUS
 62
     7
 10
139.7989581471379
 20
236.2456890143243
 30
0.0
 11
134.7989581471379
 21
236.2456890143243
 31
0.0
  0
LINE
  5
11E
  8
1
  6
CONTINUOUS
 62
     7
 10
134.7989581471379
 20
214.2456890143243
 30
0.0
 11
135.2426089610339
 21
214.2456890143243
 31
0.0
  0
ARC
  5
11F
  8
1
  6
CONTINUOUS
 62
     7
 10
139.7989581471379
 20
225.2456890143243
 30
0.0
 40
11.0
 50
44.99999999999998
 51
89.99999999999996
  0
LINE
  5
120
  8
1
  6
CONTINUOUS
 62
     7
 10
116.7989581471379
 20
238.7456890143243
 30
0.0
 11
106.7989581471379
 21
238.7456890143243
 31
0.0
  0
LINE
  5
121
  8
1
  6
CONTINUOUS
 62
     7
 10
115.7989581471379
 20
211.7456890143243
 30
0.0
 11
116.7989581471379
 21
211.7456890143243
 31
0.0
  0
LINE
  5
122
  8
1
  6
CONTINUOUS
 62
     7
 10
106.7989581471379
 20
211.7456890143243
 30
0.0
 11
107.7989581471379
 21
211.7456890143243
 31
0.0
  0
LINE
  5
123
  8
1
  6
CONTINUOUS
 62
     7
 10
116.7989581471379
 20
211.7456890143244
 30
0.0
 11
116.8164118827194
 21
213.7456890143245
 31
0.0
  0
LINE
  5
124
  8
1
  6
CONTINUOUS
 62
     7
 10
116.8164118827194
 20
236.7456890143244
 30
0.0
 11
116.7989581471379
 21
238.7456890143244
 31
0.0
  0
LINE
  5
125
  8
1
  6
CONTINUOUS
 62
     7
 10
117.0989581471379
 20
236.7456890143243
 30
0.0
 11
116.8164118827194
 21
236.7456890143243
 31
0.0
  0
LINE
  5
126
  8
1
  6
CONTINUOUS
 62
     7
 10
116.8164118827194
 20
213.7456890143243
 30
0.0
 11
117.0989581471379
 21
213.7456890143243
 31
0.0
  0
ENDBLK
  8
0
  0
ENDSEC
  0
SECTION
  2
ENTITIES
  0
INSERT
  5
93
  8
1
  6
DOT
 62
     7
  2
D_FRAME_VIEW_1482
 10
0.0
 20
0.0
 30
0.0
  0
LINE
  5
95
  8
2
  6
CONTINUOUS
 62
     7
 10
107.7989581471379
 20
211.7456890143243
 30
0.0
 11
115.7989581471379
 21
211.7456890143243
 31
0.0
  0
LINE
  5
96
  8
2
  6
CONTINUOUS
 62
     7
 10
50.29999999999997
 20
138.1987691255894
 30
0.0
 11
50.29999999999997
 21
135.4033145801349
 31
0.0
  0
TEXT
  5
97
  8
1
  6
CONTINUOUS
 62
     7
 10
82.52180505189443
 20
89.68523821433047
 30
0.0
 40
3.0
  1
DA-UN
  0
LINE
  5
98
  8
2
  6
CENTER
 62
     1
 10
45.22094380863859
 20
225.2456890143243
 30
0.0
 11
79.77905619136136
 21
225.2456890143243
 31
0.0
  0
LINE
  5
9A
  8
2
  6
CENTER
 62
     1
 10
62.49999999999998
 20
194.2543109856759
 30
0.0
 11
62.49999999999998
 21
240.7456890143243
 31
0.0
  0
LINE
  5
9B
  8
2
  6
CENTER
 62
     1
 10
62.49999999999997
 20
172.7010418528622
 30
0.0
 11
62.49999999999997
 21
96.70966382421369
 31
0.0
  0
LINE
  5
9C
  8
2
  6
CENTER
 62
     1
 10
94.7989581471379
 20
225.2456890143243
 30
0.0
 11
152.7989581471379
 21
225.2456890143243
 31
0.0
  0
LINE
  5
9D
  8
2
  6
CENTER
 62
     1
 10
130.6065699917128
 20
234.4380771697494
 30
0.0
 11
162.4263751451074
 21
202.6182720163548
 31
0.0
  0
INSERT
  5
E9
  8
1
  6
DOT
 62
     7
  2
D_FRAME_VIEW_1636
 10
0.0
 20
0.0
 30
0.0
  0
INSERT
  5
127
  8
1
  6
CONTINUOUS
 62
     7
  2
D_FRAME_VIEW_3313
 10
0.0
 20
0.0
 30
0.0
  0
ENDSEC
  0
EOF
