  0
SECTION
  2
HEADER
  9
$ACADVER
  1
AC1006
  9
$DWGCODEPAGE
  3
ansi_932
  9
$INSBASE
 10
0.0
 20
0.0
 30
0.0
  9
$EXTMIN
 10
0.0
 20
-242.2222960000001
  9
$EXTMAX
 10
460.7512973798
 20
5.686136363636363
  9
$LIMMIN
 10
0.0
 20
0.0
  9
$LIMMAX
 10
12.0
 20
9.0
  9
$ORTHOMODE
 70
     0
  9
$REGENMODE
 70
     1
  9
$FILLMODE
 70
     1
  9
$QTEXTMODE
 70
     0
  9
$MIRRTEXT
 70
     1
  9
$DRAGMODE
 70
     2
  9
$LTSCALE
 40
1.0
  9
$OSMODE
 70
    37
  9
$ATTMODE
 70
     1
  9
$TEXTSIZE
 40
0.2
  9
$TRACEWID
 40
0.05
  9
$TEXTSTYLE
  7
STANDARD
  9
$CLAYER
  8
0
  9
$CELTYPE
  6
BYLAYER
  9
$CECOLOR
 62
   256
  9
$DIMSCALE
 40
1.0
  9
$DIMASZ
 40
3.0
  9
$DIMEXO
 40
0.0625
  9
$DIMDLI
 40
0.38
  9
$DIMRND
 40
0.0
  9
$DIMDLE
 40
0.0
  9
$DIMEXE
 40
1.5
  9
$DIMTP
 40
0.0
  9
$DIMTM
 40
0.0
  9
$DIMTXT
 40
3.5
  9
$DIMCEN
 40
0.09
  9
$DIMTSZ
 40
0.0
  9
$DIMTOL
 70
     0
  9
$DIMLIM
 70
     0
  9
$DIMTIH
 70
     1
  9
$DIMTOH
 70
     1
  9
$DIMSE1
 70
     0
  9
$DIMSE2
 70
     0
  9
$DIMTAD
 70
     1
  9
$DIMZIN
 70
     0
  9
$DIMBLK
  1

  9
$DIMASO
 70
     1
  9
$DIMSHO
 70
     1
  9
$DIMPOST
  1

  9
$DIMAPOST
  1

  9
$DIMALT
 70
     0
  9
$DIMALTD
 70
     2
  9
$DIMALTF
 40
25.4
  9
$DIMLFAC
 40
1.0
  9
$DIMTOFL
 70
     0
  9
$DIMTVP
 40
0.0
  9
$DIMTIX
 70
     0
  9
$DIMSOXD
 70
     0
  9
$DIMSAH
 70
     0
  9
$DIMBLK1
  1

  9
$DIMBLK2
  1

  9
$LUNITS
 70
     2
  9
$LUPREC
 70
     4
  9
$SKETCHINC
 40
0.1
  9
$FILLETRAD
 40
0.5
  9
$AUNITS
 70
     0
  9
$AUPREC
 70
     0
  9
$MENU
  1
.
  9
$ELEVATION
 40
0.0
  9
$THICKNESS
 40
0.0
  9
$LIMCHECK
 70
     0
  9
$CHAMFERA
 40
0.0
  9
$CHAMFERB
 40
0.0
  9
$SKPOLY
 70
     0
  9
$TDCREATE
 40
2460286.593222639
  9
$TDUPDATE
 40
2460286.593223033
  9
$TDINDWG
 40
0.0000000116
  9
$TDUSRTIMER
 40
0.0000000116
  9
$USRTIMER
 70
     1
  9
$ANGBASE
 50
0.0
  9
$ANGDIR
 70
     0
  9
$PDMODE
 70
     0
  9
$PDSIZE
 40
0.0
  9
$PLINEWID
 40
0.0
  9
$COORDS
 70
     1
  9
$SPLFRAME
 70
     0
  9
$SPLINETYPE
 70
     6
  9
$SPLINESEGS
 70
     8
  9
$ATTDIA
 70
     0
  9
$ATTREQ
 70
     1
  9
$HANDLING
 70
     1
  9
$HANDSEED
  5
197
  9
$SURFTAB1
 70
     6
  9
$SURFTAB2
 70
     6
  9
$SURFTYPE
 70
     6
  9
$SURFU
 70
     6
  9
$SURFV
 70
     6
  9
$UCSNAME
  2

  9
$UCSORG
 10
0.0
 20
0.0
 30
0.0
  9
$UCSXDIR
 10
1.0
 20
0.0
 30
0.0
  9
$UCSYDIR
 10
0.0
 20
1.0
 30
0.0
  9
$USERI1
 70
     0
  9
$USERI2
 70
     0
  9
$USERI3
 70
     0
  9
$USERI4
 70
     0
  9
$USERI5
 70
     0
  9
$USERR1
 40
0.0
  9
$USERR2
 40
0.0
  9
$USERR3
 40
0.0
  9
$USERR4
 40
0.0
  9
$USERR5
 40
0.0
  9
$WORLDVIEW
 70
     1
  0
ENDSEC
  0
SECTION
  2
TABLES
  0
TABLE
  2
VPORT
 70
     1
  0
VPORT
  2
*ACTIVE
 70
     0
 10
0.0
 20
0.0
 11
1.0
 21
1.0
 12
230.3756486899
 22
-118.2680798181818
 13
0.0
 23
0.0
 14
0.5
 24
0.5
 15
0.5
 25
0.5
 16
0.0
 26
0.0
 36
1.0
 17
0.0
 27
0.0
 37
0.0
 40
247.9084323636364
 41
1.6
 42
50.0
 43
0.0
 44
0.0
 50
0.0
 51
0.0
 71
     0
 72
   100
 73
     1
 74
     3
 75
     0
 76
     0
 77
     0
 78
     0
  0
ENDTAB
  0
TABLE
  2
LTYPE
 70
     2
  0
LTYPE
  2
CONTINUOUS
 70
     0
  3
Solid line
 72
    65
 73
     0
 40
0.0
  0
LTYPE
  2
CENTER
 70
     0
  3

 72
    65
 73
     0
 40
0.0
  0
ENDTAB
  0
TABLE
  2
LAYER
 70
     2
  0
LAYER
  2
0
 70
     0
 62
     7
  6
CONTINUOUS
  0
LAYER
  2
1
 70
     0
 62
     7
  6
CONTINUOUS
  0
ENDTAB
  0
TABLE
  2
STYLE
 70
     2
  0
STYLE
  2
STANDARD
 70
     0
 40
0.0
 41
1.0
 50
0.0
 71
     0
 42
0.2
  3
txt
  4

  0
STYLE
  2
ＭＳ_ゴシック
 70
     0
 40
0.0
 41
1.0
 50
0.0
 71
     0
 42
0.2
  3
ＭＳ ゴシック.shx
  4

  0
ENDTAB
  0
TABLE
  2
VIEW
 70
     0
  0
ENDTAB
  0
TABLE
  2
UCS
 70
     0
  0
ENDTAB
  0
ENDSEC
  0
SECTION
  2
BLOCKS
  0
BLOCK
  8
0
  2
D_FRAME_DRAWING_21
 70
     0
 10
0.0
 20
0.0
 30
0.0
  0
LINE
  5
10B
  8
0
  6
CONTINUOUS
 62
     7
 10
0.0
 20
0.0
 30
0.0
 11
420.0
 21
0.0
 31
0.0
  0
LINE
  5
10C
  8
0
  6
CONTINUOUS
 62
     7
 10
420.0
 20
0.0
 30
0.0
 11
420.0
 21
297.0
 31
0.0
  0
LINE
  5
10D
  8
0
  6
CONTINUOUS
 62
     7
 10
420.0
 20
297.0
 30
0.0
 11
0.0
 21
297.0
 31
0.0
  0
LINE
  5
10E
  8
0
  6
CONTINUOUS
 62
     7
 10
0.0
 20
297.0
 30
0.0
 11
0.0
 21
0.0
 31
0.0
  0
LINE
  5
10F
  8
0
  6
CONTINUOUS
 62
     7
 10
10.0
 20
10.0
 30
0.0
 11
409.9999999999999
 21
10.0
 31
0.0
  0
LINE
  5
110
  8
0
  6
CONTINUOUS
 62
     7
 10
409.9999999999999
 20
10.0
 30
0.0
 11
409.9999999999999
 21
286.9999999999999
 31
0.0
  0
LINE
  5
111
  8
0
  6
CONTINUOUS
 62
     7
 10
409.9999999999999
 20
286.9999999999999
 30
0.0
 11
10.00000000000006
 21
286.9999999999999
 31
0.0
  0
LINE
  5
112
  8
0
  6
CONTINUOUS
 62
     7
 10
10.0
 20
286.9999999999999
 30
0.0
 11
10.0
 21
10.00000000000001
 31
0.0
  0
LINE
  5
113
  8
0
  6
CONTINUOUS
 62
     7
 10
210.0
 20
0.0
 30
0.0
 11
210.0
 21
10.0
 31
0.0
  0
LINE
  5
114
  8
0
  6
CONTINUOUS
 62
     7
 10
420.0
 20
148.5
 30
0.0
 11
409.9999999999999
 21
148.5
 31
0.0
  0
LINE
  5
115
  8
0
  6
CONTINUOUS
 62
     7
 10
210.0
 20
297.0
 30
0.0
 11
210.0
 21
286.9999999999999
 31
0.0
  0
LINE
  5
116
  8
0
  6
CONTINUOUS
 62
     7
 10
0.0
 20
148.5
 30
0.0
 11
10.0
 21
148.5
 31
0.0
  0
POLYLINE
  5
117
  8
0
  6
CONTINUOUS
 62
     7
 66
     1
 10
0.0
 20
0.0
 30
0.0
 70
     1
  0
VERTEX
  5
168
  8
0
  6
CONTINUOUS
 62
     7
 10
11.0
 20
152.5
 30
0.0
  0
VERTEX
  5
169
  8
0
  6
CONTINUOUS
 62
     7
 10
0.0
 20
148.5
 30
0.0
  0
VERTEX
  5
16A
  8
0
  6
CONTINUOUS
 62
     7
 10
11.0
 20
144.5
 30
0.0
  0
VERTEX
  5
16B
  8
0
  6
CONTINUOUS
 62
     7
 10
11.0
 20
152.5
 30
0.0
  0
SEQEND
  5
195
  8
0
  6
CONTINUOUS
 62
     7
  0
INSERT
  5
118
  8
0
 62
     7
  2
*U2
 10
0.0
 20
0.0
 30
0.0
  0
POLYLINE
  5
119
  8
0
  6
CONTINUOUS
 62
     7
 66
     1
 10
0.0
 20
0.0
 30
0.0
 70
     1
  0
VERTEX
  5
16E
  8
0
  6
CONTINUOUS
 62
     7
 10
206.0
 20
11.0
 30
0.0
  0
VERTEX
  5
16F
  8
0
  6
CONTINUOUS
 62
     7
 10
210.0
 20
0.0
 30
0.0
  0
VERTEX
  5
170
  8
0
  6
CONTINUOUS
 62
     7
 10
214.0
 20
11.0
 30
0.0
  0
VERTEX
  5
171
  8
0
  6
CONTINUOUS
 62
     7
 10
206.0
 20
11.0
 30
0.0
  0
SEQEND
  5
196
  8
0
  6
CONTINUOUS
 62
     7
  0
INSERT
  5
11A
  8
0
 62
     7
  2
*U3
 10
0.0
 20
0.0
 30
0.0
  0
LINE
  5
11B
  8
0
  6
CONTINUOUS
 62
     7
 10
367.5
 20
286.9999999999999
 30
0.0
 11
367.5
 21
292.0
 31
0.0
  0
TEXT
  5
11C
  8
0
  6
CONTINUOUS
 62
     7
 10
391.6340909090909
 20
291.8324293485057
 30
0.0
 40
3.5
  1
A
 50
270.0
  0
LINE
  5
11D
  8
0
  6
CONTINUOUS
 62
     7
 10
367.5
 20
10.0
 30
0.0
 11
367.5
 21
5.0
 31
0.0
  0
TEXT
  5
11E
  8
0
  6
CONTINUOUS
 62
     7
 10
392.9868888333125
 20
4.602272727272727
 30
0.0
 40
3.5
  1
A
  0
LINE
  5
11F
  8
0
  6
CONTINUOUS
 62
     7
 10
315.0
 20
286.9999999999999
 30
0.0
 11
315.0
 21
292.0
 31
0.0
  0
TEXT
  5
120
  8
0
  6
CONTINUOUS
 62
     7
 10
339.1340909090909
 20
291.9745607727899
 30
0.0
 40
3.5
  1
B
 50
270.0
  0
LINE
  5
121
  8
0
  6
CONTINUOUS
 62
     7
 10
315.0
 20
10.0
 30
0.0
 11
315.0
 21
5.0
 31
0.0
  0
TEXT
  5
122
  8
0
  6
CONTINUOUS
 62
     7
 10
340.3447574090284
 20
4.602272727272727
 30
0.0
 40
3.5
  1
B
  0
LINE
  5
123
  8
0
  6
CONTINUOUS
 62
     7
 10
262.5
 20
286.9999999999999
 30
0.0
 11
262.5
 21
292.0
 31
0.0
  0
TEXT
  5
124
  8
0
  6
CONTINUOUS
 62
     7
 10
286.6327779167187
 20
291.9399305989747
 30
0.0
 40
3.5
  1
C
 50
270.0
  0
LINE
  5
125
  8
0
  6
CONTINUOUS
 62
     7
 10
262.5
 20
10.0
 30
0.0
 11
262.5
 21
5.0
 31
0.0
  0
TEXT
  5
126
  8
0
  6
CONTINUOUS
 62
     7
 10
287.8793875828435
 20
4.600959734900587
 30
0.0
 40
3.5
  1
C
  0
LINE
  5
127
  8
0
  6
CONTINUOUS
 62
     7
 10
210.0
 20
286.9999999999999
 30
0.0
 11
210.0
 21
292.0
 31
0.0
  0
TEXT
  5
128
  8
0
  6
CONTINUOUS
 62
     7
 10
234.1340909090909
 20
291.9745607727898
 30
0.0
 40
3.5
  1
D
 50
270.0
  0
LINE
  5
129
  8
0
  6
CONTINUOUS
 62
     7
 10
157.5
 20
286.9999999999999
 30
0.0
 11
157.5
 21
292.0
 31
0.0
  0
TEXT
  5
12A
  8
0
  6
CONTINUOUS
 62
     7
 10
181.6327779167188
 20
292.027463423784
 30
0.0
 40
3.5
  1
E
 50
270.0
  0
LINE
  5
12B
  8
0
  6
CONTINUOUS
 62
     7
 10
157.5
 20
10.0
 30
0.0
 11
157.5
 21
5.0
 31
0.0
  0
LINE
  5
12C
  8
0
  6
CONTINUOUS
 62
     7
 10
105.0
 20
286.9999999999999
 30
0.0
 11
105.0
 21
292.0
 31
0.0
  0
TEXT
  5
12D
  8
0
  6
CONTINUOUS
 62
     7
 10
129.1327779167188
 20
291.9924502938602
 30
0.0
 40
3.5
  1
F
 50
270.0
  0
LINE
  5
12E
  8
0
  6
CONTINUOUS
 62
     7
 10
105.0
 20
10.0
 30
0.0
 11
105.0
 21
5.0
 31
0.0
  0
TEXT
  5
12F
  8
0
  6
CONTINUOUS
 62
     7
 10
130.326867887958
 20
4.600959734900587
 30
0.0
 40
3.5
  1
F
  0
LINE
  5
130
  8
0
  6
CONTINUOUS
 62
     7
 10
52.50000000000004
 20
286.9999999999999
 30
0.0
 11
52.50000000000004
 21
292.0
 31
0.0
  0
TEXT
  5
131
  8
0
  6
CONTINUOUS
 62
     7
 10
76.6327779167188
 20
291.9399305989746
 30
0.0
 40
3.5
  1
G
 50
270.0
  0
LINE
  5
132
  8
0
  6
CONTINUOUS
 62
     7
 10
52.50000000000004
 20
10.0
 30
0.0
 11
52.50000000000004
 21
5.0
 31
0.0
  0
TEXT
  5
133
  8
0
  6
CONTINUOUS
 62
     7
 10
77.8793875828436
 20
4.600959734900587
 30
0.0
 40
3.5
  1
G
  0
TEXT
  5
134
  8
0
  6
CONTINUOUS
 62
     7
 10
24.13277791671879
 20
291.9749437288983
 30
0.0
 40
3.5
  1
H
 50
270.0
  0
TEXT
  5
135
  8
0
  6
CONTINUOUS
 62
     7
 10
25.34437445291988
 20
4.600959734900587
 30
0.0
 40
3.5
  1
H
  0
LINE
  5
136
  8
0
  6
CONTINUOUS
 62
     7
 10
409.9999999999999
 20
74.25
 30
0.0
 11
414.9999999999999
 21
74.25
 31
0.0
  0
TEXT
  5
137
  8
0
  6
CONTINUOUS
 62
     7
 10
412.9326059772414
 20
35.00777791671877
 30
0.0
 40
3.5
  1
1
  0
LINE
  5
138
  8
0
  6
CONTINUOUS
 62
     7
 10
10.0
 20
74.25
 30
0.0
 11
5.0
 21
74.25
 31
0.0
  0
TEXT
  5
139
  8
0
  6
CONTINUOUS
 62
     7
 10
4.600959734900584
 20
38.26171220457671
 30
0.0
 40
3.5
  1
1
 50
270.0
  0
LINE
  5
13A
  8
0
  6
CONTINUOUS
 62
     7
 10
409.9999999999999
 20
148.5
 30
0.0
 11
414.9999999999999
 21
148.5
 31
0.0
  0
TEXT
  5
13B
  8
0
  6
CONTINUOUS
 62
     7
 10
413.163692634738
 20
109.2577779167188
 30
0.0
 40
3.5
  1
2
  0
LINE
  5
13C
  8
0
  6
CONTINUOUS
 62
     7
 10
10.0
 20
148.5
 30
0.0
 11
5.0
 21
148.5
 31
0.0
  0
TEXT
  5
13D
  8
0
  6
CONTINUOUS
 62
     7
 10
4.600959734900599
 20
112.2806255470802
 30
0.0
 40
3.5
  1
2
 50
270.0
  0
LINE
  5
13E
  8
0
  6
CONTINUOUS
 62
     7
 10
409.9999999999999
 20
222.75
 30
0.0
 11
414.9999999999999
 21
222.75
 31
0.0
  0
TEXT
  5
13F
  8
0
  6
CONTINUOUS
 62
     7
 10
413.1811991996998
 20
183.5077779167188
 30
0.0
 40
3.5
  1
3
  0
LINE
  5
140
  8
0
  6
CONTINUOUS
 62
     7
 10
10.0
 20
222.75
 30
0.0
 11
5.0
 21
222.75
 31
0.0
  0
TEXT
  5
141
  8
0
  6
CONTINUOUS
 62
     7
 10
4.600959734900584
 20
186.5131189821183
 30
0.0
 40
3.5
  1
3
 50
270.0
  0
TEXT
  5
142
  8
0
  6
CONTINUOUS
 62
     7
 10
413.2351413029886
 20
257.7590909090909
 30
0.0
 40
3.5
  1
4
  0
TEXT
  5
143
  8
0
  6
CONTINUOUS
 62
     7
 10
4.60227272727272
 20
260.7091768788295
 30
0.0
 40
3.5
  1
4
 50
270.0
  0
LINE
  5
144
  8
0
  6
CONTINUOUS
 62
     7
 10
220.0
 20
10.0
 30
0.0
 11
220.0
 21
7.0
 31
0.0
  0
LINE
  5
145
  8
0
  6
CONTINUOUS
 62
     7
 10
200.0
 20
10.0
 30
0.0
 11
200.0
 21
7.0
 31
0.0
  0
LINE
  5
146
  8
0
  6
CONTINUOUS
 62
     7
 10
230.0
 20
10.0
 30
0.0
 11
230.0
 21
7.0
 31
0.0
  0
LINE
  5
147
  8
0
  6
CONTINUOUS
 62
     7
 10
190.0
 20
10.0
 30
0.0
 11
190.0
 21
7.0
 31
0.0
  0
LINE
  5
148
  8
0
  6
CONTINUOUS
 62
     7
 10
240.0
 20
10.0
 30
0.0
 11
240.0
 21
7.0
 31
0.0
  0
LINE
  5
149
  8
0
  6
CONTINUOUS
 62
     7
 10
180.0
 20
10.0
 30
0.0
 11
180.0
 21
7.0
 31
0.0
  0
LINE
  5
14A
  8
0
  6
CONTINUOUS
 62
     7
 10
250.0
 20
10.0
 30
0.0
 11
250.0
 21
7.0
 31
0.0
  0
LINE
  5
14B
  8
0
  6
CONTINUOUS
 62
     7
 10
170.0
 20
10.0
 30
0.0
 11
170.0
 21
7.0
 31
0.0
  0
LINE
  5
14C
  8
0
  6
CONTINUOUS
 62
     7
 10
260.0
 20
10.0
 30
0.0
 11
260.0
 21
5.0
 31
0.0
  0
LINE
  5
14D
  8
0
  6
CONTINUOUS
 62
     7
 10
160.0
 20
10.0
 30
0.0
 11
160.0
 21
5.0
 31
0.0
  0
LINE
  5
14E
  8
0
  6
CONTINUOUS
 62
     7
 10
260.0
 20
10.0
 30
0.0
 11
160.0
 21
10.0
 31
0.0
  0
LINE
  5
14F
  8
0
  6
CONTINUOUS
 62
     7
 10
260.0
 20
7.0
 30
0.0
 11
160.0
 21
7.0
 31
0.0
  0
INSERT
  5
150
  8
0
 62
     7
  2
*U4
 10
0.0
 20
0.0
 30
0.0
  0
INSERT
  5
151
  8
0
 62
     7
  2
*U5
 10
0.0
 20
0.0
 30
0.0
  0
INSERT
  5
152
  8
0
 62
     7
  2
*U6
 10
0.0
 20
0.0
 30
0.0
  0
INSERT
  5
153
  8
0
 62
     7
  2
*U7
 10
0.0
 20
0.0
 30
0.0
  0
ENDBLK
  8
0
  0
BLOCK
  8
0
  2
*U2
 70
     1
 10
0.0
 20
0.0
 30
0.0
  0
SOLID
  5
16D
  8
0
  6
CONTINUOUS
 62
     7
 10
11.0
 20
144.5
 30
0.0
 11
6.999999999999999
 21
148.5
 31
0.0
 12
11.0
 22
152.5
 32
0.0
 13
11.0
 23
152.5
 33
0.0
  0
ENDBLK
  8
0
  0
BLOCK
  8
0
  2
*U3
 70
     1
 10
0.0
 20
0.0
 30
0.0
  0
SOLID
  5
173
  8
0
  6
CONTINUOUS
 62
     7
 10
210.0
 20
6.999999999999999
 30
0.0
 11
206.0
 21
11.0
 31
0.0
 12
210.0
 22
11.0
 32
0.0
 13
210.0
 23
11.0
 33
0.0
  0
SOLID
  5
174
  8
0
  6
CONTINUOUS
 62
     7
 10
210.0
 20
6.999999999999999
 30
0.0
 11
210.0
 21
11.0
 31
0.0
 12
214.0
 22
11.0
 32
0.0
 13
214.0
 23
11.0
 33
0.0
  0
ENDBLK
  8
0
  0
BLOCK
  8
0
  2
*U4
 70
     1
 10
0.0
 20
0.0
 30
0.0
  0
SOLID
  5
176
  8
0
  6
CONTINUOUS
 62
     7
 10
0.0
 20
0.0
 30
0.0
 11
0.0
 21
10.0
 31
0.0
 12
2.0
 22
0.0
 32
0.0
 13
2.0
 23
0.0
 33
0.0
  0
SOLID
  5
177
  8
0
  6
CONTINUOUS
 62
     7
 10
2.0
 20
0.0
 30
0.0
 11
0.0
 21
10.0
 31
0.0
 12
2.0
 22
10.0
 32
0.0
 13
2.0
 23
10.0
 33
0.0
  0
SOLID
  5
178
  8
0
  6
CONTINUOUS
 62
     7
 10
2.0
 20
0.0
 30
0.0
 11
2.0
 21
2.0
 31
0.0
 12
10.0
 22
0.0
 32
0.0
 13
10.0
 23
0.0
 33
0.0
  0
SOLID
  5
179
  8
0
  6
CONTINUOUS
 62
     7
 10
10.0
 20
0.0
 30
0.0
 11
2.0
 21
2.0
 31
0.0
 12
10.0
 22
2.0
 32
0.0
 13
10.0
 23
2.0
 33
0.0
  0
ENDBLK
  8
0
  0
BLOCK
  8
0
  2
*U5
 70
     1
 10
0.0
 20
0.0
 30
0.0
  0
SOLID
  5
17B
  8
0
  6
CONTINUOUS
 62
     7
 10
409.9999999999999
 20
0.0
 30
0.0
 11
409.9999999999999
 21
2.0
 31
0.0
 12
418.0
 22
0.0
 32
0.0
 13
418.0
 23
0.0
 33
0.0
  0
SOLID
  5
17C
  8
0
  6
CONTINUOUS
 62
     7
 10
418.0
 20
0.0
 30
0.0
 11
409.9999999999999
 21
2.0
 31
0.0
 12
418.0
 22
2.0
 32
0.0
 13
418.0
 23
2.0
 33
0.0
  0
SOLID
  5
17D
  8
0
  6
CONTINUOUS
 62
     7
 10
418.0
 20
0.0
 30
0.0
 11
418.0
 21
10.0
 31
0.0
 12
420.0
 22
0.0
 32
0.0
 13
420.0
 23
0.0
 33
0.0
  0
SOLID
  5
17E
  8
0
  6
CONTINUOUS
 62
     7
 10
420.0
 20
0.0
 30
0.0
 11
418.0
 21
10.0
 31
0.0
 12
420.0
 22
10.0
 32
0.0
 13
420.0
 23
10.0
 33
0.0
  0
ENDBLK
  8
0
  0
BLOCK
  8
0
  2
*U6
 70
     1
 10
0.0
 20
0.0
 30
0.0
  0
SOLID
  5
180
  8
0
  6
CONTINUOUS
 62
     7
 10
409.9999999999999
 20
295.0
 30
0.0
 11
409.9999999999999
 21
297.0
 31
0.0
 12
418.0
 22
295.0
 32
0.0
 13
418.0
 23
295.0
 33
0.0
  0
SOLID
  5
181
  8
0
  6
CONTINUOUS
 62
     7
 10
418.0
 20
295.0
 30
0.0
 11
409.9999999999999
 21
297.0
 31
0.0
 12
418.0
 22
297.0
 32
0.0
 13
418.0
 23
297.0
 33
0.0
  0
SOLID
  5
182
  8
0
  6
CONTINUOUS
 62
     7
 10
418.0
 20
286.9999999999999
 30
0.0
 11
418.0
 21
297.0
 31
0.0
 12
420.0
 22
286.9999999999999
 32
0.0
 13
420.0
 23
286.9999999999999
 33
0.0
  0
SOLID
  5
183
  8
0
  6
CONTINUOUS
 62
     7
 10
420.0
 20
286.9999999999999
 30
0.0
 11
418.0
 21
297.0
 31
0.0
 12
420.0
 22
297.0
 32
0.0
 13
420.0
 23
297.0
 33
0.0
  0
ENDBLK
  8
0
  0
BLOCK
  8
0
  2
*U7
 70
     1
 10
0.0
 20
0.0
 30
0.0
  0
SOLID
  5
185
  8
0
  6
CONTINUOUS
 62
     7
 10
0.0
 20
286.9999999999999
 30
0.0
 11
0.0
 21
297.0
 31
0.0
 12
2.0
 22
286.9999999999999
 32
0.0
 13
2.0
 23
286.9999999999999
 33
0.0
  0
SOLID
  5
186
  8
0
  6
CONTINUOUS
 62
     7
 10
2.0
 20
286.9999999999999
 30
0.0
 11
0.0
 21
297.0
 31
0.0
 12
2.0
 22
297.0
 32
0.0
 13
2.0
 23
297.0
 33
0.0
  0
SOLID
  5
187
  8
0
  6
CONTINUOUS
 62
     7
 10
2.0
 20
295.0
 30
0.0
 11
2.0
 21
297.0
 31
0.0
 12
10.0
 22
295.0
 32
0.0
 13
10.0
 23
295.0
 33
0.0
  0
SOLID
  5
188
  8
0
  6
CONTINUOUS
 62
     7
 10
10.0
 20
295.0
 30
0.0
 11
2.0
 21
297.0
 31
0.0
 12
10.0
 22
297.0
 32
0.0
 13
10.0
 23
297.0
 33
0.0
  0
ENDBLK
  8
0
  0
ENDSEC
  0
SECTION
  2
ENTITIES
  0
LINE
  5
70
  8
1
  6
CONTINUOUS
 62
     7
 10
236.5714397474
 20
-215.5528727619
 30
0.0
 11
236.5714397474
 21
-219.7599795431
 31
0.0
  0
LINE
  5
71
  8
1
  6
CONTINUOUS
 62
     7
 10
279.5714397474
 20
-215.9670863243
 30
0.0
 11
279.5714397474
 21
-219.7599795431
 31
0.0
  0
LINE
  5
72
  8
1
  6
CONTINUOUS
 62
     7
 10
448.2512972994
 20
-142.7599795431
 30
0.0
 11
448.2512975919
 21
-219.7599795433
 31
0.0
  0
LINE
  5
73
  8
1
  6
CENTER
 62
     7
 10
398.7126191292
 20
-69.2599795433
 30
0.0
 11
384.2512972994
 21
-69.2599795433
 31
0.0
  0
ARC
  5
75
  8
1
  6
CONTINUOUS
 62
     7
 10
280.0613892411
 20
-214.7599795431
 30
0.0
 40
0.2
 50
134.9999999999
 51
224.9999999995
  0
LINE
  5
76
  8
1
  6
CONTINUOUS
 62
     7
 10
389.2512972994
 20
-64.7599795433
 30
0.0
 11
391.7512972994
 21
-64.7599795433
 31
0.0
  0
LINE
  5
77
  8
1
  6
CONTINUOUS
 62
     7
 10
278.7178863569
 20
-214.4064261525
 30
0.0
 11
279.5714397474
 21
-213.5528727619
 31
0.0
  0
LINE
  5
78
  8
1
  6
CONTINUOUS
 62
     7
 10
238.424993138
 20
-215.1135329337
 30
0.0
 11
237.5714397474
 21
-215.9670863243
 31
0.0
  0
LINE
  5
79
  8
1
  6
CONTINUOUS
 62
     7
 10
450.7512973798
 20
-200.7599795433
 30
0.0
 11
450.7512973798
 21
-142.7599795727
 31
0.0
  0
LINE
  5
7A
  8
1
  6
CONTINUOUS
 62
     7
 10
237.5714397474
 20
-209.7599795431
 30
0.0
 11
237.5714397474
 21
-213.5528727619
 31
0.0
  0
ARC
  5
7B
  8
1
  6
CONTINUOUS
 62
     7
 10
390.2512972994
 20
-75.1212332508
 30
0.0
 40
1.5
 50
180.0
 51
264.091438154
  0
LINE
  5
7C
  8
1
  6
CONTINUOUS
 62
     7
 10
390.4616226502
 20
-73.7599795433
 30
0.0
 11
390.4616226502
 21
-73.760500248
 31
0.0
  0
LINE
  5
7D
  8
1
  6
CONTINUOUS
 62
     7
 10
279.5714397474
 20
-209.7599795431
 30
0.0
 11
279.5714397474
 21
-213.5528727619
 31
0.0
  0
LINE
  5
7E
  8
1
  6
CONTINUOUS
 62
     7
 10
278.7178863569
 20
-215.1135329337
 30
0.0
 11
279.5714397474
 21
-215.9670863243
 31
0.0
  0
LINE
  5
7F
  8
1
  6
CONTINUOUS
 62
     7
 10
236.5714397474
 20
-209.7599795431
 30
0.0
 11
236.5714397474
 21
-213.9670863243
 31
0.0
  0
ARC
  5
80
  8
1
  6
CONTINUOUS
 62
     7
 10
243.5714397475
 20
-213.7599795433
 30
0.0
 40
1.0
 50
76.81595476519999
 51
176.6919117807
  0
LINE
  5
81
  8
1
  6
CONTINUOUS
 62
     7
 10
237.22291161
 20
-214.9014008993
 30
0.0
 11
236.5714397474
 21
-215.5528727619
 31
0.0
  0
LINE
  5
82
  8
1
  6
CONTINUOUS
 62
     7
 10
247.8433599921
 20
-213.733623384
 30
0.0
 11
243.7995195029
 21
-212.7863370909
 31
0.0
  0
ARC
  5
83
  8
1
  6
CONTINUOUS
 62
     7
 10
238.5714397474
 20
-209.7599795431
 30
0.0
 40
2.0
 50
90.0
 51
180.0
  0
ARC
  5
84
  8
1
  6
CONTINUOUS
 62
     7
 10
390.2512972994
 20
-75.1212332508
 30
0.0
 40
3.0
 50
180.0
 51
264.091438154
  0
LINE
  5
85
  8
1
  6
CONTINUOUS
 62
     7
 10
316.7512955126
 20
-202.970505859
 30
0.0
 11
315.7512972191
 21
-200.7599795433
 31
0.0
  0
ARC
  5
86
  8
1
  6
CONTINUOUS
 62
     7
 10
238.5714397474
 20
-209.7599795431
 30
0.0
 40
1.0
 50
90.0
 51
180.0
  0
ARC
  5
87
  8
1
  6
CONTINUOUS
 62
     7
 10
390.2512980529
 20
-75.1212333287
 30
0.0
 40
0.5
 50
180.0000317194
 51
264.0914375158001
  0
LINE
  5
88
  8
1
  6
CONTINUOUS
 62
     7
 10
279.9199678849
 20
-214.9014008993
 30
0.0
 11
280.5714397474
 21
-215.5528727619
 31
0.0
  0
ARC
  5
89
  8
1
  6
CONTINUOUS
 62
     7
 10
237.0814902538
 20
-214.7599795431
 30
0.0
 40
0.2
 50
315.0000000005
 51
45.00000000009999
  0
ARC
  5
8A
  8
1
  6
CONTINUOUS
 62
     7
 10
279.0714397474
 20
-214.7599795431
 30
0.0
 40
0.5
 50
135.0
 51
225.0
  0
LINE
  5
8B
  8
1
  6
CONTINUOUS
 62
     7
 10
387.2512972994
 20
-75.4500606894
 30
0.0
 11
387.2512972994
 21
-61.7599795433
 31
0.0
  0
LINE
  5
8C
  8
1
  6
CONTINUOUS
 62
     7
 10
237.5714397474
 20
-215.9670863243
 30
0.0
 11
237.5714397474
 21
-219.7599795431
 31
0.0
  0
LINE
  5
8D
  8
1
  6
CONTINUOUS
 62
     7
 10
280.5714397474
 20
-219.7599795431
 30
0.0
 11
279.5714397474
 21
-219.7599795431
 31
0.0
  0
LINE
  5
8E
  8
1
  6
CONTINUOUS
 62
     7
 10
236.5714397474
 20
-219.7599795431
 30
0.0
 11
237.5714397474
 21
-219.7599795431
 31
0.0
  0
LINE
  5
8F
  8
1
  6
CONTINUOUS
 62
     7
 10
387.2512972994
 20
-71.7599893383
 30
0.0
 11
379.2512972994
 21
-71.7599781439
 31
0.0
  0
LINE
  5
90
  8
1
  6
CONTINUOUS
 62
     7
 10
259.4714397474
 20
-65.2599795433
 30
0.0
 11
259.4714397474
 21
-67.1599795435
 31
0.0
  0
LINE
  5
91
  8
1
  6
CONTINUOUS
 62
     7
 10
259.4714397474
 20
-71.3599795433
 30
0.0
 11
259.4714397474
 21
-73.2599795433
 31
0.0
  0
LINE
  5
92
  8
1
  6
CONTINUOUS
 62
     7
 10
238.424993138
 20
-214.4064261525
 30
0.0
 11
237.5714397474
 21
-213.5528727619
 31
0.0
  0
LINE
  5
93
  8
1
  6
CONTINUOUS
 62
     7
 10
279.9199678849
 20
-214.6185581869
 30
0.0
 11
280.5714397474
 21
-213.9670863243
 31
0.0
  0
LINE
  5
94
  8
1
  6
CONTINUOUS
 62
     7
 10
449.7512990863
 20
-202.970505859
 30
0.0
 11
450.7512973798
 21
-200.7599795433
 31
0.0
  0
LINE
  5
95
  8
1
  6
CONTINUOUS
 62
     7
 10
258.5714397474
 20
-62.9553146037
 30
0.0
 11
253.1114397474
 21
-66.1076470735
 31
0.0
  0
LINE
  5
96
  8
1
  6
CONTINUOUS
 62
     7
 10
254.5714397474
 20
-68.3599795433
 30
0.0
 11
256.4714397474
 21
-68.3599795433
 31
0.0
  0
ARC
  5
97
  8
1
  6
CONTINUOUS
 62
     7
 10
260.6714397474
 20
-67.1599795435
 30
0.0
 40
1.2
 50
180.0
 51
270.0
  0
LINE
  5
98
  8
1
  6
CONTINUOUS
 62
     7
 10
379.2512972994
 20
-66.7599801084
 30
0.0
 11
387.2512972994
 21
-66.7599753628
 31
0.0
  0
LINE
  5
99
  8
1
  6
CONTINUOUS
 62
     7
 10
258.5714397474
 20
-75.5646444828
 30
0.0
 11
253.1114397474
 21
-72.412312013
 31
0.0
  0
LINE
  5
9A
  8
1
  6
CONTINUOUS
 62
     7
 10
280.5714397474
 20
-215.5528727619
 30
0.0
 11
280.5714397474
 21
-219.7599795431
 31
0.0
  0
LINE
  5
9B
  8
1
  6
CONTINUOUS
 62
     7
 10
237.22291161
 20
-214.6185581869
 30
0.0
 11
236.5714397474
 21
-213.9670863243
 31
0.0
  0
ARC
  5
9C
  8
1
  6
CONTINUOUS
 62
     7
 10
238.0714397474
 20
-214.7599795431
 30
0.0
 40
0.5
 50
314.9999999999
 51
45.00000000009999
  0
LINE
  5
9D
  8
1
  6
CONTINUOUS
 62
     7
 10
264.0314397474
 20
-72.412312013
 30
0.0
 11
258.5714397474
 21
-75.5646444828
 31
0.0
  0
ARC
  5
9E
  8
1
  6
CONTINUOUS
 62
     7
 10
256.4714397474
 20
-71.3599795435
 30
0.0
 40
1.2
 50
0.0
 51
90.0
  0
ARC
  5
9F
  8
1
  6
CONTINUOUS
 62
     7
 10
260.6714397474
 20
-71.3599795433
 30
0.0
 40
1.2
 50
90.0
 51
180.0
  0
LINE
  5
A0
  8
1
  6
CONTINUOUS
 62
     7
 10
398.7512972994
 20
-66.2599795433
 30
0.0
 11
398.7512972994
 21
-72.2599795433
 31
0.0
  0
LINE
  5
A1
  8
1
  6
CONTINUOUS
 62
     7
 10
388.7512972994
 20
-75.1212332508
 30
0.0
 11
388.7512972994
 21
-61.7599795433
 31
0.0
  0
ARC
  5
A2
  8
1
  6
CONTINUOUS
 62
     7
 10
389.2512972994
 20
-74.2599795433
 30
0.0
 40
0.5
 50
90.0
 51
180.0
  0
LINE
  5
A3
  8
1
  6
CONTINUOUS
 62
     7
 10
423.2512972994001
 20
-207.7599795431
 30
0.0
 11
423.2512972994001
 21
-219.7599795431
 31
0.0
  0
LINE
  5
A4
  8
1
  6
CONTINUOUS
 62
     7
 10
249.0714398089
 20
-208.7599795431
 30
0.0
 11
238.5714397474
 21
-208.7599795431
 31
0.0
  0
LINE
  5
A5
  8
1
  6
CONTINUOUS
 62
     7
 10
374.7512972994
 20
-64.7599795433
 30
0.0
 11
374.7512972994
 21
-73.7599795433
 31
0.0
  0
LINE
  5
A6
  8
1
  6
CONTINUOUS
 62
     7
 10
377.7512972994
 20
-75.1212332508
 30
0.0
 11
377.7512972994
 21
-61.7599795433
 31
0.0
  0
ARC
  5
A7
  8
1
  6
CONTINUOUS
 62
     7
 10
376.251296546
 20
-75.1212333287
 30
0.0
 40
0.5
 50
275.9085624842
 51
0.0
  0
CIRCLE
  5
A8
  8
1
  6
CONTINUOUS
 62
     7
 10
258.5714397474
 20
-69.2599795433
 30
0.0
 40
5.1
  0
LINE
  5
A9
  8
1
  6
CONTINUOUS
 62
     7
 10
377.2512972994
 20
-64.7599795433
 30
0.0
 11
374.7512972994
 21
-64.7599795433
 31
0.0
  0
LINE
  5
AA
  8
1
  6
CONTINUOUS
 62
     7
 10
391.7512972994
 20
-66.2599795433
 30
0.0
 11
398.7512972994
 21
-66.2599795433
 31
0.0
  0
ARC
  5
AB
  8
1
  6
CONTINUOUS
 62
     7
 10
376.2512972994
 20
-75.1212332508
 30
0.0
 40
3.0
 50
275.908561846
 51
0.0
  0
LINE
  5
AC
  8
1
  6
CONTINUOUS
 62
     7
 10
257.6714397474
 20
-67.1599795433
 30
0.0
 11
257.6714397474
 21
-65.2599795433
 31
0.0
  0
ARC
  5
AD
  8
1
  6
CONTINUOUS
 62
     7
 10
376.2512972994
 20
-75.1212332508
 30
0.0
 40
1.5
 50
275.908561846
 51
0.0
  0
LINE
  5
AE
  8
1
  6
CONTINUOUS
 62
     7
 10
318.2512972994
 20
-142.7599795431
 30
0.0
 11
318.2512970067
 21
-219.7599795433
 31
0.0
  0
LINE
  5
AF
  8
1
  6
CENTER
 62
     7
 10
383.2512972994
 20
-58.1728289261
 30
0.0
 11
383.2512972994
 21
-225.4498957659
 31
0.0
  0
LINE
  5
B0
  8
1
  6
CENTER
 62
     7
 10
252.5488967112
 20
-69.2599795433
 30
0.0
 11
265.1791634345
 21
-69.2599795433
 31
0.0
  0
ARC
  5
B1
  8
1
  6
CONTINUOUS
 62
     7
 10
243.5731060669
 20
-218.7599795433
 30
0.0
 40
1.0
 50
180.0
 51
270.0
  0
ARC
  5
B2
  8
1
  6
CONTINUOUS
 62
     7
 10
273.5731060669
 20
-218.7599795433
 30
0.0
 40
1.0
 50
270.0
 51
0.0
  0
LINE
  5
B3
  8
1
  6
CONTINUOUS
 62
     7
 10
379.2512972994
 20
-75.4500606894
 30
0.0
 11
379.2512972994
 21
-61.7599795433
 31
0.0
  0
LINE
  5
B4
  8
1
  6
CONTINUOUS
 62
     7
 10
262.5714397474
 20
-70.1599795433
 30
0.0
 11
260.6714397474
 21
-70.1599795433
 31
0.0
  0
LINE
  5
B5
  8
1
  6
CONTINUOUS
 62
     7
 10
264.0314397474
 20
-72.412312013
 30
0.0
 11
264.0314397474
 21
-66.1076470735
 31
0.0
  0
LINE
  5
B6
  8
1
  6
CONTINUOUS
 62
     7
 10
391.7512972994
 20
-66.7599795433
 30
0.0
 11
399.7512972994
 21
-66.7599795433
 31
0.0
  0
LINE
  5
B7
  8
1
  6
CONTINUOUS
 62
     7
 10
398.7512972994
 20
-66.2599795433
 30
0.0
 11
399.7512972994
 21
-66.7599795433
 31
0.0
  0
ARC
  5
B8
  8
1
  6
CONTINUOUS
 62
     7
 10
256.4714397474
 20
-67.1599795433
 30
0.0
 40
1.2
 50
270.0
 51
0.0
  0
LINE
  5
B9
  8
1
  6
CONTINUOUS
 62
     7
 10
243.5731060669
 20
-219.7599795433
 30
0.0
 11
273.5731060669
 21
-219.7599795433
 31
0.0
  0
LINE
  5
BA
  8
1
  6
CONTINUOUS
 62
     7
 10
259.4714397474
 20
-73.2599795433
 30
0.0
 11
257.6714397474
 21
-73.2599795433
 31
0.0
  0
LINE
  5
BB
  8
1
  6
CONTINUOUS
 62
     7
 10
269.2995195028
 20
-213.733623384
 30
0.0
 11
273.343359992
 21
-212.7863370909
 31
0.0
  0
ARC
  5
BC
  8
1
  6
CONTINUOUS
 62
     7
 10
383.2512972994
 20
-142.7599795431
 30
0.0
 40
67.5
 50
95.90856248420003
 51
180.0
  0
LINE
  5
BD
  8
1
  6
CONTINUOUS
 62
     7
 10
399.7512972994
 20
-71.7599795433
 30
0.0
 11
398.7512972994
 21
-72.2599795432
 31
0.0
  0
LINE
  5
BE
  8
1
  6
CONTINUOUS
 62
     7
 10
274.5731060669
 20
-213.6751996031
 30
0.0
 11
274.5731060669
 21
-218.7599795433
 31
0.0
  0
LINE
  5
BF
  8
1
  6
CONTINUOUS
 62
     7
 10
242.5731060669
 20
-213.7022745849
 30
0.0
 11
242.5731060669
 21
-218.7599795433
 31
0.0
  0
LINE
  5
C0
  8
1
  6
CONTINUOUS
 62
     7
 10
316.7513165873
 20
-142.7599795727
 30
0.0
 11
316.751289636
 21
-219.7599795433
 31
0.0
  0
LINE
  5
C1
  8
1
  6
CONTINUOUS
 62
     7
 10
376.0409719487
 20
-73.7599795433
 30
0.0
 11
376.0409719487
 21
-73.760500248
 31
0.0
  0
LINE
  5
C2
  8
1
  6
CONTINUOUS
 62
     7
 10
391.7512972994
 20
-72.2599795433
 30
0.0
 11
398.7512972994
 21
-72.2599795433
 31
0.0
  0
LINE
  5
C3
  8
1
  6
CENTER
 62
     7
 10
305.5947809865
 20
-142.7599795433
 30
0.0
 11
460.7512973798
 21
-142.7599795433
 31
0.0
  0
ARC
  5
C4
  8
1
  6
CONTINUOUS
 62
     7
 10
269.0714397474
 20
-212.7599809316
 30
0.0
 40
1.0
 50
180.0
 51
283.1840452348
  0
LINE
  5
C5
  8
1
  6
CONTINUOUS
 62
     7
 10
256.4714397474
 20
-70.1599795433
 30
0.0
 11
254.5714397474
 21
-70.1599795433
 31
0.0
  0
LINE
  5
C6
  8
1
  6
CONTINUOUS
 62
     7
 10
376.751296546
 20
-75.1212336055
 30
0.0
 11
376.7512972996
 21
-73.7599795433
 31
0.0
  0
LINE
  5
C7
  8
1
  6
CENTER
 62
     7
 10
258.5714397474
 20
-58.1728289261
 30
0.0
 11
258.5714397474
 21
-225.4498957659
 31
0.0
  0
ARC
  5
C8
  8
1
  6
CONTINUOUS
 62
     7
 10
377.2512972994
 20
-74.2599795433
 30
0.0
 40
0.5
 50
0.0
 51
90.0
  0
LINE
  5
C9
  8
1
  6
CONTINUOUS
 62
     7
 10
399.7512972997
 20
-71.7599795433
 30
0.0
 11
399.7512972994
 21
-66.7599795433
 31
0.0
  0
LINE
  5
CA
  8
1
  6
CONTINUOUS
 62
     7
 10
260.6714397474
 20
-68.3599795433
 30
0.0
 11
262.5714397474
 21
-68.3599795433
 31
0.0
  0
LINE
  5
CB
  8
1
  6
CONTINUOUS
 62
     7
 10
264.0314397474
 20
-66.1076470735
 30
0.0
 11
258.5714397474
 21
-62.9553146037
 31
0.0
  0
LINE
  5
CC
  8
1
  6
CONTINUOUS
 62
     7
 10
257.6714397474
 20
-65.2599795433
 30
0.0
 11
259.4714397474
 21
-65.2599795433
 31
0.0
  0
LINE
  5
CD
  8
1
  6
CONTINUOUS
 62
     7
 10
399.7512972994
 20
-71.7599795433
 30
0.0
 11
391.7512972994
 21
-71.7599795433
 31
0.0
  0
LINE
  5
CE
  8
1
  6
CONTINUOUS
 62
     7
 10
254.5714397474
 20
-70.1599795433
 30
0.0
 11
254.5714397474
 21
-68.3599795433
 31
0.0
  0
ARC
  5
CF
  8
1
  6
CONTINUOUS
 62
     7
 10
377.2512972994
 20
-64.2599795433
 30
0.0
 40
0.5
 50
270.0
 51
0.0
  0
LINE
  5
D0
  8
1
  6
CONTINUOUS
 62
     7
 10
262.5714397474
 20
-68.3599795433
 30
0.0
 11
262.5714397474
 21
-70.1599795433
 31
0.0
  0
LINE
  5
D1
  8
1
  6
CONTINUOUS
 62
     7
 10
257.6714397474
 20
-73.2599795433
 30
0.0
 11
257.6714397474
 21
-71.3599795435
 31
0.0
  0
ARC
  5
D2
  8
1
  6
CONTINUOUS
 62
     7
 10
378.9512972994
 20
-69.2599795433
 30
0.0
 40
9.0
 50
162.0660707094
 51
197.9339292906
  0
ARC
  5
D3
  8
1
  6
CONTINUOUS
 62
     7
 10
383.2512972994
 20
-142.7599795431
 30
0.0
 40
66.5
 50
0.0
 51
84.09143815400002
  0
LINE
  5
D4
  8
1
  6
CONTINUOUS
 62
     7
 10
423.2512972994001
 20
-214.7599795431
 30
0.0
 11
343.2512972993999
 21
-214.7599795431
 31
0.0
  0
LINE
  5
D5
  8
1
  6
CONTINUOUS
 62
     7
 10
315.7512972191
 20
-200.7599795433
 30
0.0
 11
315.7512972191
 21
-142.7599795727
 31
0.0
  0
ARC
  5
D6
  8
1
  6
CONTINUOUS
 62
     7
 10
383.2512972994
 20
-142.7599795431
 30
0.0
 40
65.0
 50
95.908561846
 51
180.0
  0
LINE
  5
D7
  8
1
  6
CONTINUOUS
 62
     7
 10
374.7512972994
 20
-63.717416959
 30
0.0
 11
374.7512972994
 21
-74.8025421275
 31
0.0
  0
LINE
  5
D8
  8
1
  6
CONTINUOUS
 62
     7
 10
374.7512972994
 20
-74.8025421275
 30
0.0
 11
370.4492980396
 21
-74.8025421275
 31
0.0
  0
ARC
  5
D9
  8
1
  6
CONTINUOUS
 62
     7
 10
372.1560514719
 20
-65.1707416433
 30
0.0
 40
2.2047541725
 50
149.9999999999
 51
216.7110427075
  0
LINE
  5
DA
  8
1
  6
CONTINUOUS
 62
     7
 10
253.1114397474
 20
-66.1076470735
 30
0.0
 11
253.1114397474
 21
-72.412312013
 31
0.0
  0
ARC
  5
DB
  8
1
  6
CONTINUOUS
 62
     7
 10
278.5714397474
 20
-209.7599795431
 30
0.0
 40
1.0
 50
0.0
 51
90.0
  0
ARC
  5
DC
  8
1
  6
CONTINUOUS
 62
     7
 10
372.1560514719
 20
-73.3492174432
 30
0.0
 40
2.2047541725
 50
143.2889572925
 51
210.0000000002
  0
LINE
  5
DD
  8
1
  6
CONTINUOUS
 62
     7
 10
389.2512972994
 20
-73.7599795433
 30
0.0
 11
391.7512972994
 21
-73.7599795433
 31
0.0
  0
ARC
  5
DE
  8
1
  6
CONTINUOUS
 62
     7
 10
383.2512972994
 20
-142.7599795431
 30
0.0
 40
67.5
 50
0.0
 51
84.0914375158
  0
LINE
  5
DF
  8
1
  6
CONTINUOUS
 62
     7
 10
280.5714397474
 20
-209.7599795431
 30
0.0
 11
280.5714397474
 21
-213.9670863243
 31
0.0
  0
LINE
  5
E0
  8
1
  6
CONTINUOUS
 62
     7
 10
278.5714397474
 20
-208.7599795431
 30
0.0
 11
268.071439686
 21
-208.7599795431
 31
0.0
  0
LINE
  5
E1
  8
1
  6
CONTINUOUS
 62
     7
 10
391.7512972994
 20
-64.7599795433
 30
0.0
 11
391.7512972994
 21
-73.7599795433
 31
0.0
  0
LINE
  5
E2
  8
1
  6
CONTINUOUS
 62
     7
 10
423.2512972994001
 20
-207.7599795431
 30
0.0
 11
343.2512972993999
 21
-207.7599795431
 31
0.0
  0
LINE
  5
E3
  8
1
  6
CONTINUOUS
 62
     7
 10
343.2512972993999
 20
-213.9670863243
 30
0.0
 11
423.2512972994001
 21
-213.9670863243
 31
0.0
  0
LINE
  5
E4
  8
1
  6
CONTINUOUS
 62
     7
 10
249.0714398089
 20
-207.7599795431
 30
0.0
 11
238.5714397474
 21
-207.7599795431
 31
0.0
  0
LINE
  5
E5
  8
1
  6
CONTINUOUS
 62
     7
 10
389.7512980529
 20
-75.1212336055
 30
0.0
 11
389.7512972993
 21
-73.7599795433
 31
0.0
  0
ARC
  5
E6
  8
1
  6
CONTINUOUS
 62
     7
 10
383.2512972994
 20
-142.7599795431
 30
0.0
 40
66.5
 50
95.908561846
 51
180.0
  0
LINE
  5
E7
  8
1
  6
CONTINUOUS
 62
     7
 10
370.4492980396
 20
-74.8025421275
 30
0.0
 11
370.2466783494
 21
-74.4515945295
 31
0.0
  0
ARC
  5
E8
  8
1
  6
CONTINUOUS
 62
     7
 10
383.2512972994
 20
-142.7599795431
 30
0.0
 40
65.0
 50
0.0
 51
84.09143815400002
  0
LINE
  5
E9
  8
1
  6
CONTINUOUS
 62
     7
 10
370.388587254
 20
-72.0312602362
 30
0.0
 11
374.7512972994
 21
-72.0312602362
 31
0.0
  0
LINE
  5
EA
  8
1
  6
CONTINUOUS
 62
     7
 10
374.7512972994
 20
-63.717416959
 30
0.0
 11
370.4492980396
 21
-63.717416959
 31
0.0
  0
LINE
  5
EB
  8
1
  6
CONTINUOUS
 62
     7
 10
370.388587254
 20
-66.4886988504
 30
0.0
 11
374.7512972994
 21
-66.4886988504
 31
0.0
  0
LINE
  5
EC
  8
1
  6
CONTINUOUS
 62
     7
 10
369.9512972994
 20
-73.3492174432
 30
0.0
 11
369.9512972994
 21
-65.1707416433
 31
0.0
  0
LINE
  5
ED
  8
1
  6
CONTINUOUS
 62
     7
 10
370.4492980396
 20
-63.717416959
 30
0.0
 11
370.2466783494
 21
-64.068364557
 31
0.0
  0
LINE
  5
EE
  8
1
  6
CONTINUOUS
 62
     7
 10
316.751298336
 20
-219.7599795431
 30
0.0
 11
318.2512970068
 21
-219.7599795433
 31
0.0
  0
LINE
  5
EF
  8
1
  6
CONTINUOUS
 62
     7
 10
449.7512962629
 20
-219.7599795431
 30
0.0
 11
448.2512975921
 21
-219.7599795433
 31
0.0
  0
ARC
  5
F0
  8
1
  6
CONTINUOUS
 62
     7
 10
389.2512972994
 20
-64.2599795433
 30
0.0
 40
0.5
 50
180.0
 51
270.0
  0
LINE
  5
F1
  8
1
  6
CONTINUOUS
 62
     7
 10
388.7512972994
 20
-61.7599795433
 30
0.0
 11
387.2512972994
 21
-61.7599795433
 31
0.0
  0
ARC
  5
F2
  8
1
  6
CONTINUOUS
 62
     7
 10
248.0714397475
 20
-212.7599809316
 30
0.0
 40
1.0
 50
256.8159547652
 51
0.0
  0
LINE
  5
F3
  8
1
  6
CONTINUOUS
 62
     7
 10
278.5714397474
 20
-207.7599795431
 30
0.0
 11
268.071439686
 21
-207.7599795431
 31
0.0
  0
LINE
  5
F4
  8
1
  6
CONTINUOUS
 62
     7
 10
449.7512780116
 20
-142.7599795727
 30
0.0
 11
449.7513049629
 21
-219.7599795433
 31
0.0
  0
ARC
  5
F5
  8
1
  6
CONTINUOUS
 62
     7
 10
278.5714397474
 20
-209.7599795431
 30
0.0
 40
2.0
 50
0.0
 51
90.0
  0
LINE
  5
F6
  8
1
  6
CONTINUOUS
 62
     7
 10
343.2512972993999
 20
-207.7599795431
 30
0.0
 11
343.2512972993999
 21
-219.7599795431
 31
0.0
  0
LINE
  5
F7
  8
1
  6
CONTINUOUS
 62
     7
 10
240.5714397473
 20
-69.48786571210128
 30
0.0
 11
240.5714397473
 21
-199.6598354043521
 31
0.0
  0
LINE
  5
F8
  8
0
  6
CONTINUOUS
 62
     7
 10
239.5714397474
 20
-71.219916519497
 30
0.0
 11
239.5714397474
 21
-197.9277845969564
 31
0.0
  0
LINE
  5
F9
  8
0
  6
CONTINUOUS
 62
     7
 10
272.9113696612798
 20
-203.7031817029549
 30
0.0
 11
268.0714397473999
 21
-206.7599795433
 31
0.0
  0
LINE
  5
FA
  8
1
  6
CONTINUOUS
 62
     7
 10
274.0714397474
 20
-202.8476347494305
 30
0.0
 11
274.0714397474
 21
-66.30006636702291
 31
0.0
  0
ARC
  5
FB
  8
0
  6
CONTINUOUS
 62
     7
 10
249.5714397474
 20
-73.8994084438082
 30
0.0
 40
10.0
 50
116.7436839504029
 51
149.9999999999999
  0
ARC
  5
FC
  8
0
  6
CONTINUOUS
 62
     7
 10
267.5714397474
 20
-195.2482926726451
 30
0.0
 40
10.0
 50
302.2756443145774
 51
330.0
  0
LINE
  5
FD
  8
0
  6
CONTINUOUS
 62
     7
 10
276.2316937852444
 20
-200.2482926726451
 30
0.0
 11
277.5714397474
 21
-197.9277845969563
 31
0.0
  0
LINE
  5
FE
  8
0
  6
CONTINUOUS
 62
     7
 10
244.2315098335201
 20
-203.7031817029549
 30
0.0
 11
249.0714397473999
 21
-206.7599795433
 31
0.0
  0
LINE
  5
FF
  8
1
  6
CONTINUOUS
 62
     7
 10
243.0714397474
 20
-202.8476347494305
 30
0.0
 11
243.0714397474
 21
-66.30006636702282
 31
0.0
  0
LINE
  5
100
  8
1
  6
CONTINUOUS
 62
     7
 10
276.5714397474
 20
-69.48786571192812
 30
0.0
 11
276.5714397474
 21
-199.6598354045252
 31
0.0
  0
ARC
  5
101
  8
0
  6
CONTINUOUS
 62
     7
 10
258.5714397474
 20
-91.75997954329996
 30
0.0
 40
30.00000000000002
 50
63.256316049597
 51
116.743683950403
  0
ARC
  5
102
  8
0
  6
CONTINUOUS
 62
     7
 10
249.5714397474
 20
-195.2482926726451
 30
0.0
 40
10.0
 50
210.0
 51
237.7243556854221
  0
LINE
  5
103
  8
0
  6
CONTINUOUS
 62
     7
 10
277.5714397474
 20
-71.219916519497
 30
0.0
 11
277.5714397474
 21
-197.9277845969563
 31
0.0
  0
LINE
  5
104
  8
0
  6
CONTINUOUS
 62
     7
 10
240.9111857095556
 20
-200.2482926726452
 30
0.0
 11
239.5714397474
 21
-197.9277845969564
 31
0.0
  0
LINE
  5
105
  8
0
  6
CONTINUOUS
 62
     7
 10
240.9111857095556
 20
-68.8994084438082
 30
0.0
 11
239.5714397474
 21
-71.219916519497
 31
0.0
  0
LINE
  5
106
  8
0
  6
CONTINUOUS
 62
     7
 10
276.2316937852444
 20
-68.8994084438082
 30
0.0
 11
277.5714397474
 21
-71.219916519497
 31
0.0
  0
ARC
  5
107
  8
0
  6
CONTINUOUS
 62
     7
 10
267.5714397474
 20
-73.8994084438082
 30
0.0
 40
10.0
 50
30.00000000000005
 51
63.25631604959665
  0
TEXT
  5
108
  8
1
  6
CONTINUOUS
 62
     7
 10
429.8880504538682
 20
-242.5495687272728
 30
0.0
 40
3.0
  1
ＤＣＦ－１００Ｆ
 41
0.871618
 51
14.999825
  0
INSERT
  5
10A
  8
0
 62
     7
  2
D_FRAME_DRAWING_21
 10
0.0
 20
0.0
 30
0.0
  0
LINE
  5
154
  8
1
  6
CENTER
 62
     7
 10
372.7899754697
 20
-69.2599795433
 30
0.0
 11
382.2512972994
 21
-69.2599795433
 31
0.0
  0
LINE
  5
155
  8
1
  6
CONTINUOUS
 62
     7
 10
249.0714397474
 20
-206.7599795433
 30
0.0
 11
249.0714397474
 21
-212.7599809316
 31
0.0
  0
LINE
  5
156
  8
1
  6
CONTINUOUS
 62
     7
 10
387.2512972994
 20
-72.2599795433
 30
0.0
 11
379.2512972994
 21
-72.2599795433
 31
0.0
  0
LINE
  5
157
  8
1
  6
CONTINUOUS
 62
     7
 10
343.2512972993999
 20
-219.7599795431
 30
0.0
 11
423.2512972994001
 21
-219.7599795431
 31
0.0
  0
LINE
  5
158
  8
1
  6
CONTINUOUS
 62
     7
 10
377.2512972994
 20
-73.7599795433
 30
0.0
 11
374.7512972994
 21
-73.7599795433
 31
0.0
  0
LINE
  5
159
  8
1
  6
CONTINUOUS
 62
     7
 10
268.0714397474
 20
-206.7599795433
 30
0.0
 11
268.0714397474
 21
-212.7358723847
 31
0.0
  0
LINE
  5
15A
  8
1
  6
CONTINUOUS
 62
     7
 10
343.2512972993999
 20
-215.5528727619
 30
0.0
 11
423.2512972994001
 21
-215.5528727619
 31
0.0
  0
LINE
  5
15B
  8
1
  6
CONTINUOUS
 62
     7
 10
239.5714397474
 20
-76.7599795433
 30
0.0
 11
277.5714397474
 21
-76.7599795433
 31
0.0
  0
ARC
  5
15C
  8
1
  6
CONTINUOUS
 62
     7
 10
273.5714397474
 20
-213.7599795433
 30
0.0
 40
1.0
 50
5.997972041500001
 51
103.1840452348
  0
LINE
  5
15D
  8
1
  6
CONTINUOUS
 62
     7
 10
377.7512972994
 20
-61.7599795433
 30
0.0
 11
379.2512972994
 21
-61.7599795433
 31
0.0
  0
LINE
  5
15E
  8
1
  6
CONTINUOUS
 62
     7
 10
387.2512972994
 20
-66.2599795433
 30
0.0
 11
379.2512972994
 21
-66.2599795433
 31
0.0
  0
ENDSEC
  0
EOF
