  0
SECTION
  2
HEADER
  9
$ACADVER
  1
AC1006
  9
$DWGCODEPAGE
  3
ansi_932
  9
$INSBASE
 10
0.0
 20
0.0
 30
0.0
  9
$EXTMIN
 10
0.0
 20
0.0
  9
$EXTMAX
 10
953.7488891036
 20
143.097625424
  9
$LIMMIN
 10
0.0
 20
0.0
  9
$LIMMAX
 10
12.0
 20
9.0
  9
$ORTHOMODE
 70
     0
  9
$REGENMODE
 70
     1
  9
$FILLMODE
 70
     1
  9
$QTEXTMODE
 70
     0
  9
$MIRRTEXT
 70
     1
  9
$DRAGMODE
 70
     2
  9
$LTSCALE
 40
1.0
  9
$OSMODE
 70
    37
  9
$ATTMODE
 70
     1
  9
$TEXTSIZE
 40
0.2
  9
$TRACEWID
 40
0.05
  9
$TEXTSTYLE
  7
STANDARD
  9
$CLAYER
  8
0
  9
$CELTYPE
  6
BYLAYER
  9
$CECOLOR
 62
   256
  9
$DIMSCALE
 40
1.0
  9
$DIMASZ
 40
2.0
  9
$DIMEXO
 40
0.0625
  9
$DIMDLI
 40
0.38
  9
$DIMRND
 40
0.0
  9
$DIMDLE
 40
0.0
  9
$DIMEXE
 40
1.0
  9
$DIMTP
 40
0.0
  9
$DIMTM
 40
0.0
  9
$DIMTXT
 40
3.5
  9
$DIMCEN
 40
0.09
  9
$DIMTSZ
 40
0.0
  9
$DIMTOL
 70
     0
  9
$DIMLIM
 70
     0
  9
$DIMTIH
 70
     1
  9
$DIMTOH
 70
     1
  9
$DIMSE1
 70
     0
  9
$DIMSE2
 70
     0
  9
$DIMTAD
 70
     1
  9
$DIMZIN
 70
     0
  9
$DIMBLK
  1

  9
$DIMASO
 70
     1
  9
$DIMSHO
 70
     1
  9
$DIMPOST
  1

  9
$DIMAPOST
  1

  9
$DIMALT
 70
     0
  9
$DIMALTD
 70
     2
  9
$DIMALTF
 40
25.4
  9
$DIMLFAC
 40
1.0
  9
$DIMTOFL
 70
     0
  9
$DIMTVP
 40
0.0
  9
$DIMTIX
 70
     0
  9
$DIMSOXD
 70
     0
  9
$DIMSAH
 70
     0
  9
$DIMBLK1
  1

  9
$DIMBLK2
  1

  9
$LUNITS
 70
     2
  9
$LUPREC
 70
     4
  9
$SKETCHINC
 40
0.1
  9
$FILLETRAD
 40
0.5
  9
$AUNITS
 70
     0
  9
$AUPREC
 70
     0
  9
$MENU
  1
.
  9
$ELEVATION
 40
0.0
  9
$THICKNESS
 40
0.0
  9
$LIMCHECK
 70
     0
  9
$CHAMFERA
 40
0.0
  9
$CHAMFERB
 40
0.0
  9
$SKPOLY
 70
     0
  9
$TDCREATE
 40
2460286.558997951
  9
$TDUPDATE
 40
2460286.558998472
  9
$TDINDWG
 40
0.0000000116
  9
$TDUSRTIMER
 40
0.0000000116
  9
$USRTIMER
 70
     1
  9
$ANGBASE
 50
0.0
  9
$ANGDIR
 70
     0
  9
$PDMODE
 70
     0
  9
$PDSIZE
 40
0.0
  9
$PLINEWID
 40
0.0
  9
$COORDS
 70
     1
  9
$SPLFRAME
 70
     0
  9
$SPLINETYPE
 70
     6
  9
$SPLINESEGS
 70
     8
  9
$ATTDIA
 70
     0
  9
$ATTREQ
 70
     1
  9
$HANDLING
 70
     1
  9
$HANDSEED
  5
19C
  9
$SURFTAB1
 70
     6
  9
$SURFTAB2
 70
     6
  9
$SURFTYPE
 70
     6
  9
$SURFU
 70
     6
  9
$SURFV
 70
     6
  9
$UCSNAME
  2

  9
$UCSORG
 10
0.0
 20
0.0
 30
0.0
  9
$UCSXDIR
 10
1.0
 20
0.0
 30
0.0
  9
$UCSYDIR
 10
0.0
 20
1.0
 30
0.0
  9
$USERI1
 70
     0
  9
$USERI2
 70
     0
  9
$USERI3
 70
     0
  9
$USERI4
 70
     0
  9
$USERI5
 70
     0
  9
$USERR1
 40
0.0
  9
$USERR2
 40
0.0
  9
$USERR3
 40
0.0
  9
$USERR4
 40
0.0
  9
$USERR5
 40
0.0
  9
$WORLDVIEW
 70
     1
  0
ENDSEC
  0
SECTION
  2
TABLES
  0
TABLE
  2
VPORT
 70
     1
  0
VPORT
  2
*ACTIVE
 70
     0
 10
0.0
 20
0.0
 11
1.0
 21
1.0
 12
476.8744445518
 22
71.548812712
 13
0.0
 23
0.0
 14
0.5
 24
0.5
 15
0.5
 25
0.5
 16
0.0
 26
0.0
 36
1.0
 17
0.0
 27
0.0
 37
0.0
 40
143.097625424
 41
1.6
 42
50.0
 43
0.0
 44
0.0
 50
0.0
 51
0.0
 71
     0
 72
   100
 73
     1
 74
     3
 75
     0
 76
     0
 77
     0
 78
     0
  0
ENDTAB
  0
TABLE
  2
LTYPE
 70
     2
  0
LTYPE
  2
CONTINUOUS
 70
     0
  3
Solid line
 72
    65
 73
     0
 40
0.0
  0
LTYPE
  2
CENTER
 70
     0
  3

 72
    65
 73
     0
 40
0.0
  0
ENDTAB
  0
TABLE
  2
LAYER
 70
     2
  0
LAYER
  2
0
 70
     0
 62
     7
  6
CONTINUOUS
  0
LAYER
  2
1
 70
     0
 62
     7
  6
CONTINUOUS
  0
ENDTAB
  0
TABLE
  2
STYLE
 70
     2
  0
STYLE
  2
STANDARD
 70
     0
 40
0.0
 41
1.0
 50
0.0
 71
     0
 42
0.2
  3
txt
  4

  0
STYLE
  2
ＭＳ_ゴシック
 70
     0
 40
0.0
 41
1.0
 50
0.0
 71
     0
 42
0.2
  3
ＭＳ ゴシック.shx
  4

  0
ENDTAB
  0
TABLE
  2
VIEW
 70
     0
  0
ENDTAB
  0
TABLE
  2
UCS
 70
     0
  0
ENDTAB
  0
ENDSEC
  0
SECTION
  2
BLOCKS
  0
BLOCK
  8
0
  2
D_FRAME_DRAWING_21
 70
     0
 10
0.0
 20
0.0
 30
0.0
  0
LINE
  5
73
  8
0
  6
CONTINUOUS
 62
     7
 10
0.0
 20
0.0
 30
0.0
 11
420.0
 21
0.0
 31
0.0
  0
LINE
  5
74
  8
0
  6
CONTINUOUS
 62
     7
 10
420.0
 20
0.0
 30
0.0
 11
420.0
 21
297.0
 31
0.0
  0
LINE
  5
75
  8
0
  6
CONTINUOUS
 62
     7
 10
420.0
 20
297.0
 30
0.0
 11
0.0
 21
297.0
 31
0.0
  0
LINE
  5
76
  8
0
  6
CONTINUOUS
 62
     7
 10
0.0
 20
297.0
 30
0.0
 11
0.0
 21
0.0
 31
0.0
  0
LINE
  5
77
  8
0
  6
CONTINUOUS
 62
     7
 10
10.0
 20
10.0
 30
0.0
 11
409.9999999999999
 21
10.0
 31
0.0
  0
LINE
  5
78
  8
0
  6
CONTINUOUS
 62
     7
 10
409.9999999999999
 20
10.0
 30
0.0
 11
409.9999999999999
 21
286.9999999999999
 31
0.0
  0
LINE
  5
79
  8
0
  6
CONTINUOUS
 62
     7
 10
409.9999999999999
 20
286.9999999999999
 30
0.0
 11
10.00000000000006
 21
286.9999999999999
 31
0.0
  0
LINE
  5
7A
  8
0
  6
CONTINUOUS
 62
     7
 10
10.0
 20
286.9999999999999
 30
0.0
 11
10.0
 21
10.00000000000001
 31
0.0
  0
LINE
  5
7B
  8
0
  6
CONTINUOUS
 62
     7
 10
210.0
 20
0.0
 30
0.0
 11
210.0
 21
10.0
 31
0.0
  0
LINE
  5
7C
  8
0
  6
CONTINUOUS
 62
     7
 10
420.0
 20
148.5
 30
0.0
 11
409.9999999999999
 21
148.5
 31
0.0
  0
LINE
  5
7D
  8
0
  6
CONTINUOUS
 62
     7
 10
210.0
 20
297.0
 30
0.0
 11
210.0
 21
286.9999999999999
 31
0.0
  0
LINE
  5
7E
  8
0
  6
CONTINUOUS
 62
     7
 10
0.0
 20
148.5
 30
0.0
 11
10.0
 21
148.5
 31
0.0
  0
POLYLINE
  5
7F
  8
0
  6
CONTINUOUS
 62
     7
 66
     1
 10
0.0
 20
0.0
 30
0.0
 70
     1
  0
VERTEX
  5
16D
  8
0
  6
CONTINUOUS
 62
     7
 10
11.0
 20
152.5
 30
0.0
  0
VERTEX
  5
16E
  8
0
  6
CONTINUOUS
 62
     7
 10
0.0
 20
148.5
 30
0.0
  0
VERTEX
  5
16F
  8
0
  6
CONTINUOUS
 62
     7
 10
11.0
 20
144.5
 30
0.0
  0
VERTEX
  5
170
  8
0
  6
CONTINUOUS
 62
     7
 10
11.0
 20
152.5
 30
0.0
  0
SEQEND
  5
19A
  8
0
  6
CONTINUOUS
 62
     7
  0
INSERT
  5
80
  8
0
 62
     7
  2
*U2
 10
0.0
 20
0.0
 30
0.0
  0
POLYLINE
  5
81
  8
0
  6
CONTINUOUS
 62
     7
 66
     1
 10
0.0
 20
0.0
 30
0.0
 70
     1
  0
VERTEX
  5
173
  8
0
  6
CONTINUOUS
 62
     7
 10
206.0
 20
11.0
 30
0.0
  0
VERTEX
  5
174
  8
0
  6
CONTINUOUS
 62
     7
 10
210.0
 20
0.0
 30
0.0
  0
VERTEX
  5
175
  8
0
  6
CONTINUOUS
 62
     7
 10
214.0
 20
11.0
 30
0.0
  0
VERTEX
  5
176
  8
0
  6
CONTINUOUS
 62
     7
 10
206.0
 20
11.0
 30
0.0
  0
SEQEND
  5
19B
  8
0
  6
CONTINUOUS
 62
     7
  0
INSERT
  5
82
  8
0
 62
     7
  2
*U3
 10
0.0
 20
0.0
 30
0.0
  0
LINE
  5
83
  8
0
  6
CONTINUOUS
 62
     7
 10
367.5
 20
286.9999999999999
 30
0.0
 11
367.5
 21
292.0
 31
0.0
  0
TEXT
  5
84
  8
0
  6
CONTINUOUS
 62
     7
 10
391.6340909090909
 20
291.8324293485057
 30
0.0
 40
3.5
  1
A
 50
270.0
  0
LINE
  5
85
  8
0
  6
CONTINUOUS
 62
     7
 10
367.5
 20
10.0
 30
0.0
 11
367.5
 21
5.0
 31
0.0
  0
TEXT
  5
86
  8
0
  6
CONTINUOUS
 62
     7
 10
392.9868888333125
 20
4.602272727272727
 30
0.0
 40
3.5
  1
A
  0
LINE
  5
87
  8
0
  6
CONTINUOUS
 62
     7
 10
315.0
 20
286.9999999999999
 30
0.0
 11
315.0
 21
292.0
 31
0.0
  0
TEXT
  5
88
  8
0
  6
CONTINUOUS
 62
     7
 10
339.1340909090909
 20
291.9745607727899
 30
0.0
 40
3.5
  1
B
 50
270.0
  0
LINE
  5
89
  8
0
  6
CONTINUOUS
 62
     7
 10
315.0
 20
10.0
 30
0.0
 11
315.0
 21
5.0
 31
0.0
  0
TEXT
  5
8A
  8
0
  6
CONTINUOUS
 62
     7
 10
340.3447574090284
 20
4.602272727272727
 30
0.0
 40
3.5
  1
B
  0
LINE
  5
8B
  8
0
  6
CONTINUOUS
 62
     7
 10
262.5
 20
286.9999999999999
 30
0.0
 11
262.5
 21
292.0
 31
0.0
  0
TEXT
  5
8C
  8
0
  6
CONTINUOUS
 62
     7
 10
286.6327779167187
 20
291.9399305989747
 30
0.0
 40
3.5
  1
C
 50
270.0
  0
LINE
  5
8D
  8
0
  6
CONTINUOUS
 62
     7
 10
262.5
 20
10.0
 30
0.0
 11
262.5
 21
5.0
 31
0.0
  0
TEXT
  5
8E
  8
0
  6
CONTINUOUS
 62
     7
 10
287.8793875828435
 20
4.600959734900587
 30
0.0
 40
3.5
  1
C
  0
LINE
  5
8F
  8
0
  6
CONTINUOUS
 62
     7
 10
210.0
 20
286.9999999999999
 30
0.0
 11
210.0
 21
292.0
 31
0.0
  0
TEXT
  5
90
  8
0
  6
CONTINUOUS
 62
     7
 10
234.1340909090909
 20
291.9745607727898
 30
0.0
 40
3.5
  1
D
 50
270.0
  0
LINE
  5
91
  8
0
  6
CONTINUOUS
 62
     7
 10
157.5
 20
286.9999999999999
 30
0.0
 11
157.5
 21
292.0
 31
0.0
  0
TEXT
  5
92
  8
0
  6
CONTINUOUS
 62
     7
 10
181.6327779167188
 20
292.027463423784
 30
0.0
 40
3.5
  1
E
 50
270.0
  0
LINE
  5
93
  8
0
  6
CONTINUOUS
 62
     7
 10
157.5
 20
10.0
 30
0.0
 11
157.5
 21
5.0
 31
0.0
  0
LINE
  5
94
  8
0
  6
CONTINUOUS
 62
     7
 10
105.0
 20
286.9999999999999
 30
0.0
 11
105.0
 21
292.0
 31
0.0
  0
TEXT
  5
95
  8
0
  6
CONTINUOUS
 62
     7
 10
129.1327779167188
 20
291.9924502938602
 30
0.0
 40
3.5
  1
F
 50
270.0
  0
LINE
  5
96
  8
0
  6
CONTINUOUS
 62
     7
 10
105.0
 20
10.0
 30
0.0
 11
105.0
 21
5.0
 31
0.0
  0
TEXT
  5
97
  8
0
  6
CONTINUOUS
 62
     7
 10
130.326867887958
 20
4.600959734900587
 30
0.0
 40
3.5
  1
F
  0
LINE
  5
98
  8
0
  6
CONTINUOUS
 62
     7
 10
52.50000000000004
 20
286.9999999999999
 30
0.0
 11
52.50000000000004
 21
292.0
 31
0.0
  0
TEXT
  5
99
  8
0
  6
CONTINUOUS
 62
     7
 10
76.6327779167188
 20
291.9399305989746
 30
0.0
 40
3.5
  1
G
 50
270.0
  0
LINE
  5
9A
  8
0
  6
CONTINUOUS
 62
     7
 10
52.50000000000004
 20
10.0
 30
0.0
 11
52.50000000000004
 21
5.0
 31
0.0
  0
TEXT
  5
9B
  8
0
  6
CONTINUOUS
 62
     7
 10
77.8793875828436
 20
4.600959734900587
 30
0.0
 40
3.5
  1
G
  0
TEXT
  5
9C
  8
0
  6
CONTINUOUS
 62
     7
 10
24.13277791671879
 20
291.9749437288983
 30
0.0
 40
3.5
  1
H
 50
270.0
  0
TEXT
  5
9D
  8
0
  6
CONTINUOUS
 62
     7
 10
25.34437445291988
 20
4.600959734900587
 30
0.0
 40
3.5
  1
H
  0
LINE
  5
9E
  8
0
  6
CONTINUOUS
 62
     7
 10
409.9999999999999
 20
74.25
 30
0.0
 11
414.9999999999999
 21
74.25
 31
0.0
  0
TEXT
  5
9F
  8
0
  6
CONTINUOUS
 62
     7
 10
412.9326059772414
 20
35.00777791671877
 30
0.0
 40
3.5
  1
1
  0
LINE
  5
A0
  8
0
  6
CONTINUOUS
 62
     7
 10
10.0
 20
74.25
 30
0.0
 11
5.0
 21
74.25
 31
0.0
  0
TEXT
  5
A1
  8
0
  6
CONTINUOUS
 62
     7
 10
4.600959734900584
 20
38.26171220457671
 30
0.0
 40
3.5
  1
1
 50
270.0
  0
LINE
  5
A2
  8
0
  6
CONTINUOUS
 62
     7
 10
409.9999999999999
 20
148.5
 30
0.0
 11
414.9999999999999
 21
148.5
 31
0.0
  0
TEXT
  5
A3
  8
0
  6
CONTINUOUS
 62
     7
 10
413.163692634738
 20
109.2577779167188
 30
0.0
 40
3.5
  1
2
  0
LINE
  5
A4
  8
0
  6
CONTINUOUS
 62
     7
 10
10.0
 20
148.5
 30
0.0
 11
5.0
 21
148.5
 31
0.0
  0
TEXT
  5
A5
  8
0
  6
CONTINUOUS
 62
     7
 10
4.600959734900599
 20
112.2806255470802
 30
0.0
 40
3.5
  1
2
 50
270.0
  0
LINE
  5
A6
  8
0
  6
CONTINUOUS
 62
     7
 10
409.9999999999999
 20
222.75
 30
0.0
 11
414.9999999999999
 21
222.75
 31
0.0
  0
TEXT
  5
A7
  8
0
  6
CONTINUOUS
 62
     7
 10
413.1811991996998
 20
183.5077779167188
 30
0.0
 40
3.5
  1
3
  0
LINE
  5
A8
  8
0
  6
CONTINUOUS
 62
     7
 10
10.0
 20
222.75
 30
0.0
 11
5.0
 21
222.75
 31
0.0
  0
TEXT
  5
A9
  8
0
  6
CONTINUOUS
 62
     7
 10
4.600959734900584
 20
186.5131189821183
 30
0.0
 40
3.5
  1
3
 50
270.0
  0
TEXT
  5
AA
  8
0
  6
CONTINUOUS
 62
     7
 10
413.2351413029886
 20
257.7590909090909
 30
0.0
 40
3.5
  1
4
  0
TEXT
  5
AB
  8
0
  6
CONTINUOUS
 62
     7
 10
4.60227272727272
 20
260.7091768788295
 30
0.0
 40
3.5
  1
4
 50
270.0
  0
LINE
  5
AC
  8
0
  6
CONTINUOUS
 62
     7
 10
220.0
 20
10.0
 30
0.0
 11
220.0
 21
7.0
 31
0.0
  0
LINE
  5
AD
  8
0
  6
CONTINUOUS
 62
     7
 10
200.0
 20
10.0
 30
0.0
 11
200.0
 21
7.0
 31
0.0
  0
LINE
  5
AE
  8
0
  6
CONTINUOUS
 62
     7
 10
230.0
 20
10.0
 30
0.0
 11
230.0
 21
7.0
 31
0.0
  0
LINE
  5
AF
  8
0
  6
CONTINUOUS
 62
     7
 10
190.0
 20
10.0
 30
0.0
 11
190.0
 21
7.0
 31
0.0
  0
LINE
  5
B0
  8
0
  6
CONTINUOUS
 62
     7
 10
240.0
 20
10.0
 30
0.0
 11
240.0
 21
7.0
 31
0.0
  0
LINE
  5
B1
  8
0
  6
CONTINUOUS
 62
     7
 10
180.0
 20
10.0
 30
0.0
 11
180.0
 21
7.0
 31
0.0
  0
LINE
  5
B2
  8
0
  6
CONTINUOUS
 62
     7
 10
250.0
 20
10.0
 30
0.0
 11
250.0
 21
7.0
 31
0.0
  0
LINE
  5
B3
  8
0
  6
CONTINUOUS
 62
     7
 10
170.0
 20
10.0
 30
0.0
 11
170.0
 21
7.0
 31
0.0
  0
LINE
  5
B4
  8
0
  6
CONTINUOUS
 62
     7
 10
260.0
 20
10.0
 30
0.0
 11
260.0
 21
5.0
 31
0.0
  0
LINE
  5
B5
  8
0
  6
CONTINUOUS
 62
     7
 10
160.0
 20
10.0
 30
0.0
 11
160.0
 21
5.0
 31
0.0
  0
LINE
  5
B6
  8
0
  6
CONTINUOUS
 62
     7
 10
260.0
 20
10.0
 30
0.0
 11
160.0
 21
10.0
 31
0.0
  0
LINE
  5
B7
  8
0
  6
CONTINUOUS
 62
     7
 10
260.0
 20
7.0
 30
0.0
 11
160.0
 21
7.0
 31
0.0
  0
INSERT
  5
B8
  8
0
 62
     7
  2
*U4
 10
0.0
 20
0.0
 30
0.0
  0
INSERT
  5
B9
  8
0
 62
     7
  2
*U5
 10
0.0
 20
0.0
 30
0.0
  0
INSERT
  5
BA
  8
0
 62
     7
  2
*U6
 10
0.0
 20
0.0
 30
0.0
  0
INSERT
  5
BB
  8
0
 62
     7
  2
*U7
 10
0.0
 20
0.0
 30
0.0
  0
ENDBLK
  8
0
  0
BLOCK
  8
0
  2
*U2
 70
     1
 10
0.0
 20
0.0
 30
0.0
  0
SOLID
  5
172
  8
0
  6
CONTINUOUS
 62
     7
 10
11.0
 20
144.5
 30
0.0
 11
6.999999999999999
 21
148.5
 31
0.0
 12
11.0
 22
152.5
 32
0.0
 13
11.0
 23
152.5
 33
0.0
  0
ENDBLK
  8
0
  0
BLOCK
  8
0
  2
*U3
 70
     1
 10
0.0
 20
0.0
 30
0.0
  0
SOLID
  5
178
  8
0
  6
CONTINUOUS
 62
     7
 10
210.0
 20
6.999999999999999
 30
0.0
 11
206.0
 21
11.0
 31
0.0
 12
210.0
 22
11.0
 32
0.0
 13
210.0
 23
11.0
 33
0.0
  0
SOLID
  5
179
  8
0
  6
CONTINUOUS
 62
     7
 10
210.0
 20
6.999999999999999
 30
0.0
 11
210.0
 21
11.0
 31
0.0
 12
214.0
 22
11.0
 32
0.0
 13
214.0
 23
11.0
 33
0.0
  0
ENDBLK
  8
0
  0
BLOCK
  8
0
  2
*U4
 70
     1
 10
0.0
 20
0.0
 30
0.0
  0
SOLID
  5
17B
  8
0
  6
CONTINUOUS
 62
     7
 10
0.0
 20
0.0
 30
0.0
 11
0.0
 21
10.0
 31
0.0
 12
2.0
 22
0.0
 32
0.0
 13
2.0
 23
0.0
 33
0.0
  0
SOLID
  5
17C
  8
0
  6
CONTINUOUS
 62
     7
 10
2.0
 20
0.0
 30
0.0
 11
0.0
 21
10.0
 31
0.0
 12
2.0
 22
10.0
 32
0.0
 13
2.0
 23
10.0
 33
0.0
  0
SOLID
  5
17D
  8
0
  6
CONTINUOUS
 62
     7
 10
2.0
 20
0.0
 30
0.0
 11
2.0
 21
2.0
 31
0.0
 12
10.0
 22
0.0
 32
0.0
 13
10.0
 23
0.0
 33
0.0
  0
SOLID
  5
17E
  8
0
  6
CONTINUOUS
 62
     7
 10
10.0
 20
0.0
 30
0.0
 11
2.0
 21
2.0
 31
0.0
 12
10.0
 22
2.0
 32
0.0
 13
10.0
 23
2.0
 33
0.0
  0
ENDBLK
  8
0
  0
BLOCK
  8
0
  2
*U5
 70
     1
 10
0.0
 20
0.0
 30
0.0
  0
SOLID
  5
180
  8
0
  6
CONTINUOUS
 62
     7
 10
409.9999999999999
 20
0.0
 30
0.0
 11
409.9999999999999
 21
2.0
 31
0.0
 12
418.0
 22
0.0
 32
0.0
 13
418.0
 23
0.0
 33
0.0
  0
SOLID
  5
181
  8
0
  6
CONTINUOUS
 62
     7
 10
418.0
 20
0.0
 30
0.0
 11
409.9999999999999
 21
2.0
 31
0.0
 12
418.0
 22
2.0
 32
0.0
 13
418.0
 23
2.0
 33
0.0
  0
SOLID
  5
182
  8
0
  6
CONTINUOUS
 62
     7
 10
418.0
 20
0.0
 30
0.0
 11
418.0
 21
10.0
 31
0.0
 12
420.0
 22
0.0
 32
0.0
 13
420.0
 23
0.0
 33
0.0
  0
SOLID
  5
183
  8
0
  6
CONTINUOUS
 62
     7
 10
420.0
 20
0.0
 30
0.0
 11
418.0
 21
10.0
 31
0.0
 12
420.0
 22
10.0
 32
0.0
 13
420.0
 23
10.0
 33
0.0
  0
ENDBLK
  8
0
  0
BLOCK
  8
0
  2
*U6
 70
     1
 10
0.0
 20
0.0
 30
0.0
  0
SOLID
  5
185
  8
0
  6
CONTINUOUS
 62
     7
 10
409.9999999999999
 20
295.0
 30
0.0
 11
409.9999999999999
 21
297.0
 31
0.0
 12
418.0
 22
295.0
 32
0.0
 13
418.0
 23
295.0
 33
0.0
  0
SOLID
  5
186
  8
0
  6
CONTINUOUS
 62
     7
 10
418.0
 20
295.0
 30
0.0
 11
409.9999999999999
 21
297.0
 31
0.0
 12
418.0
 22
297.0
 32
0.0
 13
418.0
 23
297.0
 33
0.0
  0
SOLID
  5
187
  8
0
  6
CONTINUOUS
 62
     7
 10
418.0
 20
286.9999999999999
 30
0.0
 11
418.0
 21
297.0
 31
0.0
 12
420.0
 22
286.9999999999999
 32
0.0
 13
420.0
 23
286.9999999999999
 33
0.0
  0
SOLID
  5
188
  8
0
  6
CONTINUOUS
 62
     7
 10
420.0
 20
286.9999999999999
 30
0.0
 11
418.0
 21
297.0
 31
0.0
 12
420.0
 22
297.0
 32
0.0
 13
420.0
 23
297.0
 33
0.0
  0
ENDBLK
  8
0
  0
BLOCK
  8
0
  2
*U7
 70
     1
 10
0.0
 20
0.0
 30
0.0
  0
SOLID
  5
18A
  8
0
  6
CONTINUOUS
 62
     7
 10
0.0
 20
286.9999999999999
 30
0.0
 11
0.0
 21
297.0
 31
0.0
 12
2.0
 22
286.9999999999999
 32
0.0
 13
2.0
 23
286.9999999999999
 33
0.0
  0
SOLID
  5
18B
  8
0
  6
CONTINUOUS
 62
     7
 10
2.0
 20
286.9999999999999
 30
0.0
 11
0.0
 21
297.0
 31
0.0
 12
2.0
 22
297.0
 32
0.0
 13
2.0
 23
297.0
 33
0.0
  0
SOLID
  5
18C
  8
0
  6
CONTINUOUS
 62
     7
 10
2.0
 20
295.0
 30
0.0
 11
2.0
 21
297.0
 31
0.0
 12
10.0
 22
295.0
 32
0.0
 13
10.0
 23
295.0
 33
0.0
  0
SOLID
  5
18D
  8
0
  6
CONTINUOUS
 62
     7
 10
10.0
 20
295.0
 30
0.0
 11
2.0
 21
297.0
 31
0.0
 12
10.0
 22
297.0
 32
0.0
 13
10.0
 23
297.0
 33
0.0
  0
ENDBLK
  8
0
  0
ENDSEC
  0
SECTION
  2
ENTITIES
  0
LINE
  5
70
  8
1
  6
CONTINUOUS
 62
     7
 10
943.739979618
 20
75.3883527577
 30
0.0
 11
905.739979618
 21
75.3883527577
 31
0.0
  0
INSERT
  5
72
  8
0
 62
     7
  2
D_FRAME_DRAWING_21
 10
0.0
 20
0.0
 30
0.0
  0
LINE
  5
BC
  8
1
  6
CONTINUOUS
 62
     7
 10
822.6997933991
 20
80.3883527577
 30
0.0
 11
822.6997933991
 21
76.5954595389
 31
0.0
  0
LINE
  5
BD
  8
1
  6
CONTINUOUS
 62
     7
 10
822.6997933991
 20
74.1812459765
 30
0.0
 11
822.6997933991
 21
70.3883527577
 31
0.0
  0
LINE
  5
BE
  8
1
  6
CONTINUOUS
 62
     7
 10
822.3512652617
 20
75.5297741139
 30
0.0
 11
821.6997933991
 21
76.1812459765
 31
0.0
  0
ARC
  5
BF
  8
1
  6
CONTINUOUS
 62
     7
 10
823.1997933991
 20
75.3883527577
 30
0.0
 40
0.5
 50
314.9999999999
 51
45.00000000009999
  0
ARC
  5
C0
  8
1
  6
CONTINUOUS
 62
     7
 10
822.2098439054
 20
75.3883527577
 30
0.0
 40
0.2
 50
315.0000000005
 51
45.00000000009999
  0
LINE
  5
C1
  8
1
  6
CONTINUOUS
 62
     7
 10
823.5533467897
 20
75.7419061483
 30
0.0
 11
822.6997933991
 21
76.5954595389
 31
0.0
  0
LINE
  5
C2
  8
1
  6
CONTINUOUS
 62
     7
 10
823.5533467897
 20
75.0347993671
 30
0.0
 11
822.6997933991
 21
74.1812459765
 31
0.0
  0
LINE
  5
C3
  8
1
  6
CONTINUOUS
 62
     7
 10
822.3512652617
 20
75.2469314015
 30
0.0
 11
821.6997933991
 21
74.5954595389
 31
0.0
  0
LINE
  5
C4
  8
1
  6
CONTINUOUS
 62
     7
 10
905.739979618
 20
82.3883527577
 30
0.0
 11
905.739979618
 21
70.3883527577
 31
0.0
  0
LINE
  5
C5
  8
1
  6
CONTINUOUS
 62
     7
 10
943.739979618
 20
82.3883527577
 30
0.0
 11
943.739979618
 21
70.3883527577
 31
0.0
  0
LINE
  5
C6
  8
1
  6
CONTINUOUS
 62
     7
 10
943.739979618
 20
82.3883527577
 30
0.0
 11
905.739979618
 21
82.3883527577
 31
0.0
  0
LINE
  5
C7
  8
1
  6
CONTINUOUS
 62
     7
 10
905.739979618
 20
70.3883527577
 30
0.0
 11
943.739979618
 21
70.3883527577
 31
0.0
  0
ARC
  5
C8
  8
1
  6
CONTINUOUS
 62
     7
 10
920.2399584851
 20
135.8513346471
 30
0.0
 40
0.5
 50
270.0
 51
0.0
  0
ARC
  5
C9
  8
1
  6
CONTINUOUS
 62
     7
 10
924.739979618
 20
101.3513346471
 30
0.0
 40
22.0
 50
103.5352442885
 51
180.0
  0
LINE
  5
CA
  8
1
  6
CONTINUOUS
 62
     7
 10
920.2399584851
 20
126.3513346471
 30
0.0
 11
917.7399584851
 21
126.3513346471
 31
0.0
  0
LINE
  5
CB
  8
1
  6
CONTINUOUS
 62
     7
 10
927.240000751
 20
127.8513346472
 30
0.0
 11
922.2399584851
 21
127.8513346472
 31
0.0
  0
ARC
  5
CC
  8
1
  6
CONTINUOUS
 62
     7
 10
919.2399584851
 20
124.1986488774
 30
0.0
 40
3.0
 50
283.5352442884
 51
0.0
  0
LINE
  5
CD
  8
1
  6
CONTINUOUS
 62
     7
 10
919.7399572935
 20
124.1986483138
 30
0.0
 11
919.7399584852
 21
126.3513346471
 31
0.0
  0
ARC
  5
CE
  8
1
  6
CONTINUOUS
 62
     7
 10
919.2399572935
 20
124.1986485906
 30
0.0
 40
0.5
 50
283.5352472765
 51
0.0
  0
LINE
  5
CF
  8
1
  6
CONTINUOUS
 62
     7
 10
901.7399795955
 20
89.3513346471
 30
0.0
 11
901.7399795955
 21
101.3513346474
 31
0.0
  0
ARC
  5
D0
  8
1
  6
CONTINUOUS
 62
     7
 10
924.739979618
 20
101.3513346471
 30
0.0
 40
23.0
 50
103.5352472766
 51
180.0
  0
LINE
  5
D1
  8
1
  6
CONTINUOUS
 62
     7
 10
920.7399584851
 20
138.3513346471
 30
0.0
 11
922.2399584851
 21
138.3513346471
 31
0.0
  0
LINE
  5
D2
  8
1
  6
CONTINUOUS
 62
     7
 10
901.7399795955
 20
89.3513346471
 30
0.0
 11
902.7399942048
 21
87.1408083315
 31
0.0
  0
LINE
  5
D3
  8
1
  6
CONTINUOUS
 62
     7
 10
931.740000751
 20
135.3513346471
 30
0.0
 11
931.740000751
 21
126.3513346471
 31
0.0
  0
ARC
  5
D4
  8
1
  6
CONTINUOUS
 62
     7
 10
920.2399584851
 20
125.8513346471
 30
0.0
 40
0.5
 50
0.0
 51
90.0
  0
LINE
  5
D5
  8
1
  6
CONTINUOUS
 62
     7
 10
922.2399584851
 20
124.1986488774
 30
0.0
 11
922.2399584851
 21
138.3513346471
 31
0.0
  0
ARC
  5
D6
  8
1
  6
CONTINUOUS
 62
     7
 10
919.239958485
 20
124.1986488773
 30
0.0
 40
1.5
 50
283.5352442884
 51
0.0
  0
LINE
  5
D7
  8
1
  6
CONTINUOUS
 62
     7
 10
902.7400049677
 20
101.3513346471
 30
0.0
 11
902.7399814958
 21
70.3607219063
 31
0.0
  0
LINE
  5
D8
  8
1
  6
CONTINUOUS
 62
     7
 10
928.740000751
 20
124.1986488773
 30
0.0
 11
928.740000751
 21
138.3513346471
 31
0.0
  0
LINE
  5
D9
  8
1
  6
CONTINUOUS
 62
     7
 10
920.7399584851
 20
124.1986488773
 30
0.0
 11
920.7399584851
 21
138.3513346471
 31
0.0
  0
LINE
  5
DA
  8
1
  6
CONTINUOUS
 62
     7
 10
920.2399584851
 20
135.3513346471
 30
0.0
 11
917.7399584851
 21
135.3513346471
 31
0.0
  0
LINE
  5
DB
  8
1
  6
CONTINUOUS
 62
     7
 10
927.240000751
 20
133.8513346472
 30
0.0
 11
922.2399584851
 21
133.8513346472
 31
0.0
  0
LINE
  5
DC
  8
1
  6
CONTINUOUS
 62
     7
 10
930.4503261018
 20
126.3513346471
 30
0.0
 11
930.4503261018
 21
126.3508139424
 31
0.0
  0
LINE
  5
DD
  8
1
  6
CONTINUOUS
 62
     7
 10
928.740000751
 20
138.3513346471
 30
0.0
 11
927.240000751
 21
138.3513346471
 31
0.0
  0
LINE
  5
DE
  8
1
  6
CONTINUOUS
 62
     7
 10
929.240000751
 20
135.3513346471
 30
0.0
 11
931.740000751
 21
135.3513346471
 31
0.0
  0
LINE
  5
DF
  8
1
  6
CONTINUOUS
 62
     7
 10
904.2399793391
 20
101.3513346471
 30
0.0
 11
904.2399834341
 21
70.3607219063
 31
0.0
  0
LINE
  5
E0
  8
1
  6
CONTINUOUS
 62
     7
 10
917.7399584851
 20
135.3513346471
 30
0.0
 11
917.7399584851
 21
126.3513346471
 31
0.0
  0
LINE
  5
E1
  8
1
  6
CENTER
 62
     5
 10
924.739979618
 20
143.097625424
 30
0.0
 11
924.739979618
 21
68.2863477784
 31
0.0
  0
LINE
  5
E3
  8
1
  6
CONTINUOUS
 62
     7
 10
919.0296331343
 20
126.3513346471
 30
0.0
 11
919.0296331343
 21
126.3508139424
 31
0.0
  0
LINE
  5
E4
  8
1
  6
CONTINUOUS
 62
     7
 10
902.7399807193
 20
70.3513346471
 30
0.0
 11
904.2399795952
 21
70.3513346471
 31
0.0
  0
LINE
  5
E5
  8
0
  6
CONTINUOUS
 62
     7
 10
826.0395393612555
 20
131.2212930057914
 30
0.0
 11
824.6997933990999
 21
128.9007849301027
 31
0.0
  0
LINE
  5
E6
  8
0
  6
CONTINUOUS
 62
     7
 10
824.6997933990999
 20
92.1929168526436
 30
0.0
 11
824.6997933990999
 21
128.9007849301027
 31
0.0
  0
LINE
  5
E7
  8
1
  6
CONTINUOUS
 62
     7
 10
825.6997933979308
 20
130.6328357356466
 30
0.0
 11
825.6997934009689
 21
90.46086604183736
 31
0.0
  0
LINE
  5
E8
  8
1
  6
CONTINUOUS
 62
     7
 10
859.1997933994
 20
87.27306670042647
 30
0.0
 11
859.1997933994
 21
133.8206350823201
 31
0.0
  0
ARC
  5
E9
  8
0
  6
CONTINUOUS
 62
     7
 10
852.6997933990997
 20
126.2212930057917
 30
0.0
 40
10.0
 50
30.00000000000005
 51
63.25631604959744
  0
LINE
  5
EA
  8
1
  6
CONTINUOUS
 62
     7
 10
828.1997933988
 20
87.27306670042609
 30
0.0
 11
828.1997933988
 21
133.8206350823202
 31
0.0
  0
LINE
  5
EB
  8
0
  6
CONTINUOUS
 62
     7
 10
826.0395393612555
 20
89.87240877695488
 30
0.0
 11
824.6997933990999
 21
92.1929168526436
 31
0.0
  0
LINE
  5
EC
  8
0
  6
CONTINUOUS
 62
     7
 10
862.6997933990997
 20
92.19291685264359
 30
0.0
 11
862.6997933990997
 21
128.9007849301029
 31
0.0
  0
LINE
  5
ED
  8
0
  6
CONTINUOUS
 62
     7
 10
829.3598634852201
 20
86.41751974664516
 30
0.0
 11
834.1997933991
 21
83.3607219063
 31
0.0
  0
ARC
  5
EE
  8
0
  6
CONTINUOUS
 62
     7
 10
834.6997933990999
 20
94.87240877695488
 30
0.0
 40
10.0
 50
210.0
 51
237.7243556854226
  0
LINE
  5
EF
  8
0
  6
CONTINUOUS
 62
     7
 10
858.0397233129795
 20
86.41751974664516
 30
0.0
 11
853.1997933990997
 21
83.3607219063
 31
0.0
  0
ARC
  5
F0
  8
0
  6
CONTINUOUS
 62
     7
 10
834.6997933990999
 20
126.2212930057914
 30
0.0
 40
10.0
 50
116.7436839504029
 51
149.9999999999999
  0
LINE
  5
F1
  8
0
  6
CONTINUOUS
 62
     7
 10
861.3600474369441
 20
131.2212930057917
 30
0.0
 11
862.6997933990997
 21
128.900784930103
 31
0.0
  0
LINE
  5
F2
  8
0
  6
CONTINUOUS
 62
     7
 10
861.3600474369441
 20
89.87240877695487
 30
0.0
 11
862.6997933990997
 21
92.19291685264359
 31
0.0
  0
ARC
  5
F3
  8
0
  6
CONTINUOUS
 62
     7
 10
843.6997933991
 20
108.3607219063
 30
0.0
 40
29.9999999999998
 50
63.25631604959775
 51
116.7436839504037
  0
LINE
  5
F4
  8
1
  6
CONTINUOUS
 62
     7
 10
861.6997933681425
 20
130.6328357912914
 30
0.0
 11
861.6997934179528
 21
90.46086607772924
 31
0.0
  0
ARC
  5
F5
  8
0
  6
CONTINUOUS
 62
     7
 10
852.6997933990997
 20
94.87240877695488
 30
0.0
 40
10.0
 50
302.2756443145774
 51
330.0
  0
LINE
  5
F6
  8
1
  6
CONTINUOUS
 62
     7
 10
905.7399813212
 20
86.3513346471
 30
0.0
 11
904.2399821801
 21
86.3513346471
 31
0.0
  0
ARC
  5
F7
  8
1
  6
CONTINUOUS
 62
     7
 10
845.7997933991
 20
132.9607219061
 30
0.0
 40
1.2
 50
180.0
 51
270.0
  0
LINE
  5
F8
  8
1
  6
CONTINUOUS
 62
     7
 10
937.7399584853
 20
128.3513346472
 30
0.0
 11
937.7399584851
 21
133.3513346471
 31
0.0
  0
LINE
  5
F9
  8
1
  6
CONTINUOUS
 62
     7
 10
905.7399813212
 20
86.3513346471
 30
0.0
 11
905.739979136
 21
102.8883527577
 31
0.0
  0
ARC
  5
FA
  8
1
  6
CONTINUOUS
 62
     7
 10
828.6997933991
 20
71.3607219063
 30
0.0
 40
1.0
 50
180.0
 51
270.0
  0
ARC
  5
FB
  8
1
  6
CONTINUOUS
 62
     7
 10
845.7997933991
 20
128.7607219063
 30
0.0
 40
1.2
 50
90.0
 51
180.0
  0
ARC
  5
FC
  8
1
  6
CONTINUOUS
 62
     7
 10
858.6997933991
 20
71.3607219063
 30
0.0
 40
1.0
 50
270.0
 51
0.0
  0
LINE
  5
FD
  8
1
  6
CONTINUOUS
 62
     7
 10
937.7399584851
 20
128.3513346472
 30
0.0
 11
936.739958485
 21
127.8513346472
 31
0.0
  0
ARC
  5
FE
  8
1
  6
CONTINUOUS
 62
     7
 10
924.739979618
 20
101.2836931926
 30
0.0
 40
19.0676414545
 50
4.8275027761
 51
175.1724972239
  0
LINE
  5
FF
  8
1
  6
CONTINUOUS
 62
     7
 10
943.7399779149
 20
86.3513346471
 30
0.0
 11
943.7399801001
 21
102.8883527577
 31
0.0
  0
LINE
  5
100
  8
1
  6
CONTINUOUS
 62
     7
 10
828.6997933991
 20
70.3607219063
 30
0.0
 11
858.6997933991
 21
70.3607219063
 31
0.0
  0
LINE
  5
101
  8
1
  6
CONTINUOUS
 62
     7
 10
936.7399584851
 20
133.8513346472
 30
0.0
 11
936.7399584851
 21
127.8513346472
 31
0.0
  0
LINE
  5
102
  8
1
  6
CONTINUOUS
 62
     7
 10
936.739958485
 20
133.8513346471
 30
0.0
 11
937.7399584851
 21
133.3513346472
 31
0.0
  0
LINE
  5
103
  8
1
  6
CONTINUOUS
 62
     7
 10
905.739979618
 20
74.5954595388
 30
0.0
 11
943.739979618
 21
74.5954595388
 31
0.0
  0
LINE
  5
104
  8
1
  6
CONTINUOUS
 62
     7
 10
905.739979618
 20
76.1812459765
 30
0.0
 11
943.739979618
 21
76.1812459765
 31
0.0
  0
LINE
  5
105
  8
1
  6
CONTINUOUS
 62
     7
 10
865.6997933991
 20
70.3883527577
 30
0.0
 11
864.6997933991
 21
70.3883527577
 31
0.0
  0
LINE
  5
106
  8
1
  6
CONTINUOUS
 62
     7
 10
834.1997934606
 20
81.3883527577
 30
0.0
 11
823.6997933991
 21
81.3883527577
 31
0.0
  0
LINE
  5
107
  8
1
  6
CENTER
 62
     5
 10
843.6997933991
 20
142.9120668577
 30
0.0
 11
843.6997933991
 21
66.0901999841
 31
0.0
  0
LINE
  5
108
  8
1
  6
CONTINUOUS
 62
     7
 10
863.6997933991
 20
81.3883527577
 30
0.0
 11
853.1997933376
 21
81.3883527577
 31
0.0
  0
LINE
  5
109
  8
1
  6
CONTINUOUS
 62
     7
 10
863.6997933991
 20
82.3883527577
 30
0.0
 11
853.1997933376
 21
82.3883527577
 31
0.0
  0
LINE
  5
10A
  8
1
  6
CONTINUOUS
 62
     7
 10
834.1997934606
 20
82.3883527577
 30
0.0
 11
823.6997933991
 21
82.3883527577
 31
0.0
  0
LINE
  5
10B
  8
1
  6
CONTINUOUS
 62
     7
 10
859.6997933991
 20
76.3607219063
 30
0.0
 11
859.6997933991
 21
71.3607219063
 31
0.0
  0
LINE
  5
10C
  8
1
  6
CONTINUOUS
 62
     7
 10
827.6997933991
 20
76.3607219063
 30
0.0
 11
827.6997933991
 21
71.3607219063
 31
0.0
  0
ARC
  5
10D
  8
1
  6
CONTINUOUS
 62
     7
 10
854.1997933991
 20
77.3607219063
 30
0.0
 40
1.0
 50
180.0
 51
283.1840265885
  0
ARC
  5
10E
  8
1
  6
CONTINUOUS
 62
     7
 10
833.1997933991
 20
77.3607219063
 30
0.0
 40
1.0
 50
256.8159734115
 51
0.0
  0
LINE
  5
10F
  8
1
  6
CONTINUOUS
 62
     7
 10
865.6997933991
 20
74.5954595389
 30
0.0
 11
865.6997933991
 21
70.3883527577
 31
0.0
  0
LINE
  5
110
  8
1
  6
CONTINUOUS
 62
     7
 10
865.6997933991
 20
80.3883527577
 30
0.0
 11
865.6997933991
 21
76.1812459765
 31
0.0
  0
LINE
  5
111
  8
1
  6
CENTER
 62
     7
 10
837.6772503629
 20
130.8607219063
 30
0.0
 11
850.3075170862
 21
130.8607219063
 31
0.0
  0
ARC
  5
112
  8
1
  6
CONTINUOUS
 62
     7
 10
924.739979618
 20
101.3513346471
 30
0.0
 40
20.5
 50
0.0
 51
180.0
  0
LINE
  5
113
  8
1
  6
CONTINUOUS
 62
     7
 10
854.4278728376
 20
76.3870793797
 30
0.0
 11
858.4717139606
 21
77.334364433
 31
0.0
  0
ARC
  5
114
  8
1
  6
CONTINUOUS
 62
     7
 10
828.6997933991
 20
76.3607219063
 30
0.0
 40
1.0
 50
76.8159734115
 51
180.0
  0
LINE
  5
115
  8
1
  6
CONTINUOUS
 62
     7
 10
832.9717139606
 20
76.3870793797
 30
0.0
 11
828.9278728376
 21
77.334364433
 31
0.0
  0
LINE
  5
116
  8
1
  6
CONTINUOUS
 62
     7
 10
834.1997933981
 20
83.3607219063
 30
0.0
 11
834.1997933991
 21
77.3607219063
 31
0.0
  0
LINE
  5
117
  8
1
  6
CONTINUOUS
 62
     7
 10
853.1997934001
 20
83.3607219063
 30
0.0
 11
853.1997933991
 21
77.3607219063
 31
0.0
  0
ARC
  5
118
  8
1
  6
CONTINUOUS
 62
     7
 10
858.6997933991
 20
76.3607219063
 30
0.0
 40
1.0
 50
0.0
 51
103.1840265885
  0
LINE
  5
119
  8
1
  6
CONTINUOUS
 62
     7
 10
824.6997933991
 20
123.3607219063
 30
0.0
 11
862.6997933991
 21
123.3607219063
 31
0.0
  0
LINE
  5
11A
  8
1
  6
CENTER
 62
     5
 10
895.2287533028
 20
102.8883527577
 30
0.0
 11
953.7488891036
 21
102.8883527577
 31
0.0
  0
LINE
  5
11B
  8
1
  6
CENTER
 62
     5
 10
872.6997933991
 20
102.8883527577
 30
0.0
 11
814.6997933991
 21
102.8883527577
 31
0.0
  0
ARC
  5
11C
  8
1
  6
CONTINUOUS
 62
     7
 10
823.6997933991
 20
80.3883527577
 30
0.0
 40
1.0
 50
90.0
 51
180.0
  0
LINE
  5
11D
  8
1
  6
CONTINUOUS
 62
     7
 10
821.6997933991
 20
80.3883527577
 30
0.0
 11
821.6997933991
 21
76.1812459765
 31
0.0
  0
LINE
  5
11E
  8
1
  6
CONTINUOUS
 62
     7
 10
821.6997933991
 20
74.5954595389
 30
0.0
 11
821.6997933991
 21
70.3883527577
 31
0.0
  0
LINE
  5
11F
  8
1
  6
CONTINUOUS
 62
     7
 10
821.6997933991
 20
70.3883527577
 30
0.0
 11
822.6997933991
 21
70.3883527577
 31
0.0
  0
LINE
  5
120
  8
1
  6
CONTINUOUS
 62
     7
 10
864.6997933991
 20
80.3883527577
 30
0.0
 11
864.6997933991
 21
76.5954595389
 31
0.0
  0
ARC
  5
121
  8
1
  6
CONTINUOUS
 62
     7
 10
863.6997933991
 20
80.3883527577
 30
0.0
 40
1.0
 50
0.0
 51
90.0
  0
LINE
  5
122
  8
1
  6
CONTINUOUS
 62
     7
 10
863.8462400085
 20
75.7419061483
 30
0.0
 11
864.6997933991
 21
76.5954595389
 31
0.0
  0
LINE
  5
123
  8
1
  6
CONTINUOUS
 62
     7
 10
863.8462400085
 20
75.0347993671
 30
0.0
 11
864.6997933991
 21
74.1812459765
 31
0.0
  0
LINE
  5
124
  8
1
  6
CONTINUOUS
 62
     7
 10
864.6997933991
 20
74.1812459765
 30
0.0
 11
864.6997933991
 21
70.3883527577
 31
0.0
  0
LINE
  5
125
  8
1
  6
CONTINUOUS
 62
     7
 10
865.0483215365
 20
75.5297741139
 30
0.0
 11
865.6997933991
 21
76.1812459765
 31
0.0
  0
LINE
  5
126
  8
1
  6
CONTINUOUS
 62
     7
 10
865.0483215365
 20
75.2469314015
 30
0.0
 11
865.6997933991
 21
74.5954595389
 31
0.0
  0
ARC
  5
127
  8
1
  6
CONTINUOUS
 62
     7
 10
863.6997933991
 20
80.3883527577
 30
0.0
 40
2.0
 50
0.0
 51
90.0
  0
ARC
  5
128
  8
1
  6
CONTINUOUS
 62
     7
 10
864.1997933991
 20
75.3883527577
 30
0.0
 40
0.5
 50
135.0
 51
225.0
  0
ARC
  5
129
  8
1
  6
CONTINUOUS
 62
     7
 10
865.1897428927
 20
75.3883527577
 30
0.0
 40
0.2
 50
134.9999999999
 51
224.9999999995
  0
ARC
  5
12A
  8
1
  6
CONTINUOUS
 62
     7
 10
823.6997933991
 20
80.3883527577
 30
0.0
 40
2.0
 50
90.0
 51
180.0
  0
TEXT
  5
12B
  8
1
  6
CONTINUOUS
 62
     7
 10
925.6189169754674
 20
56.51183363636364
 30
0.0
 40
3.0
  1
ＤＣＦ－３０Ｆ
 41
0.873927
 51
14.999825
  0
LINE
  5
12C
  8
1
  6
CONTINUOUS
 62
     7
 10
917.7399584851
 20
136.3938972314
 30
0.0
 11
917.7399584851
 21
125.3087720629
 31
0.0
  0
LINE
  5
12D
  8
1
  6
CONTINUOUS
 62
     7
 10
917.7399584851
 20
125.3087720629
 30
0.0
 11
913.4379592253
 21
125.3087720629
 31
0.0
  0
LINE
  5
12E
  8
1
  6
CONTINUOUS
 62
     7
 10
913.4379592253
 20
125.3087720629
 30
0.0
 11
913.2353395351
 21
125.6597196609
 31
0.0
  0
ARC
  5
12F
  8
1
  6
CONTINUOUS
 62
     7
 10
915.1447126576
 20
126.7620967472
 30
0.0
 40
2.2047541725
 50
143.2889572925
 51
210.0000000002
  0
LINE
  5
130
  8
1
  6
CONTINUOUS
 62
     7
 10
913.3772484397
 20
128.0800539543
 30
0.0
 11
917.7399584851
 21
128.0800539543
 31
0.0
  0
LINE
  5
131
  8
1
  6
CONTINUOUS
 62
     7
 10
917.7399584851
 20
136.3938972314
 30
0.0
 11
913.4379592253
 21
136.3938972314
 31
0.0
  0
LINE
  5
132
  8
1
  6
CONTINUOUS
 62
     7
 10
913.4379592253
 20
136.3938972314
 30
0.0
 11
913.2353395351
 21
136.0429496334
 31
0.0
  0
ARC
  5
133
  8
1
  6
CONTINUOUS
 62
     7
 10
915.1447126576
 20
134.9405725471
 30
0.0
 40
2.2047541725
 50
149.9999999999
 51
216.7110427075
  0
LINE
  5
134
  8
1
  6
CONTINUOUS
 62
     7
 10
913.3772484397
 20
133.6226153401
 30
0.0
 11
917.7399584851
 21
133.6226153401
 31
0.0
  0
LINE
  5
135
  8
1
  6
CONTINUOUS
 62
     7
 10
912.9399584851
 20
126.7620967472
 30
0.0
 11
912.9399584851
 21
134.9405725471
 31
0.0
  0
ARC
  5
136
  8
1
  6
CONTINUOUS
 62
     7
 10
921.9399584851
 20
130.8513346472
 30
0.0
 40
9.0
 50
162.0660707094
 51
197.9339292906
  0
CIRCLE
  5
137
  8
1
  6
CONTINUOUS
 62
     7
 10
843.6997933991
 20
130.8607219063
 30
0.0
 40
5.1
  0
LINE
  5
138
  8
1
  6
CONTINUOUS
 62
     7
 10
842.7997933991
 20
132.9607219063
 30
0.0
 11
842.7997933991
 21
134.8607219063
 31
0.0
  0
LINE
  5
139
  8
1
  6
CONTINUOUS
 62
     7
 10
838.2397933991
 20
134.0130543761
 30
0.0
 11
838.2397933991
 21
127.7083894365
 31
0.0
  0
LINE
  5
13A
  8
1
  6
CONTINUOUS
 62
     7
 10
927.240000751
 20
124.1986488774
 30
0.0
 11
927.240000751
 21
138.3513346471
 31
0.0
  0
ARC
  5
13B
  8
1
  6
CONTINUOUS
 62
     7
 10
929.240000751
 20
135.8513346471
 30
0.0
 40
0.5
 50
180.0
 51
270.0
  0
LINE
  5
13C
  8
1
  6
CONTINUOUS
 62
     7
 10
947.7399796405
 20
89.3513346471
 30
0.0
 11
946.7399650313
 21
87.1408083315
 31
0.0
  0
LINE
  5
13D
  8
1
  6
CONTINUOUS
 62
     7
 10
843.6997933991
 20
137.1653868459
 30
0.0
 11
838.2397933991
 21
134.0130543761
 31
0.0
  0
ARC
  5
13E
  8
1
  6
CONTINUOUS
 62
     7
 10
924.739979618
 20
101.3513346471
 30
0.0
 40
22.0
 50
0.0
 51
76.4647557115
  0
LINE
  5
13F
  8
1
  6
CONTINUOUS
 62
     7
 10
842.7997933991
 20
134.8607219063
 30
0.0
 11
844.5997933991
 21
134.8607219063
 31
0.0
  0
ARC
  5
140
  8
1
  6
CONTINUOUS
 62
     7
 10
924.739979618
 20
101.3513346471
 30
0.0
 40
23.0
 50
0.0
 51
76.4647527234
  0
ARC
  5
141
  8
1
  6
CONTINUOUS
 62
     7
 10
930.240000751
 20
124.1986488773
 30
0.0
 40
1.5
 50
180.0
 51
256.4647557116
  0
LINE
  5
142
  8
1
  6
CONTINUOUS
 62
     7
 10
931.740000751
 20
127.8513346472
 30
0.0
 11
936.7399584851
 21
127.8513346472
 31
0.0
  0
LINE
  5
143
  8
1
  6
CONTINUOUS
 62
     7
 10
937.7399584851
 20
128.3513346472
 30
0.0
 11
931.740000751
 21
128.3513346472
 31
0.0
  0
ARC
  5
144
  8
1
  6
CONTINUOUS
 62
     7
 10
929.240000751
 20
125.8513346471
 30
0.0
 40
0.5
 50
90.0
 51
180.0
  0
LINE
  5
145
  8
1
  6
CONTINUOUS
 62
     7
 10
931.740000751
 20
133.3513346472
 30
0.0
 11
937.7399584851
 21
133.3513346472
 31
0.0
  0
ARC
  5
146
  8
1
  6
CONTINUOUS
 62
     7
 10
930.240000751
 20
124.1986488774
 30
0.0
 40
3.0
 50
180.0
 51
256.4647557116
  0
LINE
  5
147
  8
1
  6
CONTINUOUS
 62
     7
 10
927.240000751
 20
128.3513398309
 30
0.0
 11
922.2399584851
 21
128.3513142439
 31
0.0
  0
LINE
  5
148
  8
1
  6
CENTER
 62
     5
 10
912.0999584851
 20
130.8513346472
 30
0.0
 11
939.9234901968
 21
130.8513346472
 31
0.0
  0
LINE
  5
149
  8
1
  6
CONTINUOUS
 62
     7
 10
849.1597933991
 20
127.7083894365
 30
0.0
 11
843.6997933991
 21
124.5560569668
 31
0.0
  0
LINE
  5
14A
  8
1
  6
CONTINUOUS
 62
     7
 10
844.5997933991
 20
126.8607219063
 30
0.0
 11
842.7997933991
 21
126.8607219063
 31
0.0
  0
LINE
  5
14B
  8
1
  6
CONTINUOUS
 62
     7
 10
847.6997933991
 20
131.7607219063
 30
0.0
 11
847.6997933991
 21
129.9607219063
 31
0.0
  0
LINE
  5
14C
  8
1
  6
CENTER
 62
     5
 10
855.6997933991
 20
130.8607219063
 30
0.0
 11
831.6997933991
 21
130.8607219063
 31
0.0
  0
LINE
  5
14D
  8
1
  6
CONTINUOUS
 62
     7
 10
841.5997933991
 20
129.9607219063
 30
0.0
 11
839.6997933991
 21
129.9607219063
 31
0.0
  0
LINE
  5
14E
  8
1
  6
CONTINUOUS
 62
     7
 10
943.7399779149
 20
86.3513346471
 30
0.0
 11
945.239977056
 21
86.3513346471
 31
0.0
  0
LINE
  5
14F
  8
1
  6
CONTINUOUS
 62
     7
 10
844.5997933991
 20
128.7607219063
 30
0.0
 11
844.5997933991
 21
126.8607219063
 31
0.0
  0
LINE
  5
150
  8
1
  6
CONTINUOUS
 62
     7
 10
845.7997933991
 20
131.7607219063
 30
0.0
 11
847.6997933991
 21
131.7607219063
 31
0.0
  0
LINE
  5
151
  8
1
  6
CONTINUOUS
 62
     7
 10
839.6997933991
 20
131.7607219063
 30
0.0
 11
841.5997933991
 21
131.7607219063
 31
0.0
  0
LINE
  5
152
  8
1
  6
CONTINUOUS
 62
     7
 10
839.6997933991
 20
129.9607219063
 30
0.0
 11
839.6997933991
 21
131.7607219063
 31
0.0
  0
LINE
  5
153
  8
1
  6
CONTINUOUS
 62
     7
 10
842.7997933991
 20
126.8607219063
 30
0.0
 11
842.7997933991
 21
128.7607219061
 31
0.0
  0
LINE
  5
154
  8
1
  6
CONTINUOUS
 62
     7
 10
847.6997933991
 20
129.9607219063
 30
0.0
 11
845.7997933991
 21
129.9607219063
 31
0.0
  0
ARC
  5
155
  8
1
  6
CONTINUOUS
 62
     7
 10
841.5997933991
 20
132.9607219063
 30
0.0
 40
1.2
 50
270.0
 51
0.0
  0
ARC
  5
156
  8
1
  6
CONTINUOUS
 62
     7
 10
841.5997933991
 20
128.7607219061
 30
0.0
 40
1.2
 50
0.0
 51
90.0
  0
LINE
  5
157
  8
1
  6
CONTINUOUS
 62
     7
 10
947.7399796405
 20
89.3513346471
 30
0.0
 11
947.7399796406
 21
101.3513346474
 31
0.0
  0
LINE
  5
158
  8
1
  6
CONTINUOUS
 62
     7
 10
849.1597933991
 20
127.7083894365
 30
0.0
 11
849.1597933991
 21
134.0130543761
 31
0.0
  0
LINE
  5
159
  8
1
  6
CONTINUOUS
 62
     7
 10
931.740000751
 20
133.8513346472
 30
0.0
 11
936.7399584851
 21
133.8513346472
 31
0.0
  0
LINE
  5
15A
  8
1
  6
CONTINUOUS
 62
     7
 10
929.240000751
 20
126.3513346471
 30
0.0
 11
931.740000751
 21
126.3513346471
 31
0.0
  0
LINE
  5
15B
  8
1
  6
CONTINUOUS
 62
     7
 10
946.7399542684
 20
101.3513346471
 30
0.0
 11
946.7399777403
 21
70.3607219063
 31
0.0
  0
LINE
  5
15C
  8
1
  6
CONTINUOUS
 62
     7
 10
945.239979897
 20
101.3513346471
 30
0.0
 11
945.2399758019
 21
70.3607219063
 31
0.0
  0
ARC
  5
15D
  8
1
  6
CONTINUOUS
 62
     7
 10
930.2400019426
 20
124.1986485906
 30
0.0
 40
0.5
 50
180.0000317193
 51
256.4647527235
  0
LINE
  5
15E
  8
1
  6
CONTINUOUS
 62
     7
 10
843.6997933991
 20
124.5560569668
 30
0.0
 11
838.2397933991
 21
127.7083894365
 31
0.0
  0
LINE
  5
15F
  8
1
  6
CONTINUOUS
 62
     7
 10
946.7399785168
 20
70.3513346471
 30
0.0
 11
945.2399796409
 21
70.3513346471
 31
0.0
  0
LINE
  5
160
  8
1
  6
CONTINUOUS
 62
     7
 10
844.5997933991
 20
134.8607219063
 30
0.0
 11
844.5997933991
 21
132.9607219061
 31
0.0
  0
LINE
  5
161
  8
1
  6
CONTINUOUS
 62
     7
 10
849.1597933991
 20
134.0130543761
 30
0.0
 11
843.6997933991
 21
137.1653868459
 31
0.0
  0
LINE
  5
162
  8
1
  6
CONTINUOUS
 62
     7
 10
922.2399584851
 20
133.3513433228
 30
0.0
 11
927.240000751
 21
133.3513324782
 31
0.0
  0
LINE
  5
163
  8
1
  6
CONTINUOUS
 62
     7
 10
929.7400019426
 20
124.1986483138
 30
0.0
 11
929.7400007509
 21
126.3513346471
 31
0.0
  0
ENDSEC
  0
EOF
