  0
SECTION
  2
HEADER
  9
$ACADVER
  1
AC1006
  9
$DWGCODEPAGE
  3
ansi_932
  9
$INSBASE
 10
0.0
 20
0.0
 30
0.0
  9
$EXTMIN
 10
0.0
 20
0.0
  9
$EXTMAX
 10
1104.292750672
 20
167.3131837857
  9
$LIMMIN
 10
0.0
 20
0.0
  9
$LIMMAX
 10
12.0
 20
9.0
  9
$ORTHOMODE
 70
     0
  9
$REGENMODE
 70
     1
  9
$FILLMODE
 70
     1
  9
$QTEXTMODE
 70
     0
  9
$MIRRTEXT
 70
     1
  9
$DRAGMODE
 70
     2
  9
$LTSCALE
 40
1.0
  9
$OSMODE
 70
    37
  9
$ATTMODE
 70
     1
  9
$TEXTSIZE
 40
0.2
  9
$TRACEWID
 40
0.05
  9
$TEXTSTYLE
  7
STANDARD
  9
$CLAYER
  8
0
  9
$CELTYPE
  6
BYLAYER
  9
$CECOLOR
 62
   256
  9
$DIMSCALE
 40
1.0
  9
$DIMASZ
 40
2.0
  9
$DIMEXO
 40
0.0625
  9
$DIMDLI
 40
0.38
  9
$DIMRND
 40
0.0
  9
$DIMDLE
 40
0.0
  9
$DIMEXE
 40
1.0
  9
$DIMTP
 40
0.0
  9
$DIMTM
 40
0.0
  9
$DIMTXT
 40
3.5
  9
$DIMCEN
 40
0.09
  9
$DIMTSZ
 40
0.0
  9
$DIMTOL
 70
     0
  9
$DIMLIM
 70
     0
  9
$DIMTIH
 70
     1
  9
$DIMTOH
 70
     1
  9
$DIMSE1
 70
     0
  9
$DIMSE2
 70
     0
  9
$DIMTAD
 70
     1
  9
$DIMZIN
 70
     0
  9
$DIMBLK
  1

  9
$DIMASO
 70
     1
  9
$DIMSHO
 70
     1
  9
$DIMPOST
  1

  9
$DIMAPOST
  1

  9
$DIMALT
 70
     0
  9
$DIMALTD
 70
     2
  9
$DIMALTF
 40
25.4
  9
$DIMLFAC
 40
1.0
  9
$DIMTOFL
 70
     0
  9
$DIMTVP
 40
0.0
  9
$DIMTIX
 70
     0
  9
$DIMSOXD
 70
     0
  9
$DIMSAH
 70
     0
  9
$DIMBLK1
  1

  9
$DIMBLK2
  1

  9
$LUNITS
 70
     2
  9
$LUPREC
 70
     4
  9
$SKETCHINC
 40
0.1
  9
$FILLETRAD
 40
0.5
  9
$AUNITS
 70
     0
  9
$AUPREC
 70
     0
  9
$MENU
  1
.
  9
$ELEVATION
 40
0.0
  9
$THICKNESS
 40
0.0
  9
$LIMCHECK
 70
     0
  9
$CHAMFERA
 40
0.0
  9
$CHAMFERB
 40
0.0
  9
$SKPOLY
 70
     0
  9
$TDCREATE
 40
2460286.56074316
  9
$TDUPDATE
 40
2460286.560743541
  9
$TDINDWG
 40
0.0000000116
  9
$TDUSRTIMER
 40
0.0000000116
  9
$USRTIMER
 70
     1
  9
$ANGBASE
 50
0.0
  9
$ANGDIR
 70
     0
  9
$PDMODE
 70
     0
  9
$PDSIZE
 40
0.0
  9
$PLINEWID
 40
0.0
  9
$COORDS
 70
     1
  9
$SPLFRAME
 70
     0
  9
$SPLINETYPE
 70
     6
  9
$SPLINESEGS
 70
     8
  9
$ATTDIA
 70
     0
  9
$ATTREQ
 70
     1
  9
$HANDLING
 70
     1
  9
$HANDSEED
  5
196
  9
$SURFTAB1
 70
     6
  9
$SURFTAB2
 70
     6
  9
$SURFTYPE
 70
     6
  9
$SURFU
 70
     6
  9
$SURFV
 70
     6
  9
$UCSNAME
  2

  9
$UCSORG
 10
0.0
 20
0.0
 30
0.0
  9
$UCSXDIR
 10
1.0
 20
0.0
 30
0.0
  9
$UCSYDIR
 10
0.0
 20
1.0
 30
0.0
  9
$USERI1
 70
     0
  9
$USERI2
 70
     0
  9
$USERI3
 70
     0
  9
$USERI4
 70
     0
  9
$USERI5
 70
     0
  9
$USERR1
 40
0.0
  9
$USERR2
 40
0.0
  9
$USERR3
 40
0.0
  9
$USERR4
 40
0.0
  9
$USERR5
 40
0.0
  9
$WORLDVIEW
 70
     1
  0
ENDSEC
  0
SECTION
  2
TABLES
  0
TABLE
  2
VPORT
 70
     1
  0
VPORT
  2
*ACTIVE
 70
     0
 10
0.0
 20
0.0
 11
1.0
 21
1.0
 12
552.146375336
 22
83.65659189285
 13
0.0
 23
0.0
 14
0.5
 24
0.5
 15
0.5
 25
0.5
 16
0.0
 26
0.0
 36
1.0
 17
0.0
 27
0.0
 37
0.0
 40
167.3131837857
 41
1.6
 42
50.0
 43
0.0
 44
0.0
 50
0.0
 51
0.0
 71
     0
 72
   100
 73
     1
 74
     3
 75
     0
 76
     0
 77
     0
 78
     0
  0
ENDTAB
  0
TABLE
  2
LTYPE
 70
     2
  0
LTYPE
  2
CONTINUOUS
 70
     0
  3
Solid line
 72
    65
 73
     0
 40
0.0
  0
LTYPE
  2
CENTER
 70
     0
  3

 72
    65
 73
     0
 40
0.0
  0
ENDTAB
  0
TABLE
  2
LAYER
 70
     2
  0
LAYER
  2
0
 70
     0
 62
     7
  6
CONTINUOUS
  0
LAYER
  2
1
 70
     0
 62
     7
  6
CONTINUOUS
  0
ENDTAB
  0
TABLE
  2
STYLE
 70
     2
  0
STYLE
  2
STANDARD
 70
     0
 40
0.0
 41
1.0
 50
0.0
 71
     0
 42
0.2
  3
txt
  4

  0
STYLE
  2
ＭＳ_ゴシック
 70
     0
 40
0.0
 41
1.0
 50
0.0
 71
     0
 42
0.2
  3
ＭＳ ゴシック.shx
  4

  0
ENDTAB
  0
TABLE
  2
VIEW
 70
     0
  0
ENDTAB
  0
TABLE
  2
UCS
 70
     0
  0
ENDTAB
  0
ENDSEC
  0
SECTION
  2
BLOCKS
  0
BLOCK
  8
0
  2
D_FRAME_DRAWING_21
 70
     0
 10
0.0
 20
0.0
 30
0.0
  0
LINE
  5
92
  8
0
  6
CONTINUOUS
 62
     7
 10
0.0
 20
0.0
 30
0.0
 11
420.0
 21
0.0
 31
0.0
  0
LINE
  5
93
  8
0
  6
CONTINUOUS
 62
     7
 10
420.0
 20
0.0
 30
0.0
 11
420.0
 21
297.0
 31
0.0
  0
LINE
  5
94
  8
0
  6
CONTINUOUS
 62
     7
 10
420.0
 20
297.0
 30
0.0
 11
0.0
 21
297.0
 31
0.0
  0
LINE
  5
95
  8
0
  6
CONTINUOUS
 62
     7
 10
0.0
 20
297.0
 30
0.0
 11
0.0
 21
0.0
 31
0.0
  0
LINE
  5
96
  8
0
  6
CONTINUOUS
 62
     7
 10
10.0
 20
10.0
 30
0.0
 11
409.9999999999999
 21
10.0
 31
0.0
  0
LINE
  5
97
  8
0
  6
CONTINUOUS
 62
     7
 10
409.9999999999999
 20
10.0
 30
0.0
 11
409.9999999999999
 21
286.9999999999999
 31
0.0
  0
LINE
  5
98
  8
0
  6
CONTINUOUS
 62
     7
 10
409.9999999999999
 20
286.9999999999999
 30
0.0
 11
10.00000000000006
 21
286.9999999999999
 31
0.0
  0
LINE
  5
99
  8
0
  6
CONTINUOUS
 62
     7
 10
10.0
 20
286.9999999999999
 30
0.0
 11
10.0
 21
10.00000000000001
 31
0.0
  0
LINE
  5
9A
  8
0
  6
CONTINUOUS
 62
     7
 10
210.0
 20
0.0
 30
0.0
 11
210.0
 21
10.0
 31
0.0
  0
LINE
  5
9B
  8
0
  6
CONTINUOUS
 62
     7
 10
420.0
 20
148.5
 30
0.0
 11
409.9999999999999
 21
148.5
 31
0.0
  0
LINE
  5
9C
  8
0
  6
CONTINUOUS
 62
     7
 10
210.0
 20
297.0
 30
0.0
 11
210.0
 21
286.9999999999999
 31
0.0
  0
LINE
  5
9D
  8
0
  6
CONTINUOUS
 62
     7
 10
0.0
 20
148.5
 30
0.0
 11
10.0
 21
148.5
 31
0.0
  0
POLYLINE
  5
9E
  8
0
  6
CONTINUOUS
 62
     7
 66
     1
 10
0.0
 20
0.0
 30
0.0
 70
     1
  0
VERTEX
  5
167
  8
0
  6
CONTINUOUS
 62
     7
 10
11.0
 20
152.5
 30
0.0
  0
VERTEX
  5
168
  8
0
  6
CONTINUOUS
 62
     7
 10
0.0
 20
148.5
 30
0.0
  0
VERTEX
  5
169
  8
0
  6
CONTINUOUS
 62
     7
 10
11.0
 20
144.5
 30
0.0
  0
VERTEX
  5
16A
  8
0
  6
CONTINUOUS
 62
     7
 10
11.0
 20
152.5
 30
0.0
  0
SEQEND
  5
194
  8
0
  6
CONTINUOUS
 62
     7
  0
INSERT
  5
9F
  8
0
 62
     7
  2
*U2
 10
0.0
 20
0.0
 30
0.0
  0
POLYLINE
  5
A0
  8
0
  6
CONTINUOUS
 62
     7
 66
     1
 10
0.0
 20
0.0
 30
0.0
 70
     1
  0
VERTEX
  5
16D
  8
0
  6
CONTINUOUS
 62
     7
 10
206.0
 20
11.0
 30
0.0
  0
VERTEX
  5
16E
  8
0
  6
CONTINUOUS
 62
     7
 10
210.0
 20
0.0
 30
0.0
  0
VERTEX
  5
16F
  8
0
  6
CONTINUOUS
 62
     7
 10
214.0
 20
11.0
 30
0.0
  0
VERTEX
  5
170
  8
0
  6
CONTINUOUS
 62
     7
 10
206.0
 20
11.0
 30
0.0
  0
SEQEND
  5
195
  8
0
  6
CONTINUOUS
 62
     7
  0
INSERT
  5
A1
  8
0
 62
     7
  2
*U3
 10
0.0
 20
0.0
 30
0.0
  0
LINE
  5
A2
  8
0
  6
CONTINUOUS
 62
     7
 10
367.5
 20
286.9999999999999
 30
0.0
 11
367.5
 21
292.0
 31
0.0
  0
TEXT
  5
A3
  8
0
  6
CONTINUOUS
 62
     7
 10
391.6340909090909
 20
291.8324293485057
 30
0.0
 40
3.5
  1
A
 50
270.0
  0
LINE
  5
A4
  8
0
  6
CONTINUOUS
 62
     7
 10
367.5
 20
10.0
 30
0.0
 11
367.5
 21
5.0
 31
0.0
  0
TEXT
  5
A5
  8
0
  6
CONTINUOUS
 62
     7
 10
392.9868888333125
 20
4.602272727272727
 30
0.0
 40
3.5
  1
A
  0
LINE
  5
A6
  8
0
  6
CONTINUOUS
 62
     7
 10
315.0
 20
286.9999999999999
 30
0.0
 11
315.0
 21
292.0
 31
0.0
  0
TEXT
  5
A7
  8
0
  6
CONTINUOUS
 62
     7
 10
339.1340909090909
 20
291.9745607727899
 30
0.0
 40
3.5
  1
B
 50
270.0
  0
LINE
  5
A8
  8
0
  6
CONTINUOUS
 62
     7
 10
315.0
 20
10.0
 30
0.0
 11
315.0
 21
5.0
 31
0.0
  0
TEXT
  5
A9
  8
0
  6
CONTINUOUS
 62
     7
 10
340.3447574090284
 20
4.602272727272727
 30
0.0
 40
3.5
  1
B
  0
LINE
  5
AA
  8
0
  6
CONTINUOUS
 62
     7
 10
262.5
 20
286.9999999999999
 30
0.0
 11
262.5
 21
292.0
 31
0.0
  0
TEXT
  5
AB
  8
0
  6
CONTINUOUS
 62
     7
 10
286.6327779167187
 20
291.9399305989747
 30
0.0
 40
3.5
  1
C
 50
270.0
  0
LINE
  5
AC
  8
0
  6
CONTINUOUS
 62
     7
 10
262.5
 20
10.0
 30
0.0
 11
262.5
 21
5.0
 31
0.0
  0
TEXT
  5
AD
  8
0
  6
CONTINUOUS
 62
     7
 10
287.8793875828435
 20
4.600959734900587
 30
0.0
 40
3.5
  1
C
  0
LINE
  5
AE
  8
0
  6
CONTINUOUS
 62
     7
 10
210.0
 20
286.9999999999999
 30
0.0
 11
210.0
 21
292.0
 31
0.0
  0
TEXT
  5
AF
  8
0
  6
CONTINUOUS
 62
     7
 10
234.1340909090909
 20
291.9745607727898
 30
0.0
 40
3.5
  1
D
 50
270.0
  0
LINE
  5
B0
  8
0
  6
CONTINUOUS
 62
     7
 10
157.5
 20
286.9999999999999
 30
0.0
 11
157.5
 21
292.0
 31
0.0
  0
TEXT
  5
B1
  8
0
  6
CONTINUOUS
 62
     7
 10
181.6327779167188
 20
292.027463423784
 30
0.0
 40
3.5
  1
E
 50
270.0
  0
LINE
  5
B2
  8
0
  6
CONTINUOUS
 62
     7
 10
157.5
 20
10.0
 30
0.0
 11
157.5
 21
5.0
 31
0.0
  0
LINE
  5
B3
  8
0
  6
CONTINUOUS
 62
     7
 10
105.0
 20
286.9999999999999
 30
0.0
 11
105.0
 21
292.0
 31
0.0
  0
TEXT
  5
B4
  8
0
  6
CONTINUOUS
 62
     7
 10
129.1327779167188
 20
291.9924502938602
 30
0.0
 40
3.5
  1
F
 50
270.0
  0
LINE
  5
B5
  8
0
  6
CONTINUOUS
 62
     7
 10
105.0
 20
10.0
 30
0.0
 11
105.0
 21
5.0
 31
0.0
  0
TEXT
  5
B6
  8
0
  6
CONTINUOUS
 62
     7
 10
130.326867887958
 20
4.600959734900587
 30
0.0
 40
3.5
  1
F
  0
LINE
  5
B7
  8
0
  6
CONTINUOUS
 62
     7
 10
52.50000000000004
 20
286.9999999999999
 30
0.0
 11
52.50000000000004
 21
292.0
 31
0.0
  0
TEXT
  5
B8
  8
0
  6
CONTINUOUS
 62
     7
 10
76.6327779167188
 20
291.9399305989746
 30
0.0
 40
3.5
  1
G
 50
270.0
  0
LINE
  5
B9
  8
0
  6
CONTINUOUS
 62
     7
 10
52.50000000000004
 20
10.0
 30
0.0
 11
52.50000000000004
 21
5.0
 31
0.0
  0
TEXT
  5
BA
  8
0
  6
CONTINUOUS
 62
     7
 10
77.8793875828436
 20
4.600959734900587
 30
0.0
 40
3.5
  1
G
  0
TEXT
  5
BB
  8
0
  6
CONTINUOUS
 62
     7
 10
24.13277791671879
 20
291.9749437288983
 30
0.0
 40
3.5
  1
H
 50
270.0
  0
TEXT
  5
BC
  8
0
  6
CONTINUOUS
 62
     7
 10
25.34437445291988
 20
4.600959734900587
 30
0.0
 40
3.5
  1
H
  0
LINE
  5
BD
  8
0
  6
CONTINUOUS
 62
     7
 10
409.9999999999999
 20
74.25
 30
0.0
 11
414.9999999999999
 21
74.25
 31
0.0
  0
TEXT
  5
BE
  8
0
  6
CONTINUOUS
 62
     7
 10
412.9326059772414
 20
35.00777791671877
 30
0.0
 40
3.5
  1
1
  0
LINE
  5
BF
  8
0
  6
CONTINUOUS
 62
     7
 10
10.0
 20
74.25
 30
0.0
 11
5.0
 21
74.25
 31
0.0
  0
TEXT
  5
C0
  8
0
  6
CONTINUOUS
 62
     7
 10
4.600959734900584
 20
38.26171220457671
 30
0.0
 40
3.5
  1
1
 50
270.0
  0
LINE
  5
C1
  8
0
  6
CONTINUOUS
 62
     7
 10
409.9999999999999
 20
148.5
 30
0.0
 11
414.9999999999999
 21
148.5
 31
0.0
  0
TEXT
  5
C2
  8
0
  6
CONTINUOUS
 62
     7
 10
413.163692634738
 20
109.2577779167188
 30
0.0
 40
3.5
  1
2
  0
LINE
  5
C3
  8
0
  6
CONTINUOUS
 62
     7
 10
10.0
 20
148.5
 30
0.0
 11
5.0
 21
148.5
 31
0.0
  0
TEXT
  5
C4
  8
0
  6
CONTINUOUS
 62
     7
 10
4.600959734900599
 20
112.2806255470802
 30
0.0
 40
3.5
  1
2
 50
270.0
  0
LINE
  5
C5
  8
0
  6
CONTINUOUS
 62
     7
 10
409.9999999999999
 20
222.75
 30
0.0
 11
414.9999999999999
 21
222.75
 31
0.0
  0
TEXT
  5
C6
  8
0
  6
CONTINUOUS
 62
     7
 10
413.1811991996998
 20
183.5077779167188
 30
0.0
 40
3.5
  1
3
  0
LINE
  5
C7
  8
0
  6
CONTINUOUS
 62
     7
 10
10.0
 20
222.75
 30
0.0
 11
5.0
 21
222.75
 31
0.0
  0
TEXT
  5
C8
  8
0
  6
CONTINUOUS
 62
     7
 10
4.600959734900584
 20
186.5131189821183
 30
0.0
 40
3.5
  1
3
 50
270.0
  0
TEXT
  5
C9
  8
0
  6
CONTINUOUS
 62
     7
 10
413.2351413029886
 20
257.7590909090909
 30
0.0
 40
3.5
  1
4
  0
TEXT
  5
CA
  8
0
  6
CONTINUOUS
 62
     7
 10
4.60227272727272
 20
260.7091768788295
 30
0.0
 40
3.5
  1
4
 50
270.0
  0
LINE
  5
CB
  8
0
  6
CONTINUOUS
 62
     7
 10
220.0
 20
10.0
 30
0.0
 11
220.0
 21
7.0
 31
0.0
  0
LINE
  5
CC
  8
0
  6
CONTINUOUS
 62
     7
 10
200.0
 20
10.0
 30
0.0
 11
200.0
 21
7.0
 31
0.0
  0
LINE
  5
CD
  8
0
  6
CONTINUOUS
 62
     7
 10
230.0
 20
10.0
 30
0.0
 11
230.0
 21
7.0
 31
0.0
  0
LINE
  5
CE
  8
0
  6
CONTINUOUS
 62
     7
 10
190.0
 20
10.0
 30
0.0
 11
190.0
 21
7.0
 31
0.0
  0
LINE
  5
CF
  8
0
  6
CONTINUOUS
 62
     7
 10
240.0
 20
10.0
 30
0.0
 11
240.0
 21
7.0
 31
0.0
  0
LINE
  5
D0
  8
0
  6
CONTINUOUS
 62
     7
 10
180.0
 20
10.0
 30
0.0
 11
180.0
 21
7.0
 31
0.0
  0
LINE
  5
D1
  8
0
  6
CONTINUOUS
 62
     7
 10
250.0
 20
10.0
 30
0.0
 11
250.0
 21
7.0
 31
0.0
  0
LINE
  5
D2
  8
0
  6
CONTINUOUS
 62
     7
 10
170.0
 20
10.0
 30
0.0
 11
170.0
 21
7.0
 31
0.0
  0
LINE
  5
D3
  8
0
  6
CONTINUOUS
 62
     7
 10
260.0
 20
10.0
 30
0.0
 11
260.0
 21
5.0
 31
0.0
  0
LINE
  5
D4
  8
0
  6
CONTINUOUS
 62
     7
 10
160.0
 20
10.0
 30
0.0
 11
160.0
 21
5.0
 31
0.0
  0
LINE
  5
D5
  8
0
  6
CONTINUOUS
 62
     7
 10
260.0
 20
10.0
 30
0.0
 11
160.0
 21
10.0
 31
0.0
  0
LINE
  5
D6
  8
0
  6
CONTINUOUS
 62
     7
 10
260.0
 20
7.0
 30
0.0
 11
160.0
 21
7.0
 31
0.0
  0
INSERT
  5
D7
  8
0
 62
     7
  2
*U4
 10
0.0
 20
0.0
 30
0.0
  0
INSERT
  5
D8
  8
0
 62
     7
  2
*U5
 10
0.0
 20
0.0
 30
0.0
  0
INSERT
  5
D9
  8
0
 62
     7
  2
*U6
 10
0.0
 20
0.0
 30
0.0
  0
INSERT
  5
DA
  8
0
 62
     7
  2
*U7
 10
0.0
 20
0.0
 30
0.0
  0
ENDBLK
  8
0
  0
BLOCK
  8
0
  2
*U2
 70
     1
 10
0.0
 20
0.0
 30
0.0
  0
SOLID
  5
16C
  8
0
  6
CONTINUOUS
 62
     7
 10
11.0
 20
144.5
 30
0.0
 11
6.999999999999999
 21
148.5
 31
0.0
 12
11.0
 22
152.5
 32
0.0
 13
11.0
 23
152.5
 33
0.0
  0
ENDBLK
  8
0
  0
BLOCK
  8
0
  2
*U3
 70
     1
 10
0.0
 20
0.0
 30
0.0
  0
SOLID
  5
172
  8
0
  6
CONTINUOUS
 62
     7
 10
210.0
 20
6.999999999999999
 30
0.0
 11
206.0
 21
11.0
 31
0.0
 12
210.0
 22
11.0
 32
0.0
 13
210.0
 23
11.0
 33
0.0
  0
SOLID
  5
173
  8
0
  6
CONTINUOUS
 62
     7
 10
210.0
 20
6.999999999999999
 30
0.0
 11
210.0
 21
11.0
 31
0.0
 12
214.0
 22
11.0
 32
0.0
 13
214.0
 23
11.0
 33
0.0
  0
ENDBLK
  8
0
  0
BLOCK
  8
0
  2
*U4
 70
     1
 10
0.0
 20
0.0
 30
0.0
  0
SOLID
  5
175
  8
0
  6
CONTINUOUS
 62
     7
 10
0.0
 20
0.0
 30
0.0
 11
0.0
 21
10.0
 31
0.0
 12
2.0
 22
0.0
 32
0.0
 13
2.0
 23
0.0
 33
0.0
  0
SOLID
  5
176
  8
0
  6
CONTINUOUS
 62
     7
 10
2.0
 20
0.0
 30
0.0
 11
0.0
 21
10.0
 31
0.0
 12
2.0
 22
10.0
 32
0.0
 13
2.0
 23
10.0
 33
0.0
  0
SOLID
  5
177
  8
0
  6
CONTINUOUS
 62
     7
 10
2.0
 20
0.0
 30
0.0
 11
2.0
 21
2.0
 31
0.0
 12
10.0
 22
0.0
 32
0.0
 13
10.0
 23
0.0
 33
0.0
  0
SOLID
  5
178
  8
0
  6
CONTINUOUS
 62
     7
 10
10.0
 20
0.0
 30
0.0
 11
2.0
 21
2.0
 31
0.0
 12
10.0
 22
2.0
 32
0.0
 13
10.0
 23
2.0
 33
0.0
  0
ENDBLK
  8
0
  0
BLOCK
  8
0
  2
*U5
 70
     1
 10
0.0
 20
0.0
 30
0.0
  0
SOLID
  5
17A
  8
0
  6
CONTINUOUS
 62
     7
 10
409.9999999999999
 20
0.0
 30
0.0
 11
409.9999999999999
 21
2.0
 31
0.0
 12
418.0
 22
0.0
 32
0.0
 13
418.0
 23
0.0
 33
0.0
  0
SOLID
  5
17B
  8
0
  6
CONTINUOUS
 62
     7
 10
418.0
 20
0.0
 30
0.0
 11
409.9999999999999
 21
2.0
 31
0.0
 12
418.0
 22
2.0
 32
0.0
 13
418.0
 23
2.0
 33
0.0
  0
SOLID
  5
17C
  8
0
  6
CONTINUOUS
 62
     7
 10
418.0
 20
0.0
 30
0.0
 11
418.0
 21
10.0
 31
0.0
 12
420.0
 22
0.0
 32
0.0
 13
420.0
 23
0.0
 33
0.0
  0
SOLID
  5
17D
  8
0
  6
CONTINUOUS
 62
     7
 10
420.0
 20
0.0
 30
0.0
 11
418.0
 21
10.0
 31
0.0
 12
420.0
 22
10.0
 32
0.0
 13
420.0
 23
10.0
 33
0.0
  0
ENDBLK
  8
0
  0
BLOCK
  8
0
  2
*U6
 70
     1
 10
0.0
 20
0.0
 30
0.0
  0
SOLID
  5
17F
  8
0
  6
CONTINUOUS
 62
     7
 10
409.9999999999999
 20
295.0
 30
0.0
 11
409.9999999999999
 21
297.0
 31
0.0
 12
418.0
 22
295.0
 32
0.0
 13
418.0
 23
295.0
 33
0.0
  0
SOLID
  5
180
  8
0
  6
CONTINUOUS
 62
     7
 10
418.0
 20
295.0
 30
0.0
 11
409.9999999999999
 21
297.0
 31
0.0
 12
418.0
 22
297.0
 32
0.0
 13
418.0
 23
297.0
 33
0.0
  0
SOLID
  5
181
  8
0
  6
CONTINUOUS
 62
     7
 10
418.0
 20
286.9999999999999
 30
0.0
 11
418.0
 21
297.0
 31
0.0
 12
420.0
 22
286.9999999999999
 32
0.0
 13
420.0
 23
286.9999999999999
 33
0.0
  0
SOLID
  5
182
  8
0
  6
CONTINUOUS
 62
     7
 10
420.0
 20
286.9999999999999
 30
0.0
 11
418.0
 21
297.0
 31
0.0
 12
420.0
 22
297.0
 32
0.0
 13
420.0
 23
297.0
 33
0.0
  0
ENDBLK
  8
0
  0
BLOCK
  8
0
  2
*U7
 70
     1
 10
0.0
 20
0.0
 30
0.0
  0
SOLID
  5
184
  8
0
  6
CONTINUOUS
 62
     7
 10
0.0
 20
286.9999999999999
 30
0.0
 11
0.0
 21
297.0
 31
0.0
 12
2.0
 22
286.9999999999999
 32
0.0
 13
2.0
 23
286.9999999999999
 33
0.0
  0
SOLID
  5
185
  8
0
  6
CONTINUOUS
 62
     7
 10
2.0
 20
286.9999999999999
 30
0.0
 11
0.0
 21
297.0
 31
0.0
 12
2.0
 22
297.0
 32
0.0
 13
2.0
 23
297.0
 33
0.0
  0
SOLID
  5
186
  8
0
  6
CONTINUOUS
 62
     7
 10
2.0
 20
295.0
 30
0.0
 11
2.0
 21
297.0
 31
0.0
 12
10.0
 22
295.0
 32
0.0
 13
10.0
 23
295.0
 33
0.0
  0
SOLID
  5
187
  8
0
  6
CONTINUOUS
 62
     7
 10
10.0
 20
295.0
 30
0.0
 11
2.0
 21
297.0
 31
0.0
 12
10.0
 22
297.0
 32
0.0
 13
10.0
 23
297.0
 33
0.0
  0
ENDBLK
  8
0
  0
ENDSEC
  0
SECTION
  2
ENTITIES
  0
LINE
  5
70
  8
0
  6
CONTINUOUS
 62
     7
 10
967.1787440475201
 20
95.62234693484513
 30
0.0
 11
972.0186739613999
 21
92.56554909450003
 31
0.0
  0
ARC
  5
71
  8
0
  6
CONTINUOUS
 62
     7
 10
972.5186739613999
 20
104.0772359651549
 30
0.0
 40
10.0
 50
210.0
 51
237.7243556854228
  0
LINE
  5
72
  8
0
  6
CONTINUOUS
 62
     7
 10
999.1789279992445
 20
155.9261201939916
 30
0.0
 11
1000.5186739614
 21
153.6056121183028
 31
0.0
  0
ARC
  5
73
  8
0
  6
CONTINUOUS
 62
     7
 10
990.5186739614
 20
104.0772359651549
 30
0.0
 40
10.0
 50
302.2756443145773
 51
330.0000000000005
  0
LINE
  5
74
  8
0
  6
CONTINUOUS
 62
     7
 10
1000.5186739614
 20
101.3977440408436
 30
0.0
 11
1000.5186739614
 21
153.6056121183028
 31
0.0
  0
ARC
  5
75
  8
0
  6
CONTINUOUS
 62
     7
 10
972.5186739613999
 20
150.9261201939915
 30
0.0
 40
10.0
 50
116.7436839504039
 51
149.9999999999999
  0
LINE
  5
76
  8
0
  6
CONTINUOUS
 62
     7
 10
995.8586038752798
 20
95.62234693484513
 30
0.0
 11
991.0186739613999
 21
92.56554909450003
 31
0.0
  0
LINE
  5
77
  8
0
  6
CONTINUOUS
 62
     7
 10
962.5186739613998
 20
101.3977440408436
 30
0.0
 11
962.5186739613998
 21
153.6056121183028
 31
0.0
  0
LINE
  5
78
  8
0
  6
CONTINUOUS
 62
     7
 10
999.1789279992445
 20
99.07723596515487
 30
0.0
 11
1000.5186739614
 21
101.3977440408436
 31
0.0
  0
LINE
  5
79
  8
1
  6
CONTINUOUS
 62
     7
 10
963.5186739613358
 20
155.3376629257608
 30
0.0
 11
963.518673962465
 21
99.66569323143007
 31
0.0
  0
ARC
  5
7A
  8
0
  6
CONTINUOUS
 62
     7
 10
981.5186739614
 20
133.0655490945
 30
0.0
 40
29.9999999999998
 50
63.25631604959668
 51
116.7436839504037
  0
LINE
  5
7B
  8
0
  6
CONTINUOUS
 62
     7
 10
963.8584199235554
 20
155.9261201939915
 30
0.0
 11
962.5186739613998
 21
153.6056121183028
 31
0.0
  0
ARC
  5
7C
  8
0
  6
CONTINUOUS
 62
     7
 10
990.5186739614
 20
150.9261201939916
 30
0.0
 40
10.0
 50
29.99999999999966
 51
63.25631604959563
  0
LINE
  5
7D
  8
1
  6
CONTINUOUS
 62
     7
 10
997.0186739617
 20
96.47789388862608
 30
0.0
 11
997.0186739617
 21
158.5254622705203
 31
0.0
  0
LINE
  5
7E
  8
1
  6
CONTINUOUS
 62
     7
 10
999.5186739607828
 20
155.3376629269408
 30
0.0
 11
999.5186739728254
 21
99.66569325306392
 31
0.0
  0
LINE
  5
7F
  8
1
  6
CONTINUOUS
 62
     7
 10
966.0186739611
 20
96.47789388862599
 30
0.0
 11
966.0186739611
 21
158.5254622705204
 31
0.0
  0
LINE
  5
80
  8
1
  6
CONTINUOUS
 62
     7
 10
1081.7927506744
 20
153.0655490945
 30
0.0
 11
1080.7927506743
 21
152.5655490945
 31
0.0
  0
LINE
  5
81
  8
0
  6
CONTINUOUS
 62
     7
 10
963.8584199235554
 20
99.07723596515487
 30
0.0
 11
962.5186739613998
 21
101.3977440408436
 31
0.0
  0
ARC
  5
82
  8
1
  6
CONTINUOUS
 62
     7
 10
966.5186739614
 20
80.5655490945
 30
0.0
 40
1.0
 50
180.0
 51
270.0
  0
LINE
  5
83
  8
1
  6
CONTINUOUS
 62
     7
 10
966.5186739614
 20
79.5655490945
 30
0.0
 11
996.5186739614
 21
79.5655490945
 31
0.0
  0
ARC
  5
84
  8
1
  6
CONTINUOUS
 62
     7
 10
996.5186739614
 20
80.5655490945
 30
0.0
 40
1.0
 50
270.0
 51
0.0
  0
LINE
  5
85
  8
1
  6
CONTINUOUS
 62
     7
 10
1061.7927506744
 20
161.1081116787
 30
0.0
 11
1061.7927506744
 21
150.0229865102
 31
0.0
  0
LINE
  5
86
  8
1
  6
CONTINUOUS
 62
     7
 10
1061.7927506744
 20
150.0229865102
 30
0.0
 11
1057.4907514146
 21
150.0229865102
 31
0.0
  0
LINE
  5
87
  8
1
  6
CONTINUOUS
 62
     7
 10
1057.4907514146
 20
150.0229865102
 30
0.0
 11
1057.2881317244
 21
150.3739341082
 31
0.0
  0
ARC
  5
88
  8
1
  6
CONTINUOUS
 62
     7
 10
1059.1975048469
 20
151.4763111945
 30
0.0
 40
2.2047541725
 50
143.2889572925
 51
210.0000000002
  0
LINE
  5
89
  8
1
  6
CONTINUOUS
 62
     7
 10
1057.430040629
 20
152.7942684016
 30
0.0
 11
1061.7927506744
 21
152.7942684016
 31
0.0
  0
LINE
  5
8A
  8
1
  6
CONTINUOUS
 62
     7
 10
1061.7927506744
 20
161.1081116787
 30
0.0
 11
1057.4907514146
 21
161.1081116787
 31
0.0
  0
LINE
  5
8B
  8
1
  6
CONTINUOUS
 62
     7
 10
1057.4907514146
 20
161.1081116787
 30
0.0
 11
1057.2881317244
 21
160.7571640807
 31
0.0
  0
ARC
  5
8C
  8
1
  6
CONTINUOUS
 62
     7
 10
1059.1975048469
 20
159.6547869944
 30
0.0
 40
2.2047541725
 50
149.9999999999
 51
216.7110427075
  0
LINE
  5
8D
  8
1
  6
CONTINUOUS
 62
     7
 10
1057.430040629
 20
158.3368297874
 30
0.0
 11
1061.7927506744
 21
158.3368297874
 31
0.0
  0
LINE
  5
8E
  8
1
  6
CONTINUOUS
 62
     7
 10
1056.9927506744
 20
151.4763111945
 30
0.0
 11
1056.9927506744
 21
159.6547869944
 31
0.0
  0
ARC
  5
8F
  8
1
  6
CONTINUOUS
 62
     7
 10
1065.9927506744
 20
155.5655490945
 30
0.0
 40
9.0
 50
162.0660707094
 51
197.9339292906
  0
INSERT
  5
91
  8
0
 62
     7
  2
D_FRAME_DRAWING_21
 10
0.0
 20
0.0
 30
0.0
  0
TEXT
  5
DB
  8
1
  6
CONTINUOUS
 62
     7
 10
1080.149612975467
 20
63.08243063636364
 30
0.0
 40
3.0
  1
ＤＣＦ－４０Ｆ
 41
0.873927
 51
14.999825
  0
ARC
  5
DC
  8
1
  6
CONTINUOUS
 62
     7
 10
1064.2927506744
 20
150.5655490945
 30
0.0
 40
0.5
 50
0.0
 51
90.0
  0
LINE
  5
DD
  8
1
  6
CONTINUOUS
 62
     7
 10
997.5186739614
 20
85.5655490945
 30
0.0
 11
997.5186739614
 21
80.5655490945
 31
0.0
  0
LINE
  5
DE
  8
1
  6
CONTINUOUS
 62
     7
 10
965.5186739614
 20
85.5655490945
 30
0.0
 11
965.5186739614
 21
80.5655490945
 31
0.0
  0
ARC
  5
DF
  8
1
  6
CONTINUOUS
 62
     7
 10
1064.2927506744
 20
160.5655490945
 30
0.0
 40
0.5
 50
270.0
 51
0.0
  0
ARC
  5
E0
  8
1
  6
CONTINUOUS
 62
     7
 10
992.0186739613
 20
86.5655490945
 30
0.0
 40
1.0
 50
180.0
 51
283.1840265886
  0
LINE
  5
E1
  8
1
  6
CONTINUOUS
 62
     7
 10
1063.7927495142
 20
148.9695616938
 30
0.0
 11
1063.7927506746
 21
151.0655490945
 31
0.0
  0
LINE
  5
E2
  8
1
  6
CENTER
 62
     5
 10
981.5186739614
 20
167.3131837857
 30
0.0
 11
981.5186739614
 21
72.0655490945
 31
0.0
  0
LINE
  5
E4
  8
1
  6
CONTINUOUS
 62
     7
 10
1061.7927506744
 20
160.0655490945
 30
0.0
 11
1061.7927506744
 21
151.0655490945
 31
0.0
  0
LINE
  5
E5
  8
1
  6
CONTINUOUS
 62
     7
 10
1039.2927506768
 20
98.5655490945
 30
0.0
 11
1039.2927506768
 21
119.0655490948
 31
0.0
  0
LINE
  5
E6
  8
1
  6
CONTINUOUS
 62
     7
 10
1040.2927707276
 20
119.1024740132
 30
0.0
 11
1040.292751869
 21
79.5655490945
 31
0.0
  0
ARC
  5
E7
  8
1
  6
CONTINUOUS
 62
     7
 10
1063.2927506744
 20
148.9695622031
 30
0.0
 40
3.0
 50
281.3452953903999
 51
0.0
  0
ARC
  5
E8
  8
1
  6
CONTINUOUS
 62
     7
 10
1063.2927495142
 20
148.9695619706
 30
0.0
 40
0.5
 50
281.3452976131999
 51
0.0
  0
LINE
  5
E9
  8
1
  6
CONTINUOUS
 62
     7
 10
1072.2927506744
 20
152.5655490945
 30
0.0
 11
1066.2927506744
 21
152.5655490945
 31
0.0
  0
LINE
  5
EA
  8
1
  6
CONTINUOUS
 62
     7
 10
1072.2927506744
 20
158.5655490945
 30
0.0
 11
1066.2927506744
 21
158.5655490945
 31
0.0
  0
LINE
  5
EB
  8
1
  6
CONTINUOUS
 62
     7
 10
1039.2927506768
 20
98.5655490945
 30
0.0
 11
1040.2927598773
 21
96.3550227789
 31
0.0
  0
ARC
  5
EC
  8
1
  6
CONTINUOUS
 62
     7
 10
971.0186739614
 20
86.5655490945
 30
0.0
 40
1.0
 50
256.8159734115
 51
0.0
  0
LINE
  5
ED
  8
1
  6
CONTINUOUS
 62
     7
 10
1076.7927506744
 20
160.0655490945
 30
0.0
 11
1076.7927506744
 21
151.0655490945
 31
0.0
  0
LINE
  5
EE
  8
1
  6
CENTER
 62
     5
 10
1032.6412652164
 20
119.0655490945
 30
0.0
 11
1104.292750672
 21
119.0655490945
 31
0.0
  0
LINE
  5
EF
  8
1
  6
CONTINUOUS
 62
     7
 10
991.0186739624
 20
92.5655490945
 30
0.0
 11
991.0186739614
 21
86.5655490945
 31
0.0
  0
LINE
  5
F0
  8
1
  6
CENTER
 62
     5
 10
1059.8314288447
 20
155.5655490945
 30
0.0
 11
1078.7540725042
 21
155.5655490945
 31
0.0
  0
LINE
  5
F1
  8
1
  6
CONTINUOUS
 62
     7
 10
1066.2927506744
 20
148.9695622031
 30
0.0
 11
1066.2927506744
 21
163.0655490945
 31
0.0
  0
ARC
  5
F2
  8
1
  6
CONTINUOUS
 62
     7
 10
1069.2927506744
 20
119.0655490945
 30
0.0
 40
30.0
 50
101.3452976132
 51
180.0
  0
ARC
  5
F3
  8
1
  6
CONTINUOUS
 62
     7
 10
1063.2927506743
 20
148.9695622034
 30
0.0
 40
1.5
 50
281.3452953903999
 51
0.0
  0
LINE
  5
F4
  8
1
  6
CONTINUOUS
 62
     7
 10
1063.0824253237
 20
151.0655490945
 30
0.0
 11
1063.0824253237
 21
151.0650283898
 31
0.0
  0
LINE
  5
F5
  8
1
  6
CONTINUOUS
 62
     7
 10
1040.2927518006
 20
79.5655490945
 30
0.0
 11
1041.7927506765
 21
79.5655490945
 31
0.0
  0
LINE
  5
F6
  8
1
  6
CENTER
 62
     5
 10
1069.2927506744
 20
167.3131837857
 30
0.0
 11
1069.2927506744
 21
72.0655490945
 31
0.0
  0
ARC
  5
F7
  8
1
  6
CONTINUOUS
 62
     7
 10
1069.2927506744
 20
119.0655490945
 30
0.0
 40
27.5
 50
0.0
 51
78.6547046096
  0
LINE
  5
F8
  8
1
  6
CONTINUOUS
 62
     7
 10
1064.2927506744
 20
151.0655490945
 30
0.0
 11
1061.7927506744
 21
151.0655490945
 31
0.0
  0
ARC
  5
F9
  8
1
  6
CONTINUOUS
 62
     7
 10
1069.2927506744
 20
119.0655490945
 30
0.0
 40
27.5
 50
101.3452953904
 51
180.0
  0
LINE
  5
FA
  8
1
  6
CENTER
 62
     5
 10
975.4961309252
 20
155.5655490945
 30
0.0
 11
988.1263976485
 21
155.5655490945
 31
0.0
  0
LINE
  5
FB
  8
1
  6
CONTINUOUS
 62
     7
 10
1064.2927506744
 20
160.0655490945
 30
0.0
 11
1061.7927506744
 21
160.0655490945
 31
0.0
  0
LINE
  5
FC
  8
1
  6
CONTINUOUS
 62
     7
 10
962.5186739614
 20
148.0655490945
 30
0.0
 11
1000.5186739614
 21
148.0655490945
 31
0.0
  0
LINE
  5
FD
  8
1
  6
CONTINUOUS
 62
     7
 10
1041.7927506744
 20
119.0655490945
 30
0.0
 11
1041.7927506804
 21
79.5655490945
 31
0.0
  0
ARC
  5
FE
  8
1
  6
CONTINUOUS
 62
     7
 10
1069.2927506744
 20
119.0655490945
 30
0.0
 40
29.0
 50
101.3452953904
 51
180.0
  0
LINE
  5
FF
  8
1
  6
CONTINUOUS
 62
     7
 10
1064.7927506744
 20
148.9695622034
 30
0.0
 11
1064.7927506744
 21
163.0655490945
 31
0.0
  0
LINE
  5
100
  8
1
  6
CONTINUOUS
 62
     7
 10
992.2467533999
 20
85.5919065678
 30
0.0
 11
996.2905945229
 21
86.5391916211
 31
0.0
  0
ARC
  5
101
  8
1
  6
CONTINUOUS
 62
     7
 10
996.5186739614
 20
85.5655490945
 30
0.0
 40
1.0
 50
0.0
 51
103.1840265885
  0
LINE
  5
102
  8
1
  6
CONTINUOUS
 62
     7
 10
970.7905945228
 20
85.5919065678
 30
0.0
 11
966.7467533998
 21
86.5391916211
 31
0.0
  0
ARC
  5
103
  8
1
  6
CONTINUOUS
 62
     7
 10
966.5186739614
 20
85.5655490945
 30
0.0
 40
1.0
 50
76.8159734115
 51
180.0
  0
LINE
  5
104
  8
1
  6
CONTINUOUS
 62
     7
 10
1064.7927506744
 20
163.0655490945
 30
0.0
 11
1066.2927506744
 21
163.0655490945
 31
0.0
  0
LINE
  5
105
  8
1
  6
CONTINUOUS
 62
     7
 10
972.0186739604
 20
92.5655490945
 30
0.0
 11
972.0186739614
 21
86.5655490945
 31
0.0
  0
LINE
  5
106
  8
1
  6
CONTINUOUS
 62
     7
 10
959.5186739614
 20
83.7726558815
 30
0.0
 11
959.5186739614
 21
79.5655491003
 31
0.0
  0
ARC
  5
107
  8
1
  6
CONTINUOUS
 62
     7
 10
960.0287244677
 20
84.5655491003
 30
0.0
 40
0.2
 50
315.0000000005
 51
45.00000000009999
  0
LINE
  5
108
  8
1
  6
CONTINUOUS
 62
     7
 10
982.4186739614
 20
159.5655490945
 30
0.0
 11
982.4186739614
 21
157.6655490943
 31
0.0
  0
LINE
  5
109
  8
1
  6
CONTINUOUS
 62
     7
 10
1002.8672020988
 20
84.4241277441
 30
0.0
 11
1003.5186739614
 21
83.7726558815
 31
0.0
  0
ARC
  5
10A
  8
1
  6
CONTINUOUS
 62
     7
 10
1074.2927506744
 20
150.5655490945
 30
0.0
 40
0.5
 50
90.0
 51
180.0
  0
LINE
  5
10B
  8
1
  6
CONTINUOUS
 62
     7
 10
1050.2927506744
 20
85.3584423191
 30
0.0
 11
1088.2927506744
 21
85.3584423191
 31
0.0
  0
LINE
  5
10C
  8
1
  6
CONTINUOUS
 62
     7
 10
1073.7927506744
 20
148.9695622034
 30
0.0
 11
1073.7927506744
 21
163.0655490945
 31
0.0
  0
LINE
  5
10D
  8
1
  6
CONTINUOUS
 62
     7
 10
1088.2927506744
 20
84.5655491003
 30
0.0
 11
1050.2927506744
 21
84.5655491003
 31
0.0
  0
LINE
  5
10E
  8
1
  6
CONTINUOUS
 62
     7
 10
1098.2927495483
 20
79.5655490945
 30
0.0
 11
1096.7927506724
 21
79.5655490945
 31
0.0
  0
ARC
  5
10F
  8
1
  6
CONTINUOUS
 62
     7
 10
1001.5186739614
 20
89.5655491003
 30
0.0
 40
2.0
 50
0.0
 51
90.0
  0
LINE
  5
110
  8
1
  6
CONTINUOUS
 62
     7
 10
1073.7927506744
 20
163.0655490945
 30
0.0
 11
1072.2927506744
 21
163.0655490945
 31
0.0
  0
LINE
  5
111
  8
1
  6
CONTINUOUS
 62
     7
 10
1074.7927518346
 20
148.9695616938
 30
0.0
 11
1074.7927506742
 21
151.0655490945
 31
0.0
  0
LINE
  5
112
  8
1
  6
CONTINUOUS
 62
     7
 10
1002.8672020988
 20
84.7069704565
 30
0.0
 11
1003.5186739614
 21
85.3584423191
 31
0.0
  0
ARC
  5
113
  8
1
  6
CONTINUOUS
 62
     7
 10
1075.2927506745
 20
148.9695622034
 30
0.0
 40
1.5
 50
180.0
 51
258.6547046096
  0
LINE
  5
114
  8
1
  6
CONTINUOUS
 62
     7
 10
1050.2927506744
 20
83.7726558814
 30
0.0
 11
1088.2927506744
 21
83.7726558814
 31
0.0
  0
LINE
  5
115
  8
1
  6
CONTINUOUS
 62
     7
 10
1003.5186739614
 20
83.7726558815
 30
0.0
 11
1003.5186739614
 21
79.5655491003
 31
0.0
  0
LINE
  5
116
  8
1
  6
CONTINUOUS
 62
     7
 10
972.0186740229
 20
91.5655491003
 30
0.0
 11
961.5186739614
 21
91.5655491003
 31
0.0
  0
LINE
  5
117
  8
1
  6
CONTINUOUS
 62
     7
 10
1001.6651205708
 20
84.9191024909
 30
0.0
 11
1002.5186739614
 21
85.7726558815
 31
0.0
  0
LINE
  5
118
  8
1
  6
CONTINUOUS
 62
     7
 10
1098.2927306213
 20
119.1024740132
 30
0.0
 11
1098.2927494799
 21
79.5655490945
 31
0.0
  0
ARC
  5
119
  8
1
  6
CONTINUOUS
 62
     7
 10
1003.008623455
 20
84.5655491003
 30
0.0
 40
0.2
 50
134.9999999999
 51
224.9999999995
  0
LINE
  5
11A
  8
1
  6
CONTINUOUS
 62
     7
 10
1001.5186739614
 20
91.5655491003
 30
0.0
 11
991.0186738999
 21
91.5655491003
 31
0.0
  0
LINE
  5
11B
  8
1
  6
CONTINUOUS
 62
     7
 10
960.5186739614
 20
83.3584423191
 30
0.0
 11
960.5186739614
 21
79.5655491003
 31
0.0
  0
LINE
  5
11C
  8
1
  6
CONTINUOUS
 62
     7
 10
961.372227352
 20
84.9191024909
 30
0.0
 11
960.5186739614
 21
85.7726558815
 31
0.0
  0
LINE
  5
11D
  8
1
  6
CONTINUOUS
 62
     7
 10
981.5186739614
 20
161.8702140341
 30
0.0
 11
976.0586739614
 21
158.7178815643
 31
0.0
  0
LINE
  5
11E
  8
1
  6
CONTINUOUS
 62
     7
 10
980.6186739614
 20
159.5655490945
 30
0.0
 11
982.4186739614
 21
159.5655490945
 31
0.0
  0
LINE
  5
11F
  8
1
  6
CONTINUOUS
 62
     7
 10
1099.292750672
 20
98.5655490945
 30
0.0
 11
1099.292750672
 21
119.0655490948
 31
0.0
  0
LINE
  5
120
  8
1
  6
CONTINUOUS
 62
     7
 10
1074.2927506744
 20
160.0655490945
 30
0.0
 11
1076.7927506744
 21
160.0655490945
 31
0.0
  0
LINE
  5
121
  8
1
  6
CONTINUOUS
 62
     7
 10
1050.2927506744
 20
91.5655491003
 30
0.0
 11
1050.2927506744
 21
79.5655491003
 31
0.0
  0
LINE
  5
122
  8
1
  6
CONTINUOUS
 62
     7
 10
960.170145824
 20
84.7069704565
 30
0.0
 11
959.5186739614
 21
85.3584423191
 31
0.0
  0
LINE
  5
123
  8
1
  6
CONTINUOUS
 62
     7
 10
1001.6651205708
 20
84.2119957097
 30
0.0
 11
1002.5186739614
 21
83.3584423191
 31
0.0
  0
ARC
  5
124
  8
1
  6
CONTINUOUS
 62
     7
 10
1069.2927506744
 20
119.0655490945
 30
0.0
 40
30.0
 50
0.0
 51
78.65470238679998
  0
LINE
  5
125
  8
1
  6
CONTINUOUS
 62
     7
 10
961.372227352
 20
84.2119957097
 30
0.0
 11
960.5186739614
 21
83.3584423191
 31
0.0
  0
LINE
  5
126
  8
1
  6
CONTINUOUS
 62
     7
 10
960.5186739614
 20
89.5655491003
 30
0.0
 11
960.5186739614
 21
85.7726558815
 31
0.0
  0
LINE
  5
127
  8
1
  6
CONTINUOUS
 62
     7
 10
1072.2927506744
 20
148.9695622031
 30
0.0
 11
1072.2927506744
 21
163.0655490945
 31
0.0
  0
LINE
  5
128
  8
1
  6
CONTINUOUS
 62
     7
 10
1050.2927506744
 20
79.5655491003
 30
0.0
 11
1088.2927506744
 21
79.5655491003
 31
0.0
  0
ARC
  5
129
  8
1
  6
CONTINUOUS
 62
     7
 10
1075.2927506744
 20
148.9695622031
 30
0.0
 40
3.0
 50
180.0
 51
258.6547046096
  0
LINE
  5
12A
  8
1
  6
CONTINUOUS
 62
     7
 10
1088.2927506744
 20
91.5655491003
 30
0.0
 11
1050.2927506744
 21
91.5655491003
 31
0.0
  0
LINE
  5
12B
  8
1
  6
CONTINUOUS
 62
     7
 10
1001.5186739614
 20
90.5655491003
 30
0.0
 11
991.0186738999
 21
90.5655491003
 31
0.0
  0
LINE
  5
12C
  8
1
  6
CONTINUOUS
 62
     7
 10
1088.2927506744
 20
91.5655491003
 30
0.0
 11
1088.2927506744
 21
79.5655491003
 31
0.0
  0
ARC
  5
12D
  8
1
  6
CONTINUOUS
 62
     7
 10
1001.5186739614
 20
89.5655491003
 30
0.0
 40
1.0
 50
0.0
 51
90.0
  0
ARC
  5
12E
  8
1
  6
CONTINUOUS
 62
     7
 10
961.5186739614
 20
89.5655491003
 30
0.0
 40
2.0
 50
90.0
 51
180.0
  0
LINE
  5
12F
  8
1
  6
CONTINUOUS
 62
     7
 10
960.170145824
 20
84.4241277441
 30
0.0
 11
959.5186739614
 21
83.7726558815
 31
0.0
  0
ARC
  5
130
  8
1
  6
CONTINUOUS
 62
     7
 10
961.0186739614
 20
84.5655491003
 30
0.0
 40
0.5
 50
314.9999999999
 51
45.00000000009999
  0
LINE
  5
131
  8
1
  6
CONTINUOUS
 62
     7
 10
1096.7927506744
 20
119.0655490945
 30
0.0
 11
1096.7927506687
 21
79.5655490945
 31
0.0
  0
ARC
  5
132
  8
1
  6
CONTINUOUS
 62
     7
 10
1075.2927518346
 20
148.9695619706
 30
0.0
 40
0.5
 50
180.0000317194
 51
258.6547023868
  0
LINE
  5
133
  8
1
  6
CONTINUOUS
 62
     7
 10
1002.5186739614
 20
83.3584423191
 30
0.0
 11
1002.5186739614
 21
79.5655491003
 31
0.0
  0
LINE
  5
134
  8
1
  6
CONTINUOUS
 62
     7
 10
976.0586739614
 20
158.7178815643
 30
0.0
 11
976.0586739614
 21
152.4132166247
 31
0.0
  0
ARC
  5
135
  8
1
  6
CONTINUOUS
 62
     7
 10
961.5186739614
 20
89.5655491003
 30
0.0
 40
1.0
 50
90.0
 51
180.0
  0
LINE
  5
136
  8
1
  6
CONTINUOUS
 62
     7
 10
1002.5186739614
 20
89.5655491003
 30
0.0
 11
1002.5186739614
 21
85.7726558815
 31
0.0
  0
LINE
  5
137
  8
1
  6
CONTINUOUS
 62
     7
 10
959.5186739614
 20
79.5655491003
 30
0.0
 11
960.5186739614
 21
79.5655491003
 31
0.0
  0
LINE
  5
138
  8
1
  6
CONTINUOUS
 62
     7
 10
986.9786739614
 20
152.4132166247
 30
0.0
 11
986.9786739614
 21
158.7178815643
 31
0.0
  0
CIRCLE
  5
139
  8
1
  6
CONTINUOUS
 62
     7
 10
981.5186739614
 20
155.5655490945
 30
0.0
 40
5.1
  0
LINE
  5
13A
  8
1
  6
CONTINUOUS
 62
     7
 10
1075.5030760252
 20
151.0655490945
 30
0.0
 11
1075.5030760252
 21
151.0650283898
 31
0.0
  0
LINE
  5
13B
  8
1
  6
CONTINUOUS
 62
     7
 10
1074.2927506744
 20
151.0655490945
 30
0.0
 11
1076.7927506744
 21
151.0655490945
 31
0.0
  0
LINE
  5
13C
  8
1
  6
CONTINUOUS
 62
     7
 10
1003.5186739614
 20
79.5655491003
 30
0.0
 11
1002.5186739614
 21
79.5655491003
 31
0.0
  0
LINE
  5
13D
  8
1
  6
CONTINUOUS
 62
     7
 10
980.6186739614
 20
157.6655490945
 30
0.0
 11
980.6186739614
 21
159.5655490945
 31
0.0
  0
LINE
  5
13E
  8
1
  6
CONTINUOUS
 62
     7
 10
1003.5186739614
 20
89.5655491003
 30
0.0
 11
1003.5186739614
 21
85.3584423191
 31
0.0
  0
LINE
  5
13F
  8
1
  6
CONTINUOUS
 62
     7
 10
972.0186740229
 20
90.5655491003
 30
0.0
 11
961.5186739614
 21
90.5655491003
 31
0.0
  0
ARC
  5
140
  8
1
  6
CONTINUOUS
 62
     7
 10
1069.2927506744
 20
119.0655490945
 30
0.0
 40
29.0
 50
0.0
 51
78.6547046096
  0
LINE
  5
141
  8
1
  6
CONTINUOUS
 62
     7
 10
986.9786739614
 20
158.7178815643
 30
0.0
 11
981.5186739614
 21
161.8702140341
 31
0.0
  0
ARC
  5
142
  8
1
  6
CONTINUOUS
 62
     7
 10
1074.2927506744
 20
160.5655490945
 30
0.0
 40
0.5
 50
180.0
 51
270.0
  0
LINE
  5
143
  8
1
  6
CONTINUOUS
 62
     7
 10
1099.292750672
 20
98.5655490945
 30
0.0
 11
1098.2927414715
 21
96.3550227789
 31
0.0
  0
LINE
  5
144
  8
1
  6
CONTINUOUS
 62
     7
 10
959.5186739614
 20
89.5655491003
 30
0.0
 11
959.5186739614
 21
85.3584423191
 31
0.0
  0
ARC
  5
145
  8
1
  6
CONTINUOUS
 62
     7
 10
1002.0186739614
 20
84.5655491003
 30
0.0
 40
0.5
 50
135.0
 51
225.0
  0
LINE
  5
146
  8
1
  6
CONTINUOUS
 62
     7
 10
979.4186739614
 20
154.6655490945
 30
0.0
 11
977.5186739614
 21
154.6655490945
 31
0.0
  0
ARC
  5
147
  8
1
  6
CONTINUOUS
 62
     7
 10
979.4186739614
 20
153.4655490943
 30
0.0
 40
1.2
 50
0.0
 51
90.0
  0
LINE
  5
148
  8
1
  6
CONTINUOUS
 62
     7
 10
985.5186739614
 20
156.4655490945
 30
0.0
 11
985.5186739614
 21
154.6655490945
 31
0.0
  0
LINE
  5
149
  8
1
  6
CONTINUOUS
 62
     7
 10
983.6186739614
 20
156.4655490945
 30
0.0
 11
985.5186739614
 21
156.4655490945
 31
0.0
  0
LINE
  5
14A
  8
1
  6
CONTINUOUS
 62
     7
 10
985.5186739614
 20
154.6655490945
 30
0.0
 11
983.6186739614
 21
154.6655490945
 31
0.0
  0
ARC
  5
14B
  8
1
  6
CONTINUOUS
 62
     7
 10
983.6186739614
 20
153.4655490945
 30
0.0
 40
1.2
 50
90.0
 51
180.0
  0
LINE
  5
14C
  8
1
  6
CONTINUOUS
 62
     7
 10
1081.7927506744
 20
153.0655490945
 30
0.0
 11
1076.7927506744
 21
153.0655490945
 31
0.0
  0
LINE
  5
14D
  8
1
  6
CONTINUOUS
 62
     7
 10
980.6186739614
 20
151.5655490945
 30
0.0
 11
980.6186739614
 21
153.4655490943
 31
0.0
  0
LINE
  5
14E
  8
1
  6
CONTINUOUS
 62
     7
 10
1072.2927506744
 20
153.0655503004
 30
0.0
 11
1066.2927506744
 21
153.0655431977
 31
0.0
  0
LINE
  5
14F
  8
1
  6
CONTINUOUS
 62
     7
 10
1066.2927506744
 20
158.0655557664
 30
0.0
 11
1072.2927506744
 21
158.0655477638
 31
0.0
  0
LINE
  5
150
  8
1
  6
CONTINUOUS
 62
     7
 10
1076.7927506744
 20
158.0655490945
 30
0.0
 11
1081.7927506744
 21
158.0655490945
 31
0.0
  0
LINE
  5
151
  8
1
  6
CONTINUOUS
 62
     7
 10
1081.7927506746
 20
153.0655490945
 30
0.0
 11
1081.7927506744
 21
158.0655490944
 31
0.0
  0
LINE
  5
152
  8
1
  6
CONTINUOUS
 62
     7
 10
1080.7927506743
 20
158.5655490944
 30
0.0
 11
1081.7927506744
 21
158.0655490945
 31
0.0
  0
ARC
  5
153
  8
1
  6
CONTINUOUS
 62
     7
 10
979.4186739614
 20
157.6655490945
 30
0.0
 40
1.2
 50
270.0
 51
0.0
  0
LINE
  5
154
  8
1
  6
CONTINUOUS
 62
     7
 10
982.4186739614
 20
151.5655490945
 30
0.0
 11
980.6186739614
 21
151.5655490945
 31
0.0
  0
LINE
  5
155
  8
1
  6
CONTINUOUS
 62
     7
 10
1076.7927506744
 20
158.5655490945
 30
0.0
 11
1080.7927506744
 21
158.5655490945
 31
0.0
  0
LINE
  5
156
  8
1
  6
CONTINUOUS
 62
     7
 10
1080.7927506744
 20
158.5655490945
 30
0.0
 11
1080.7927506744
 21
152.5655490945
 31
0.0
  0
LINE
  5
157
  8
1
  6
CONTINUOUS
 62
     7
 10
977.5186739614
 20
156.4655490945
 30
0.0
 11
979.4186739614
 21
156.4655490945
 31
0.0
  0
LINE
  5
158
  8
1
  6
CONTINUOUS
 62
     7
 10
1076.7927506744
 20
152.5655490945
 30
0.0
 11
1080.7927506744
 21
152.5655490945
 31
0.0
  0
LINE
  5
159
  8
1
  6
CONTINUOUS
 62
     7
 10
986.9786739614
 20
152.4132166247
 30
0.0
 11
981.5186739614
 21
149.260884155
 31
0.0
  0
LINE
  5
15A
  8
1
  6
CONTINUOUS
 62
     7
 10
977.5186739614
 20
154.6655490945
 30
0.0
 11
977.5186739614
 21
156.4655490945
 31
0.0
  0
LINE
  5
15B
  8
1
  6
CONTINUOUS
 62
     7
 10
981.5186739614
 20
149.260884155
 30
0.0
 11
976.0586739614
 21
152.4132166247
 31
0.0
  0
ARC
  5
15C
  8
1
  6
CONTINUOUS
 62
     7
 10
983.6186739614
 20
157.6655490943
 30
0.0
 40
1.2
 50
180.0
 51
270.0
  0
LINE
  5
15D
  8
1
  6
CONTINUOUS
 62
     7
 10
982.4186739614
 20
153.4655490945
 30
0.0
 11
982.4186739614
 21
151.5655490945
 31
0.0
  0
ENDSEC
  0
EOF
