  0
SECTION
  2
HEADER
  9
$ACADVER
  1
AC1006
  9
$DWGCODEPAGE
  3
ansi_932
  9
$INSBASE
 10
0.0
 20
0.0
 30
0.0
  9
$EXTMIN
 10
0.0
 20
0.0
  9
$EXTMAX
 10
4550.9041582871
 20
398.8012264070994
  9
$LIMMIN
 10
0.0
 20
0.0
  9
$LIMMAX
 10
12.0
 20
9.0
  9
$ORTHOMODE
 70
     0
  9
$REGENMODE
 70
     1
  9
$FILLMODE
 70
     1
  9
$QTEXTMODE
 70
     0
  9
$MIRRTEXT
 70
     1
  9
$DRAGMODE
 70
     2
  9
$LTSCALE
 40
1.0
  9
$OSMODE
 70
    37
  9
$ATTMODE
 70
     1
  9
$TEXTSIZE
 40
0.2
  9
$TRACEWID
 40
0.05
  9
$TEXTSTYLE
  7
STANDARD
  9
$CLAYER
  8
0
  9
$CELTYPE
  6
BYLAYER
  9
$CECOLOR
 62
   256
  9
$DIMSCALE
 40
1.0
  9
$DIMASZ
 40
3.0
  9
$DIMEXO
 40
0.0625
  9
$DIMDLI
 40
0.38
  9
$DIMRND
 40
0.0
  9
$DIMDLE
 40
0.0
  9
$DIMEXE
 40
1.5
  9
$DIMTP
 40
0.0
  9
$DIMTM
 40
0.0
  9
$DIMTXT
 40
3.5
  9
$DIMCEN
 40
0.09
  9
$DIMTSZ
 40
0.0
  9
$DIMTOL
 70
     0
  9
$DIMLIM
 70
     0
  9
$DIMTIH
 70
     1
  9
$DIMTOH
 70
     1
  9
$DIMSE1
 70
     0
  9
$DIMSE2
 70
     0
  9
$DIMTAD
 70
     1
  9
$DIMZIN
 70
     0
  9
$DIMBLK
  1

  9
$DIMASO
 70
     1
  9
$DIMSHO
 70
     1
  9
$DIMPOST
  1

  9
$DIMAPOST
  1

  9
$DIMALT
 70
     0
  9
$DIMALTD
 70
     2
  9
$DIMALTF
 40
25.4
  9
$DIMLFAC
 40
1.0
  9
$DIMTOFL
 70
     0
  9
$DIMTVP
 40
0.0
  9
$DIMTIX
 70
     0
  9
$DIMSOXD
 70
     0
  9
$DIMSAH
 70
     0
  9
$DIMBLK1
  1

  9
$DIMBLK2
  1

  9
$LUNITS
 70
     2
  9
$LUPREC
 70
     4
  9
$SKETCHINC
 40
0.1
  9
$FILLETRAD
 40
0.5
  9
$AUNITS
 70
     0
  9
$AUPREC
 70
     0
  9
$MENU
  1
.
  9
$ELEVATION
 40
0.0
  9
$THICKNESS
 40
0.0
  9
$LIMCHECK
 70
     0
  9
$CHAMFERA
 40
0.0
  9
$CHAMFERB
 40
0.0
  9
$SKPOLY
 70
     0
  9
$TDCREATE
 40
2460286.58351272
  9
$TDUPDATE
 40
2460286.583513067
  9
$TDINDWG
 40
0.0000000116
  9
$TDUSRTIMER
 40
0.0000000116
  9
$USRTIMER
 70
     1
  9
$ANGBASE
 50
0.0
  9
$ANGDIR
 70
     0
  9
$PDMODE
 70
     0
  9
$PDSIZE
 40
0.0
  9
$PLINEWID
 40
0.0
  9
$COORDS
 70
     1
  9
$SPLFRAME
 70
     0
  9
$SPLINETYPE
 70
     6
  9
$SPLINESEGS
 70
     8
  9
$ATTDIA
 70
     0
  9
$ATTREQ
 70
     1
  9
$HANDLING
 70
     1
  9
$HANDSEED
  5
19A
  9
$SURFTAB1
 70
     6
  9
$SURFTAB2
 70
     6
  9
$SURFTYPE
 70
     6
  9
$SURFU
 70
     6
  9
$SURFV
 70
     6
  9
$UCSNAME
  2

  9
$UCSORG
 10
0.0
 20
0.0
 30
0.0
  9
$UCSXDIR
 10
1.0
 20
0.0
 30
0.0
  9
$UCSYDIR
 10
0.0
 20
1.0
 30
0.0
  9
$USERI1
 70
     0
  9
$USERI2
 70
     0
  9
$USERI3
 70
     0
  9
$USERI4
 70
     0
  9
$USERI5
 70
     0
  9
$USERR1
 40
0.0
  9
$USERR2
 40
0.0
  9
$USERR3
 40
0.0
  9
$USERR4
 40
0.0
  9
$USERR5
 40
0.0
  9
$WORLDVIEW
 70
     1
  0
ENDSEC
  0
SECTION
  2
TABLES
  0
TABLE
  2
VPORT
 70
     1
  0
VPORT
  2
*ACTIVE
 70
     0
 10
0.0
 20
0.0
 11
1.0
 21
1.0
 12
2275.45207914355
 22
199.4006132035497
 13
0.0
 23
0.0
 14
0.5
 24
0.5
 15
0.5
 25
0.5
 16
0.0
 26
0.0
 36
1.0
 17
0.0
 27
0.0
 37
0.0
 40
398.8012264070994
 41
1.6
 42
50.0
 43
0.0
 44
0.0
 50
0.0
 51
0.0
 71
     0
 72
   100
 73
     1
 74
     3
 75
     0
 76
     0
 77
     0
 78
     0
  0
ENDTAB
  0
TABLE
  2
LTYPE
 70
     2
  0
LTYPE
  2
CONTINUOUS
 70
     0
  3
Solid line
 72
    65
 73
     0
 40
0.0
  0
LTYPE
  2
CENTER
 70
     0
  3

 72
    65
 73
     0
 40
0.0
  0
ENDTAB
  0
TABLE
  2
LAYER
 70
     2
  0
LAYER
  2
0
 70
     0
 62
     7
  6
CONTINUOUS
  0
LAYER
  2
1
 70
     0
 62
     7
  6
CONTINUOUS
  0
ENDTAB
  0
TABLE
  2
STYLE
 70
     2
  0
STYLE
  2
STANDARD
 70
     0
 40
0.0
 41
1.0
 50
0.0
 71
     0
 42
0.2
  3
txt
  4

  0
STYLE
  2
ＭＳ_ゴシック
 70
     0
 40
0.0
 41
1.0
 50
0.0
 71
     0
 42
0.2
  3
ＭＳ ゴシック.shx
  4

  0
ENDTAB
  0
TABLE
  2
VIEW
 70
     0
  0
ENDTAB
  0
TABLE
  2
UCS
 70
     0
  0
ENDTAB
  0
ENDSEC
  0
SECTION
  2
BLOCKS
  0
BLOCK
  8
0
  2
D_FRAME_DRAWING_21
 70
     0
 10
0.0
 20
0.0
 30
0.0
  0
LINE
  5
119
  8
0
  6
CONTINUOUS
 62
     7
 10
0.0
 20
0.0
 30
0.0
 11
420.0
 21
0.0
 31
0.0
  0
LINE
  5
11A
  8
0
  6
CONTINUOUS
 62
     7
 10
420.0
 20
0.0
 30
0.0
 11
420.0
 21
297.0
 31
0.0
  0
LINE
  5
11B
  8
0
  6
CONTINUOUS
 62
     7
 10
420.0
 20
297.0
 30
0.0
 11
0.0
 21
297.0
 31
0.0
  0
LINE
  5
11C
  8
0
  6
CONTINUOUS
 62
     7
 10
0.0
 20
297.0
 30
0.0
 11
0.0
 21
0.0
 31
0.0
  0
LINE
  5
11D
  8
0
  6
CONTINUOUS
 62
     7
 10
10.0
 20
10.0
 30
0.0
 11
409.9999999999999
 21
10.0
 31
0.0
  0
LINE
  5
11E
  8
0
  6
CONTINUOUS
 62
     7
 10
409.9999999999999
 20
10.0
 30
0.0
 11
409.9999999999999
 21
286.9999999999999
 31
0.0
  0
LINE
  5
11F
  8
0
  6
CONTINUOUS
 62
     7
 10
409.9999999999999
 20
286.9999999999999
 30
0.0
 11
10.00000000000006
 21
286.9999999999999
 31
0.0
  0
LINE
  5
120
  8
0
  6
CONTINUOUS
 62
     7
 10
10.0
 20
286.9999999999999
 30
0.0
 11
10.0
 21
10.00000000000001
 31
0.0
  0
LINE
  5
121
  8
0
  6
CONTINUOUS
 62
     7
 10
210.0
 20
0.0
 30
0.0
 11
210.0
 21
10.0
 31
0.0
  0
LINE
  5
122
  8
0
  6
CONTINUOUS
 62
     7
 10
420.0
 20
148.5
 30
0.0
 11
409.9999999999999
 21
148.5
 31
0.0
  0
LINE
  5
123
  8
0
  6
CONTINUOUS
 62
     7
 10
210.0
 20
297.0
 30
0.0
 11
210.0
 21
286.9999999999999
 31
0.0
  0
LINE
  5
124
  8
0
  6
CONTINUOUS
 62
     7
 10
0.0
 20
148.5
 30
0.0
 11
10.0
 21
148.5
 31
0.0
  0
POLYLINE
  5
125
  8
0
  6
CONTINUOUS
 62
     7
 66
     1
 10
0.0
 20
0.0
 30
0.0
 70
     1
  0
VERTEX
  5
16B
  8
0
  6
CONTINUOUS
 62
     7
 10
11.0
 20
152.5
 30
0.0
  0
VERTEX
  5
16C
  8
0
  6
CONTINUOUS
 62
     7
 10
0.0
 20
148.5
 30
0.0
  0
VERTEX
  5
16D
  8
0
  6
CONTINUOUS
 62
     7
 10
11.0
 20
144.5
 30
0.0
  0
VERTEX
  5
16E
  8
0
  6
CONTINUOUS
 62
     7
 10
11.0
 20
152.5
 30
0.0
  0
SEQEND
  5
198
  8
0
  6
CONTINUOUS
 62
     7
  0
INSERT
  5
126
  8
0
 62
     7
  2
*U2
 10
0.0
 20
0.0
 30
0.0
  0
POLYLINE
  5
127
  8
0
  6
CONTINUOUS
 62
     7
 66
     1
 10
0.0
 20
0.0
 30
0.0
 70
     1
  0
VERTEX
  5
171
  8
0
  6
CONTINUOUS
 62
     7
 10
206.0
 20
11.0
 30
0.0
  0
VERTEX
  5
172
  8
0
  6
CONTINUOUS
 62
     7
 10
210.0
 20
0.0
 30
0.0
  0
VERTEX
  5
173
  8
0
  6
CONTINUOUS
 62
     7
 10
214.0
 20
11.0
 30
0.0
  0
VERTEX
  5
174
  8
0
  6
CONTINUOUS
 62
     7
 10
206.0
 20
11.0
 30
0.0
  0
SEQEND
  5
199
  8
0
  6
CONTINUOUS
 62
     7
  0
INSERT
  5
128
  8
0
 62
     7
  2
*U3
 10
0.0
 20
0.0
 30
0.0
  0
LINE
  5
129
  8
0
  6
CONTINUOUS
 62
     7
 10
367.5
 20
286.9999999999999
 30
0.0
 11
367.5
 21
292.0
 31
0.0
  0
TEXT
  5
12A
  8
0
  6
CONTINUOUS
 62
     7
 10
391.6340909090909
 20
291.8324293485057
 30
0.0
 40
3.5
  1
A
 50
270.0
  0
LINE
  5
12B
  8
0
  6
CONTINUOUS
 62
     7
 10
367.5
 20
10.0
 30
0.0
 11
367.5
 21
5.0
 31
0.0
  0
TEXT
  5
12C
  8
0
  6
CONTINUOUS
 62
     7
 10
392.9868888333125
 20
4.602272727272727
 30
0.0
 40
3.5
  1
A
  0
LINE
  5
12D
  8
0
  6
CONTINUOUS
 62
     7
 10
315.0
 20
286.9999999999999
 30
0.0
 11
315.0
 21
292.0
 31
0.0
  0
TEXT
  5
12E
  8
0
  6
CONTINUOUS
 62
     7
 10
339.1340909090909
 20
291.9745607727899
 30
0.0
 40
3.5
  1
B
 50
270.0
  0
LINE
  5
12F
  8
0
  6
CONTINUOUS
 62
     7
 10
315.0
 20
10.0
 30
0.0
 11
315.0
 21
5.0
 31
0.0
  0
TEXT
  5
130
  8
0
  6
CONTINUOUS
 62
     7
 10
340.3447574090284
 20
4.602272727272727
 30
0.0
 40
3.5
  1
B
  0
LINE
  5
131
  8
0
  6
CONTINUOUS
 62
     7
 10
262.5
 20
286.9999999999999
 30
0.0
 11
262.5
 21
292.0
 31
0.0
  0
TEXT
  5
132
  8
0
  6
CONTINUOUS
 62
     7
 10
286.6327779167187
 20
291.9399305989747
 30
0.0
 40
3.5
  1
C
 50
270.0
  0
LINE
  5
133
  8
0
  6
CONTINUOUS
 62
     7
 10
262.5
 20
10.0
 30
0.0
 11
262.5
 21
5.0
 31
0.0
  0
TEXT
  5
134
  8
0
  6
CONTINUOUS
 62
     7
 10
287.8793875828435
 20
4.600959734900587
 30
0.0
 40
3.5
  1
C
  0
LINE
  5
135
  8
0
  6
CONTINUOUS
 62
     7
 10
210.0
 20
286.9999999999999
 30
0.0
 11
210.0
 21
292.0
 31
0.0
  0
TEXT
  5
136
  8
0
  6
CONTINUOUS
 62
     7
 10
234.1340909090909
 20
291.9745607727898
 30
0.0
 40
3.5
  1
D
 50
270.0
  0
LINE
  5
137
  8
0
  6
CONTINUOUS
 62
     7
 10
157.5
 20
286.9999999999999
 30
0.0
 11
157.5
 21
292.0
 31
0.0
  0
TEXT
  5
138
  8
0
  6
CONTINUOUS
 62
     7
 10
181.6327779167188
 20
292.027463423784
 30
0.0
 40
3.5
  1
E
 50
270.0
  0
LINE
  5
139
  8
0
  6
CONTINUOUS
 62
     7
 10
157.5
 20
10.0
 30
0.0
 11
157.5
 21
5.0
 31
0.0
  0
LINE
  5
13A
  8
0
  6
CONTINUOUS
 62
     7
 10
105.0
 20
286.9999999999999
 30
0.0
 11
105.0
 21
292.0
 31
0.0
  0
TEXT
  5
13B
  8
0
  6
CONTINUOUS
 62
     7
 10
129.1327779167188
 20
291.9924502938602
 30
0.0
 40
3.5
  1
F
 50
270.0
  0
LINE
  5
13C
  8
0
  6
CONTINUOUS
 62
     7
 10
105.0
 20
10.0
 30
0.0
 11
105.0
 21
5.0
 31
0.0
  0
TEXT
  5
13D
  8
0
  6
CONTINUOUS
 62
     7
 10
130.326867887958
 20
4.600959734900587
 30
0.0
 40
3.5
  1
F
  0
LINE
  5
13E
  8
0
  6
CONTINUOUS
 62
     7
 10
52.50000000000004
 20
286.9999999999999
 30
0.0
 11
52.50000000000004
 21
292.0
 31
0.0
  0
TEXT
  5
13F
  8
0
  6
CONTINUOUS
 62
     7
 10
76.6327779167188
 20
291.9399305989746
 30
0.0
 40
3.5
  1
G
 50
270.0
  0
LINE
  5
140
  8
0
  6
CONTINUOUS
 62
     7
 10
52.50000000000004
 20
10.0
 30
0.0
 11
52.50000000000004
 21
5.0
 31
0.0
  0
TEXT
  5
141
  8
0
  6
CONTINUOUS
 62
     7
 10
77.8793875828436
 20
4.600959734900587
 30
0.0
 40
3.5
  1
G
  0
TEXT
  5
142
  8
0
  6
CONTINUOUS
 62
     7
 10
24.13277791671879
 20
291.9749437288983
 30
0.0
 40
3.5
  1
H
 50
270.0
  0
TEXT
  5
143
  8
0
  6
CONTINUOUS
 62
     7
 10
25.34437445291988
 20
4.600959734900587
 30
0.0
 40
3.5
  1
H
  0
LINE
  5
144
  8
0
  6
CONTINUOUS
 62
     7
 10
409.9999999999999
 20
74.25
 30
0.0
 11
414.9999999999999
 21
74.25
 31
0.0
  0
TEXT
  5
145
  8
0
  6
CONTINUOUS
 62
     7
 10
412.9326059772414
 20
35.00777791671877
 30
0.0
 40
3.5
  1
1
  0
LINE
  5
146
  8
0
  6
CONTINUOUS
 62
     7
 10
10.0
 20
74.25
 30
0.0
 11
5.0
 21
74.25
 31
0.0
  0
TEXT
  5
147
  8
0
  6
CONTINUOUS
 62
     7
 10
4.600959734900584
 20
38.26171220457671
 30
0.0
 40
3.5
  1
1
 50
270.0
  0
LINE
  5
148
  8
0
  6
CONTINUOUS
 62
     7
 10
409.9999999999999
 20
148.5
 30
0.0
 11
414.9999999999999
 21
148.5
 31
0.0
  0
TEXT
  5
149
  8
0
  6
CONTINUOUS
 62
     7
 10
413.163692634738
 20
109.2577779167188
 30
0.0
 40
3.5
  1
2
  0
LINE
  5
14A
  8
0
  6
CONTINUOUS
 62
     7
 10
10.0
 20
148.5
 30
0.0
 11
5.0
 21
148.5
 31
0.0
  0
TEXT
  5
14B
  8
0
  6
CONTINUOUS
 62
     7
 10
4.600959734900599
 20
112.2806255470802
 30
0.0
 40
3.5
  1
2
 50
270.0
  0
LINE
  5
14C
  8
0
  6
CONTINUOUS
 62
     7
 10
409.9999999999999
 20
222.75
 30
0.0
 11
414.9999999999999
 21
222.75
 31
0.0
  0
TEXT
  5
14D
  8
0
  6
CONTINUOUS
 62
     7
 10
413.1811991996998
 20
183.5077779167188
 30
0.0
 40
3.5
  1
3
  0
LINE
  5
14E
  8
0
  6
CONTINUOUS
 62
     7
 10
10.0
 20
222.75
 30
0.0
 11
5.0
 21
222.75
 31
0.0
  0
TEXT
  5
14F
  8
0
  6
CONTINUOUS
 62
     7
 10
4.600959734900584
 20
186.5131189821183
 30
0.0
 40
3.5
  1
3
 50
270.0
  0
TEXT
  5
150
  8
0
  6
CONTINUOUS
 62
     7
 10
413.2351413029886
 20
257.7590909090909
 30
0.0
 40
3.5
  1
4
  0
TEXT
  5
151
  8
0
  6
CONTINUOUS
 62
     7
 10
4.60227272727272
 20
260.7091768788295
 30
0.0
 40
3.5
  1
4
 50
270.0
  0
LINE
  5
152
  8
0
  6
CONTINUOUS
 62
     7
 10
220.0
 20
10.0
 30
0.0
 11
220.0
 21
7.0
 31
0.0
  0
LINE
  5
153
  8
0
  6
CONTINUOUS
 62
     7
 10
200.0
 20
10.0
 30
0.0
 11
200.0
 21
7.0
 31
0.0
  0
LINE
  5
154
  8
0
  6
CONTINUOUS
 62
     7
 10
230.0
 20
10.0
 30
0.0
 11
230.0
 21
7.0
 31
0.0
  0
LINE
  5
155
  8
0
  6
CONTINUOUS
 62
     7
 10
190.0
 20
10.0
 30
0.0
 11
190.0
 21
7.0
 31
0.0
  0
LINE
  5
156
  8
0
  6
CONTINUOUS
 62
     7
 10
240.0
 20
10.0
 30
0.0
 11
240.0
 21
7.0
 31
0.0
  0
LINE
  5
157
  8
0
  6
CONTINUOUS
 62
     7
 10
180.0
 20
10.0
 30
0.0
 11
180.0
 21
7.0
 31
0.0
  0
LINE
  5
158
  8
0
  6
CONTINUOUS
 62
     7
 10
250.0
 20
10.0
 30
0.0
 11
250.0
 21
7.0
 31
0.0
  0
LINE
  5
159
  8
0
  6
CONTINUOUS
 62
     7
 10
170.0
 20
10.0
 30
0.0
 11
170.0
 21
7.0
 31
0.0
  0
LINE
  5
15A
  8
0
  6
CONTINUOUS
 62
     7
 10
260.0
 20
10.0
 30
0.0
 11
260.0
 21
5.0
 31
0.0
  0
LINE
  5
15B
  8
0
  6
CONTINUOUS
 62
     7
 10
160.0
 20
10.0
 30
0.0
 11
160.0
 21
5.0
 31
0.0
  0
LINE
  5
15C
  8
0
  6
CONTINUOUS
 62
     7
 10
260.0
 20
10.0
 30
0.0
 11
160.0
 21
10.0
 31
0.0
  0
LINE
  5
15D
  8
0
  6
CONTINUOUS
 62
     7
 10
260.0
 20
7.0
 30
0.0
 11
160.0
 21
7.0
 31
0.0
  0
INSERT
  5
15E
  8
0
 62
     7
  2
*U4
 10
0.0
 20
0.0
 30
0.0
  0
INSERT
  5
15F
  8
0
 62
     7
  2
*U5
 10
0.0
 20
0.0
 30
0.0
  0
INSERT
  5
160
  8
0
 62
     7
  2
*U6
 10
0.0
 20
0.0
 30
0.0
  0
INSERT
  5
161
  8
0
 62
     7
  2
*U7
 10
0.0
 20
0.0
 30
0.0
  0
ENDBLK
  8
0
  0
BLOCK
  8
0
  2
*U2
 70
     1
 10
0.0
 20
0.0
 30
0.0
  0
SOLID
  5
170
  8
0
  6
CONTINUOUS
 62
     7
 10
11.0
 20
144.5
 30
0.0
 11
6.999999999999999
 21
148.5
 31
0.0
 12
11.0
 22
152.5
 32
0.0
 13
11.0
 23
152.5
 33
0.0
  0
ENDBLK
  8
0
  0
BLOCK
  8
0
  2
*U3
 70
     1
 10
0.0
 20
0.0
 30
0.0
  0
SOLID
  5
176
  8
0
  6
CONTINUOUS
 62
     7
 10
210.0
 20
6.999999999999999
 30
0.0
 11
206.0
 21
11.0
 31
0.0
 12
210.0
 22
11.0
 32
0.0
 13
210.0
 23
11.0
 33
0.0
  0
SOLID
  5
177
  8
0
  6
CONTINUOUS
 62
     7
 10
210.0
 20
6.999999999999999
 30
0.0
 11
210.0
 21
11.0
 31
0.0
 12
214.0
 22
11.0
 32
0.0
 13
214.0
 23
11.0
 33
0.0
  0
ENDBLK
  8
0
  0
BLOCK
  8
0
  2
*U4
 70
     1
 10
0.0
 20
0.0
 30
0.0
  0
SOLID
  5
179
  8
0
  6
CONTINUOUS
 62
     7
 10
0.0
 20
0.0
 30
0.0
 11
0.0
 21
10.0
 31
0.0
 12
2.0
 22
0.0
 32
0.0
 13
2.0
 23
0.0
 33
0.0
  0
SOLID
  5
17A
  8
0
  6
CONTINUOUS
 62
     7
 10
2.0
 20
0.0
 30
0.0
 11
0.0
 21
10.0
 31
0.0
 12
2.0
 22
10.0
 32
0.0
 13
2.0
 23
10.0
 33
0.0
  0
SOLID
  5
17B
  8
0
  6
CONTINUOUS
 62
     7
 10
2.0
 20
0.0
 30
0.0
 11
2.0
 21
2.0
 31
0.0
 12
10.0
 22
0.0
 32
0.0
 13
10.0
 23
0.0
 33
0.0
  0
SOLID
  5
17C
  8
0
  6
CONTINUOUS
 62
     7
 10
10.0
 20
0.0
 30
0.0
 11
2.0
 21
2.0
 31
0.0
 12
10.0
 22
2.0
 32
0.0
 13
10.0
 23
2.0
 33
0.0
  0
ENDBLK
  8
0
  0
BLOCK
  8
0
  2
*U5
 70
     1
 10
0.0
 20
0.0
 30
0.0
  0
SOLID
  5
17E
  8
0
  6
CONTINUOUS
 62
     7
 10
409.9999999999999
 20
0.0
 30
0.0
 11
409.9999999999999
 21
2.0
 31
0.0
 12
418.0
 22
0.0
 32
0.0
 13
418.0
 23
0.0
 33
0.0
  0
SOLID
  5
17F
  8
0
  6
CONTINUOUS
 62
     7
 10
418.0
 20
0.0
 30
0.0
 11
409.9999999999999
 21
2.0
 31
0.0
 12
418.0
 22
2.0
 32
0.0
 13
418.0
 23
2.0
 33
0.0
  0
SOLID
  5
180
  8
0
  6
CONTINUOUS
 62
     7
 10
418.0
 20
0.0
 30
0.0
 11
418.0
 21
10.0
 31
0.0
 12
420.0
 22
0.0
 32
0.0
 13
420.0
 23
0.0
 33
0.0
  0
SOLID
  5
181
  8
0
  6
CONTINUOUS
 62
     7
 10
420.0
 20
0.0
 30
0.0
 11
418.0
 21
10.0
 31
0.0
 12
420.0
 22
10.0
 32
0.0
 13
420.0
 23
10.0
 33
0.0
  0
ENDBLK
  8
0
  0
BLOCK
  8
0
  2
*U6
 70
     1
 10
0.0
 20
0.0
 30
0.0
  0
SOLID
  5
183
  8
0
  6
CONTINUOUS
 62
     7
 10
409.9999999999999
 20
295.0
 30
0.0
 11
409.9999999999999
 21
297.0
 31
0.0
 12
418.0
 22
295.0
 32
0.0
 13
418.0
 23
295.0
 33
0.0
  0
SOLID
  5
184
  8
0
  6
CONTINUOUS
 62
     7
 10
418.0
 20
295.0
 30
0.0
 11
409.9999999999999
 21
297.0
 31
0.0
 12
418.0
 22
297.0
 32
0.0
 13
418.0
 23
297.0
 33
0.0
  0
SOLID
  5
185
  8
0
  6
CONTINUOUS
 62
     7
 10
418.0
 20
286.9999999999999
 30
0.0
 11
418.0
 21
297.0
 31
0.0
 12
420.0
 22
286.9999999999999
 32
0.0
 13
420.0
 23
286.9999999999999
 33
0.0
  0
SOLID
  5
186
  8
0
  6
CONTINUOUS
 62
     7
 10
420.0
 20
286.9999999999999
 30
0.0
 11
418.0
 21
297.0
 31
0.0
 12
420.0
 22
297.0
 32
0.0
 13
420.0
 23
297.0
 33
0.0
  0
ENDBLK
  8
0
  0
BLOCK
  8
0
  2
*U7
 70
     1
 10
0.0
 20
0.0
 30
0.0
  0
SOLID
  5
188
  8
0
  6
CONTINUOUS
 62
     7
 10
0.0
 20
286.9999999999999
 30
0.0
 11
0.0
 21
297.0
 31
0.0
 12
2.0
 22
286.9999999999999
 32
0.0
 13
2.0
 23
286.9999999999999
 33
0.0
  0
SOLID
  5
189
  8
0
  6
CONTINUOUS
 62
     7
 10
2.0
 20
286.9999999999999
 30
0.0
 11
0.0
 21
297.0
 31
0.0
 12
2.0
 22
297.0
 32
0.0
 13
2.0
 23
297.0
 33
0.0
  0
SOLID
  5
18A
  8
0
  6
CONTINUOUS
 62
     7
 10
2.0
 20
295.0
 30
0.0
 11
2.0
 21
297.0
 31
0.0
 12
10.0
 22
295.0
 32
0.0
 13
10.0
 23
295.0
 33
0.0
  0
SOLID
  5
18B
  8
0
  6
CONTINUOUS
 62
     7
 10
10.0
 20
295.0
 30
0.0
 11
2.0
 21
297.0
 31
0.0
 12
10.0
 22
297.0
 32
0.0
 13
10.0
 23
297.0
 33
0.0
  0
ENDBLK
  8
0
  0
ENDSEC
  0
SECTION
  2
ENTITIES
  0
LINE
  5
70
  8
1
  6
CONTINUOUS
 62
     7
 10
4431.012530368102
 20
377.2260577818168
 30
0.0
 11
4431.012530379796
 21
310.5540880997829
 31
0.0
  0
LINE
  5
71
  8
1
  6
CONTINUOUS
 62
     7
 10
4428.5125303722
 20
307.3662887405812
 30
0.0
 11
4428.5125303722
 21
380.4138571207646
 31
0.0
  0
LINE
  5
72
  8
1
  6
CONTINUOUS
 62
     7
 10
4514.1389855534
 20
384.9539439772
 30
0.0
 11
4512.6389855534
 21
384.9539439772
 31
0.0
  0
ARC
  5
73
  8
1
  6
CONTINUOUS
 62
     7
 10
4509.6389855534
 20
334.9539439772
 30
0.0
 40
33.0
 50
99.59406822689999
 51
180.0
  0
LINE
  5
74
  8
1
  6
CONTINUOUS
 62
     7
 10
4514.1389855534
 20
370.4504226759
 30
0.0
 11
4514.1389855534
 21
384.9539439772
 31
0.0
  0
LINE
  5
75
  8
1
  6
CONTINUOUS
 62
     7
 10
4412.1125303719
 20
379.5539439772
 30
0.0
 11
4412.1125303719
 21
381.4539439772
 31
0.0
  0
LINE
  5
76
  8
1
  6
CONTINUOUS
 62
     7
 10
4413.9125303719
 20
381.4539439772
 30
0.0
 11
4413.9125303719
 21
379.553943977
 31
0.0
  0
LINE
  5
77
  8
1
  6
CONTINUOUS
 62
     7
 10
4514.6389855534
 20
381.9539439772
 30
0.0
 11
4517.1389855534
 21
381.9539439772
 31
0.0
  0
LINE
  5
78
  8
1
  6
CONTINUOUS
 62
     7
 10
4517.1389855534
 20
381.9539439772
 30
0.0
 11
4517.1389855534
 21
372.9539439772
 31
0.0
  0
ARC
  5
79
  8
1
  6
CONTINUOUS
 62
     7
 10
4514.6389855534
 20
382.4539439772
 30
0.0
 40
0.5
 50
180.0
 51
270.0
  0
LINE
  5
7A
  8
1
  6
CONTINUOUS
 62
     7
 10
4514.6389855534
 20
372.9539439772
 30
0.0
 11
4517.1389855534
 21
372.9539439772
 31
0.0
  0
CIRCLE
  5
7B
  8
1
  6
CONTINUOUS
 62
     7
 10
4413.0125303719
 20
377.4539439772
 30
0.0
 40
5.1
  0
ARC
  5
7C
  8
1
  6
CONTINUOUS
 62
     7
 10
4514.6389855534
 20
372.4539439772
 30
0.0
 40
0.5
 50
90.0
 51
180.0
  0
LINE
  5
7D
  8
1
  6
CONTINUOUS
 62
     7
 10
4474.1389855534
 20
309.4539439772
 30
0.0
 11
4474.1389855534
 21
334.9539439772
 31
0.0
  0
LINE
  5
7E
  8
1
  6
CENTER
 62
     5
 10
4472.1389855534
 20
334.9539439772
 30
0.0
 11
4550.9041582871
 21
334.9539439772
 31
0.0
  0
LINE
  5
80
  8
1
  6
CONTINUOUS
 62
     7
 10
4515.1389869392
 20
370.4504222116
 30
0.0
 11
4515.1389855533
 21
372.9539439772
 31
0.0
  0
LINE
  5
81
  8
1
  6
CONTINUOUS
 62
     7
 10
4475.1389895602
 20
297.4539439772
 30
0.0
 11
4476.6389855507
 21
297.4539439772
 31
0.0
  0
ARC
  5
82
  8
1
  6
CONTINUOUS
 62
     7
 10
4509.6389855534
 20
334.9539439772
 30
0.0
 40
34.5
 50
99.59406822680002
 51
180.0613982152
  0
LINE
  5
83
  8
1
  6
CONTINUOUS
 62
     7
 10
4410.9125303719
 20
376.5539439772
 30
0.0
 11
4409.0125303719
 21
376.5539439772
 31
0.0
  0
ARC
  5
84
  8
1
  6
CONTINUOUS
 62
     7
 10
4423.5125303719
 20
297.4539439772
 30
0.0
 40
1.0
 50
180.0
 51
283.1840265885
  0
LINE
  5
85
  8
1
  6
CONTINUOUS
 62
     7
 10
4544.1389844297
 20
290.4539438587
 30
0.0
 11
4542.6389855538
 21
290.4539438587
 31
0.0
  0
LINE
  5
86
  8
1
  6
CONTINUOUS
 62
     7
 10
4413.9125303719
 20
373.4539439772
 30
0.0
 11
4412.1125303719
 21
373.4539439772
 31
0.0
  0
LINE
  5
87
  8
1
  6
CONTINUOUS
 62
     7
 10
4409.0125303719
 20
378.3539439772
 30
0.0
 11
4410.9125303719
 21
378.3539439772
 31
0.0
  0
LINE
  5
88
  8
1
  6
CONTINUOUS
 62
     7
 10
4417.0125303719
 20
376.5539439772
 30
0.0
 11
4415.1125303719
 21
376.5539439772
 31
0.0
  0
LINE
  5
89
  8
1
  6
CONTINUOUS
 62
     7
 10
4418.4725303719
 20
380.6062764469
 30
0.0
 11
4413.0125303719
 21
383.7586089167
 31
0.0
  0
ARC
  5
8A
  8
1
  6
CONTINUOUS
 62
     7
 10
4410.9125303719
 20
375.3539439769
 30
0.0
 40
1.2
 50
0.0
 51
90.0
  0
LINE
  5
8B
  8
1
  6
CONTINUOUS
 62
     7
 10
4544.1389657448
 20
334.9169737496
 30
0.0
 11
4544.1389844993
 21
290.4539439772
 31
0.0
  0
LINE
  5
8C
  8
1
  6
CONTINUOUS
 62
     7
 10
4475.138992091
 20
303.4539439456
 30
0.0
 11
4476.6389855507
 21
303.4539439456
 31
0.0
  0
LINE
  5
8D
  8
1
  6
CONTINUOUS
 62
     7
 10
4412.1125303719
 20
373.4539439772
 30
0.0
 11
4412.1125303719
 21
375.3539439769
 31
0.0
  0
ARC
  5
8E
  8
1
  6
CONTINUOUS
 62
     7
 10
4509.6389855534
 20
334.9539439772
 30
0.0
 40
35.5
 50
99.5940700169
 51
180.0
  0
LINE
  5
8F
  8
1
  6
CONTINUOUS
 62
     7
 10
4407.5525303719
 20
380.6062764469
 30
0.0
 11
4407.5525303719
 21
374.3016115074
 31
0.0
  0
ARC
  5
90
  8
1
  6
CONTINUOUS
 62
     7
 10
4503.6389844444
 20
370.4504224884
 30
0.0
 40
0.5
 50
279.5940700169
 51
0.0
  0
ARC
  5
91
  8
1
  6
CONTINUOUS
 62
     7
 10
4503.6389855535
 20
370.4504226759
 30
0.0
 40
1.5
 50
279.5940682268
 51
0.0
  0
LINE
  5
92
  8
1
  6
CONTINUOUS
 62
     7
 10
4474.1389855534
 20
309.4539439772
 30
0.0
 11
4475.1389936894
 21
307.2434176616
 31
0.0
  0
LINE
  5
93
  8
1
  6
CONTINUOUS
 62
     7
 10
4475.1389866772
 20
290.4539438587
 30
0.0
 11
4476.6389855531
 21
290.4539438587
 31
0.0
  0
LINE
  5
94
  8
1
  6
CONTINUOUS
 62
     7
 10
4418.4725303719
 20
374.3016115074
 30
0.0
 11
4418.4725303719
 21
380.6062764469
 31
0.0
  0
LINE
  5
95
  8
1
  6
CONTINUOUS
 62
     7
 10
4412.1125303719
 20
381.4539439772
 30
0.0
 11
4413.9125303719
 21
381.4539439772
 31
0.0
  0
LINE
  5
96
  8
1
  6
CONTINUOUS
 62
     7
 10
4413.0125303719
 20
371.1492790376
 30
0.0
 11
4407.5525303719
 21
374.3016115074
 31
0.0
  0
LINE
  5
97
  8
1
  6
CONTINUOUS
 62
     7
 10
4418.4725303719
 20
374.3016115074
 30
0.0
 11
4413.0125303719
 21
371.1492790376
 31
0.0
  0
LINE
  5
98
  8
1
  6
CONTINUOUS
 62
     7
 10
4476.6389855534
 20
334.9539439775
 30
0.0
 11
4476.6389855513
 21
290.4539439772
 31
0.0
  0
ARC
  5
99
  8
1
  6
CONTINUOUS
 62
     7
 10
4503.6389855534
 20
370.4504226758
 30
0.0
 40
3.0
 50
279.5940682269
 51
0.0
  0
LINE
  5
9A
  8
1
  6
CONTINUOUS
 62
     7
 10
4417.0125303719
 20
378.3539439772
 30
0.0
 11
4417.0125303719
 21
376.5539439772
 31
0.0
  0
ARC
  5
9B
  8
1
  6
CONTINUOUS
 62
     7
 10
4402.5125303719
 20
297.4539439772
 30
0.0
 40
1.0
 50
256.8159734115
 51
0.0
  0
LINE
  5
9C
  8
1
  6
CENTER
 62
     5
 10
4413.0125303719
 20
386.9539439772
 30
0.0
 11
4413.0125303719
 21
285.9539439772
 31
0.0
  0
LINE
  5
9D
  8
1
  6
CONTINUOUS
 62
     7
 10
4413.0125303719
 20
383.7586089167
 30
0.0
 11
4407.5525303719
 21
380.6062764469
 31
0.0
  0
ARC
  5
9E
  8
1
  6
CONTINUOUS
 62
     7
 10
4410.9125303719
 20
379.5539439772
 30
0.0
 40
1.2
 50
270.0
 51
0.0
  0
ARC
  5
9F
  8
1
  6
CONTINUOUS
 62
     7
 10
4415.1125303719
 20
379.553943977
 30
0.0
 40
1.2
 50
180.0
 51
270.0
  0
LINE
  5
A0
  8
1
  6
CONTINUOUS
 62
     7
 10
4512.6389855534
 20
370.4504226758
 30
0.0
 11
4512.6389855534
 21
384.9539439772
 31
0.0
  0
LINE
  5
A1
  8
1
  6
CONTINUOUS
 62
     7
 10
4475.1390053621
 20
334.9169737496
 30
0.0
 11
4475.1389866076
 21
290.4539439772
 31
0.0
  0
LINE
  5
A2
  8
1
  6
CONTINUOUS
 62
     7
 10
4409.0125303719
 20
376.5539439772
 30
0.0
 11
4409.0125303719
 21
378.3539439772
 31
0.0
  0
LINE
  5
A3
  8
1
  6
CONTINUOUS
 62
     7
 10
4415.1125303719
 20
378.3539439772
 30
0.0
 11
4417.0125303719
 21
378.3539439772
 31
0.0
  0
ARC
  5
A4
  8
1
  6
CONTINUOUS
 62
     7
 10
4415.1125303719
 20
375.3539439772
 30
0.0
 40
1.2
 50
90.0
 51
180.0
  0
LINE
  5
A5
  8
1
  6
CONTINUOUS
 62
     7
 10
4413.9125303719
 20
375.3539439772
 30
0.0
 11
4413.9125303719
 21
373.4539439772
 31
0.0
  0
LINE
  5
A6
  8
1
  6
CONTINUOUS
 62
     7
 10
4515.8493109042
 20
372.9539439772
 30
0.0
 11
4515.8493109042
 21
372.9534232726
 31
0.0
  0
ARC
  5
A7
  8
1
  6
CONTINUOUS
 62
     7
 10
4515.6389855534
 20
370.4504226759
 30
0.0
 40
1.5
 50
180.0
 51
260.4059317732
  0
LINE
  5
A8
  8
1
  6
CONTINUOUS
 62
     7
 10
4434.0125303719
 20
295.2468371644
 30
0.0
 11
4434.0125303719
 21
291.4539439456
 31
0.0
  0
ARC
  5
A9
  8
1
  6
CONTINUOUS
 62
     7
 10
4433.0125303719
 20
301.4539439456
 30
0.0
 40
2.0
 50
0.0
 51
90.0
  0
LINE
  5
AA
  8
1
  6
CONTINUOUS
 62
     7
 10
4434.3610585093
 20
296.3125225893
 30
0.0
 11
4435.0125303719
 21
295.6610507267
 31
0.0
  0
ARC
  5
AB
  8
1
  6
CONTINUOUS
 62
     7
 10
4393.0125303719
 20
301.4539439456
 30
0.0
 40
2.0
 50
90.0
 51
180.0
  0
LINE
  5
AC
  8
1
  6
CONTINUOUS
 62
     7
 10
4544.1389790159
 20
303.4539439456
 30
0.0
 11
4542.6389855561
 21
303.4539439456
 31
0.0
  0
LINE
  5
AD
  8
1
  6
CONTINUOUS
 62
     7
 10
4528.6389855534
 20
303.4539439456
 30
0.0
 11
4528.6389855534
 21
291.4539439456
 31
0.0
  0
LINE
  5
AE
  8
1
  6
CONTINUOUS
 62
     7
 10
4490.6389855534
 20
297.2468371644
 30
0.0
 11
4528.6389855534
 21
297.2468371644
 31
0.0
  0
LINE
  5
AF
  8
1
  6
CONTINUOUS
 62
     7
 10
4403.5125304334
 20
302.4539439456
 30
0.0
 11
4393.0125303719
 21
302.4539439456
 31
0.0
  0
LINE
  5
B0
  8
1
  6
CONTINUOUS
 62
     7
 10
4522.1389855534
 20
374.9539417055
 30
0.0
 11
4521.1389855534
 21
374.4539417056
 31
0.0
  0
LINE
  5
B1
  8
1
  6
CONTINUOUS
 62
     7
 10
4435.0125303719
 20
301.4539439456
 30
0.0
 11
4435.0125303719
 21
297.2468371644
 31
0.0
  0
LINE
  5
B2
  8
1
  6
CONTINUOUS
 62
     7
 10
4433.1589769813
 20
296.8074973362
 30
0.0
 11
4434.0125303719
 21
297.6610507267
 31
0.0
  0
LINE
  5
B3
  8
1
  6
CONTINUOUS
 62
     7
 10
4434.3610585093
 20
296.5953653018
 30
0.0
 11
4435.0125303719
 21
297.2468371644
 31
0.0
  0
ARC
  5
B4
  8
1
  6
CONTINUOUS
 62
     7
 10
4393.0125303719
 20
301.4539439456
 30
0.0
 40
1.0
 50
90.0
 51
180.0
  0
LINE
  5
B5
  8
1
  6
CONTINUOUS
 62
     7
 10
4391.0125303719
 20
301.4539439456
 30
0.0
 11
4391.0125303719
 21
297.2468371644
 31
0.0
  0
ARC
  5
B6
  8
1
  6
CONTINUOUS
 62
     7
 10
4509.6389855534
 20
334.9539439772
 30
0.0
 40
33.0
 50
0.0
 51
80.4059317731
  0
LINE
  5
B7
  8
1
  6
CONTINUOUS
 62
     7
 10
4542.6389855534
 20
334.9539439775
 30
0.0
 11
4542.6389855563
 21
290.4539439772
 31
0.0
  0
LINE
  5
B8
  8
1
  6
CONTINUOUS
 62
     7
 10
4522.1389855534
 20
374.9539417055
 30
0.0
 11
4517.1389855534
 21
374.9539417055
 31
0.0
  0
LINE
  5
B9
  8
1
  6
CONTINUOUS
 62
     7
 10
4403.5125304334
 20
303.4539439456
 30
0.0
 11
4393.0125303719
 21
303.4539439456
 31
0.0
  0
ARC
  5
BA
  8
1
  6
CONTINUOUS
 62
     7
 10
4433.0125303719
 20
301.4539439456
 30
0.0
 40
1.0
 50
0.0
 51
90.0
  0
LINE
  5
BB
  8
1
  6
CONTINUOUS
 62
     7
 10
4490.6389855534
 20
291.4539439456
 30
0.0
 11
4528.6389855534
 21
291.4539439456
 31
0.0
  0
LINE
  5
BC
  8
1
  6
CONTINUOUS
 62
     7
 10
4433.1589769813
 20
296.100390555
 30
0.0
 11
4434.0125303719
 21
295.2468371644
 31
0.0
  0
ARC
  5
BD
  8
1
  6
CONTINUOUS
 62
     7
 10
4433.5125303719
 20
296.4539439456
 30
0.0
 40
0.5
 50
135.0
 51
225.0
  0
LINE
  5
BE
  8
1
  6
CONTINUOUS
 62
     7
 10
4391.0125303719
 20
295.6610507267
 30
0.0
 11
4391.0125303719
 21
291.4539439456
 31
0.0
  0
LINE
  5
BF
  8
1
  6
CONTINUOUS
 62
     7
 10
4490.6389855534
 20
303.4539439456
 30
0.0
 11
4490.6389855534
 21
291.4539439456
 31
0.0
  0
LINE
  5
C0
  8
1
  6
CONTINUOUS
 62
     7
 10
4391.0125303719
 20
291.4539439456
 30
0.0
 11
4392.0125303719
 21
291.4539439456
 31
0.0
  0
LINE
  5
C1
  8
1
  6
CONTINUOUS
 62
     7
 10
4490.6389855534
 20
295.6610507267
 30
0.0
 11
4528.6389855534
 21
295.6610507267
 31
0.0
  0
LINE
  5
C2
  8
1
  6
CONTINUOUS
 62
     7
 10
4392.0125303719
 20
301.4539439456
 30
0.0
 11
4392.0125303719
 21
297.6610507267
 31
0.0
  0
LINE
  5
C3
  8
1
  6
CONTINUOUS
 62
     7
 10
4545.1389855534
 20
309.4539439772
 30
0.0
 11
4544.1389774175
 21
307.2434176616
 31
0.0
  0
LINE
  5
C4
  8
1
  6
CONTINUOUS
 62
     7
 10
4506.6389855534
 20
374.4539417055
 30
0.0
 11
4512.6389855534
 21
374.4539417055
 31
0.0
  0
LINE
  5
C5
  8
1
  6
CONTINUOUS
 62
     7
 10
4521.1389855534
 20
380.4539417055
 30
0.0
 11
4521.1389855534
 21
374.4539417055
 31
0.0
  0
LINE
  5
C6
  8
1
  6
CONTINUOUS
 62
     7
 10
4517.1389855534
 20
380.4539417055
 30
0.0
 11
4521.1389855534
 21
380.4539417055
 31
0.0
  0
LINE
  5
C7
  8
1
  6
CONTINUOUS
 62
     7
 10
4506.6389855534
 20
379.9539839256
 30
0.0
 11
4512.6389855534
 21
379.9539205961
 31
0.0
  0
LINE
  5
C8
  8
1
  6
CONTINUOUS
 62
     7
 10
4528.6389855534
 20
303.4539439456
 30
0.0
 11
4490.6389855534
 21
303.4539439456
 31
0.0
  0
LINE
  5
C9
  8
1
  6
CONTINUOUS
 62
     7
 10
4433.0125303719
 20
303.4539439456
 30
0.0
 11
4422.5125303105
 21
303.4539439456
 31
0.0
  0
ARC
  5
CA
  8
1
  6
CONTINUOUS
 62
     7
 10
4434.5024798656
 20
296.4539439456
 30
0.0
 40
0.2
 50
135.0
 51
224.9999999995
  0
ARC
  5
CB
  8
1
  6
CONTINUOUS
 62
     7
 10
4515.6389855534
 20
370.4504226758
 30
0.0
 40
3.0
 50
180.0
 51
260.4059317731
  0
LINE
  5
CC
  8
1
  6
CONTINUOUS
 62
     7
 10
4506.6389855534
 20
380.4539417055
 30
0.0
 11
4512.6389855534
 21
380.4539417055
 31
0.0
  0
LINE
  5
CD
  8
1
  6
CONTINUOUS
 62
     7
 10
4528.6389855534
 20
296.4539439456
 30
0.0
 11
4490.6389855534
 21
296.4539439456
 31
0.0
  0
LINE
  5
CE
  8
1
  6
CONTINUOUS
 62
     7
 10
4435.0125303719
 20
291.4539439456
 30
0.0
 11
4434.0125303719
 21
291.4539439456
 31
0.0
  0
LINE
  5
CF
  8
1
  6
CONTINUOUS
 62
     7
 10
4521.1389855534
 20
380.4539417055
 30
0.0
 11
4522.1389855534
 21
379.9539417055
 31
0.0
  0
LINE
  5
D0
  8
1
  6
CONTINUOUS
 62
     7
 10
4433.0125303719
 20
302.4539439456
 30
0.0
 11
4422.5125303105
 21
302.4539439456
 31
0.0
  0
LINE
  5
D1
  8
1
  6
CONTINUOUS
 62
     7
 10
4545.1389855534
 20
309.4539439772
 30
0.0
 11
4545.1389855534
 21
334.9539439772
 31
0.0
  0
ARC
  5
D2
  8
1
  6
CONTINUOUS
 62
     7
 10
4509.6389855534
 20
334.9539439772
 30
0.0
 40
34.5
 50
359.9386017848
 51
80.4059317732
  0
LINE
  5
D3
  8
1
  6
CONTINUOUS
 62
     7
 10
4544.1389815467
 20
297.4539439772
 30
0.0
 11
4542.6389855561
 21
297.4539439772
 31
0.0
  0
ARC
  5
D4
  8
1
  6
CONTINUOUS
 62
     7
 10
4515.6389866624
 20
370.4504224884
 30
0.0
 40
0.5
 50
180.0000317194
 51
260.4059299831
  0
LINE
  5
D5
  8
1
  6
CONTINUOUS
 62
     7
 10
4512.6389855534
 20
374.9539915667
 30
0.0
 11
4506.6389855534
 21
374.9538421789
 31
0.0
  0
LINE
  5
D6
  8
1
  6
CONTINUOUS
 62
     7
 10
4517.1389855534
 20
379.9539417055
 30
0.0
 11
4522.1389855534
 21
379.9539417055
 31
0.0
  0
LINE
  5
D7
  8
1
  6
CONTINUOUS
 62
     7
 10
4517.1389855534
 20
374.4539417055
 30
0.0
 11
4521.1389855534
 21
374.4539417055
 31
0.0
  0
ARC
  5
D8
  8
1
  6
CONTINUOUS
 62
     7
 10
4509.6389855534
 20
334.9539439772
 30
0.0
 40
35.5
 50
0.0
 51
80.4059299831
  0
LINE
  5
D9
  8
1
  6
CONTINUOUS
 62
     7
 10
4522.1389855537
 20
374.9539417055
 30
0.0
 11
4522.1389855534
 21
379.9539417055
 31
0.0
  0
LINE
  5
DA
  8
1
  6
CONTINUOUS
 62
     7
 10
4435.0125303719
 20
295.6610507267
 30
0.0
 11
4435.0125303719
 21
291.4539439456
 31
0.0
  0
LINE
  5
DB
  8
1
  6
CONTINUOUS
 62
     7
 10
4434.0125303719
 20
301.4539439456
 30
0.0
 11
4434.0125303719
 21
297.6610507267
 31
0.0
  0
LINE
  5
DC
  8
1
  6
CONTINUOUS
 62
     7
 10
4392.8660837625
 20
296.100390555
 30
0.0
 11
4392.0125303719
 21
295.2468371644
 31
0.0
  0
ARC
  5
DD
  8
1
  6
CONTINUOUS
 62
     7
 10
4391.5225808783
 20
296.4539439456
 30
0.0
 40
0.2
 50
315.0000000005
 51
45.0
  0
ARC
  5
DE
  8
1
  6
CONTINUOUS
 62
     7
 10
4428.0125303719
 20
291.4539439772
 30
0.0
 40
1.0
 50
270.0
 51
0.0
  0
LINE
  5
DF
  8
1
  6
CONTINUOUS
 62
     7
 10
4398.0125303719
 20
290.4539439772
 30
0.0
 11
4428.0125303719
 21
290.4539439772
 31
0.0
  0
LINE
  5
E0
  8
1
  6
CONTINUOUS
 62
     7
 10
4392.0125303719
 20
295.2468371644
 30
0.0
 11
4392.0125303719
 21
291.4539439456
 31
0.0
  0
LINE
  5
E1
  8
1
  6
CONTINUOUS
 62
     7
 10
4391.6640022345
 20
296.5953653018
 30
0.0
 11
4391.0125303719
 21
297.2468371644
 31
0.0
  0
LINE
  5
E2
  8
1
  6
CONTINUOUS
 62
     7
 10
4391.6640022345
 20
296.3125225893
 30
0.0
 11
4391.0125303719
 21
295.6610507267
 31
0.0
  0
LINE
  5
E3
  8
1
  6
CONTINUOUS
 62
     7
 10
4392.8660837625
 20
296.8074973362
 30
0.0
 11
4392.0125303719
 21
297.6610507267
 31
0.0
  0
ARC
  5
E4
  8
1
  6
CONTINUOUS
 62
     7
 10
4392.5125303719
 20
296.4539439456
 30
0.0
 40
0.5
 50
314.9999999999
 51
45.00000000009999
  0
ARC
  5
E5
  8
1
  6
CONTINUOUS
 62
     7
 10
4398.0125303719
 20
291.4539439772
 30
0.0
 40
1.0
 50
180.0
 51
270.0
  0
LINE
  5
E6
  8
1
  6
CENTER
 62
     5
 10
4406.9899873357
 20
377.4539439772
 30
0.0
 11
4419.620254059
 21
377.4539439772
 31
0.0
  0
LINE
  5
E7
  8
1
  6
CONTINUOUS
 62
     7
 10
4504.6389855534
 20
381.9539439772
 30
0.0
 11
4502.1389855534
 21
381.9539439772
 31
0.0
  0
LINE
  5
E8
  8
1
  6
CONTINUOUS
 62
     7
 10
4422.5125303729
 20
303.4539439772
 30
0.0
 11
4422.5125303719
 21
297.4539439772
 31
0.0
  0
LINE
  5
E9
  8
1
  6
CONTINUOUS
 62
     7
 10
4402.2844509334
 20
296.4803014505
 30
0.0
 11
4398.2406098104
 21
297.4275865038
 31
0.0
  0
LINE
  5
EA
  8
1
  6
CONTINUOUS
 62
     7
 10
4506.6389855534
 20
370.4504226758
 30
0.0
 11
4506.6389855534
 21
384.9539439772
 31
0.0
  0
ARC
  5
EB
  8
1
  6
CONTINUOUS
 62
     7
 10
4398.0125303719
 20
296.4539439772
 30
0.0
 40
1.0
 50
76.8159734115
 51
180.0
  0
ARC
  5
EC
  8
1
  6
CONTINUOUS
 62
     7
 10
4504.6389855534
 20
372.4539439772
 30
0.0
 40
0.5
 50
0.0
 51
90.0
  0
LINE
  5
ED
  8
1
  6
CONTINUOUS
 62
     7
 10
4504.1389841676
 20
370.4504222116
 30
0.0
 11
4504.1389855536
 21
372.9539439772
 31
0.0
  0
LINE
  5
EE
  8
1
  6
CONTINUOUS
 62
     7
 10
4394.0125303719
 20
369.4539439772
 30
0.0
 11
4432.0125303719
 21
369.4539439772
 31
0.0
  0
LINE
  5
EF
  8
1
  6
CONTINUOUS
 62
     7
 10
4504.6389855534
 20
372.9539439772
 30
0.0
 11
4502.1389855534
 21
372.9539439772
 31
0.0
  0
LINE
  5
F0
  8
1
  6
CONTINUOUS
 62
     7
 10
4423.7406098104
 20
296.4803014505
 30
0.0
 11
4427.7844509334
 21
297.4275865038
 31
0.0
  0
LINE
  5
F1
  8
1
  6
CONTINUOUS
 62
     7
 10
4403.5125303709
 20
303.4539439772
 30
0.0
 11
4403.5125303719
 21
297.4539439772
 31
0.0
  0
LINE
  5
F2
  8
1
  6
CONTINUOUS
 62
     7
 10
4429.0125303719
 20
296.4539439772
 30
0.0
 11
4429.0125303719
 21
291.4539439772
 31
0.0
  0
LINE
  5
F3
  8
1
  6
CONTINUOUS
 62
     7
 10
4397.0125303719
 20
296.4539439772
 30
0.0
 11
4397.0125303719
 21
291.4539439772
 31
0.0
  0
LINE
  5
F4
  8
1
  6
CONTINUOUS
 62
     7
 10
4503.4286602027
 20
372.9539439772
 30
0.0
 11
4503.4286602027
 21
372.9534232726
 31
0.0
  0
LINE
  5
F5
  8
1
  6
CONTINUOUS
 62
     7
 10
4505.1389855534
 20
384.9539439772
 30
0.0
 11
4506.6389855534
 21
384.9539439772
 31
0.0
  0
LINE
  5
F6
  8
1
  6
CONTINUOUS
 62
     7
 10
4505.1389855534
 20
370.4504226759
 30
0.0
 11
4505.1389855534
 21
384.9539439772
 31
0.0
  0
LINE
  5
F7
  8
1
  6
CENTER
 62
     5
 10
4492.3389855534
 20
377.4539439773
 30
0.0
 11
4527.1389855755
 21
377.4539439816
 31
0.0
  0
LINE
  5
F8
  8
1
  6
CONTINUOUS
 62
     7
 10
4502.1389855534
 20
381.9539439772
 30
0.0
 11
4502.1389855534
 21
372.9539439772
 31
0.0
  0
ARC
  5
F9
  8
1
  6
CONTINUOUS
 62
     7
 10
4504.6389855534
 20
382.4539439772
 30
0.0
 40
0.5
 50
270.0
 51
0.0
  0
LINE
  5
FA
  8
1
  6
CENTER
 62
     5
 10
4509.6389855534
 20
386.9539439772
 30
0.0
 11
4509.6389855534
 21
285.9539439772
 31
0.0
  0
ARC
  5
FB
  8
1
  6
CONTINUOUS
 62
     7
 10
4428.0125303719
 20
296.4539439772
 30
0.0
 40
1.0
 50
0.0
 51
103.1840265885
  0
ARC
  5
FC
  8
0
  6
CONTINUOUS
 62
     7
 10
4422.0125303709
 20
372.814515045091
 30
0.0
 40
9.999999999999787
 50
29.99999999999977
 51
63.25631604960046
  0
ARC
  5
FD
  8
0
  6
CONTINUOUS
 62
     7
 10
4413.0125303709
 20
354.9539439456
 30
0.0
 40
29.99999999999936
 50
63.25631604959511
 51
116.7436839504049
  0
LINE
  5
FE
  8
0
  6
CONTINUOUS
 62
     7
 10
4430.672784408745
 20
377.814515045091
 30
0.0
 11
4432.0125303709
 21
375.4940069694018
 31
0.0
  0
ARC
  5
FF
  8
0
  6
CONTINUOUS
 62
     7
 10
4422.0125303709
 20
314.9656308162549
 30
0.0
 40
9.999999999999787
 50
302.2756443145759
 51
330.0000000000002
  0
LINE
  5
100
  8
0
  6
CONTINUOUS
 62
     7
 10
4432.0125303709
 20
312.286138891944
 30
0.0
 11
4432.0125303709
 21
375.4940069694018
 31
0.0
  0
LINE
  5
101
  8
0
  6
CONTINUOUS
 62
     7
 10
4394.0125303709
 20
312.286138891944
 30
0.0
 11
4394.0125303709
 21
375.4940069694018
 31
0.0
  0
ARC
  5
102
  8
0
  6
CONTINUOUS
 62
     7
 10
4404.0125303709
 20
372.814515045091
 30
0.0
 40
9.999999999999787
 50
116.7436839503995
 51
150.0000000000003
  0
LINE
  5
103
  8
0
  6
CONTINUOUS
 62
     7
 10
4398.67260045702
 20
306.5107417859452
 30
0.0
 11
4403.5125303709
 21
303.4539439456
 31
0.0
  0
ARC
  5
104
  8
0
  6
CONTINUOUS
 62
     7
 10
4404.0125303709
 20
314.9656308162549
 30
0.0
 40
9.999999999999787
 50
209.9999999999998
 51
237.7243556854241
  0
LINE
  5
105
  8
0
  6
CONTINUOUS
 62
     7
 10
4427.35246028478
 20
306.5107417859452
 30
0.0
 11
4422.5125303709
 21
303.4539439456
 31
0.0
  0
LINE
  5
106
  8
0
  6
CONTINUOUS
 62
     7
 10
4395.352276333056
 20
377.814515045091
 30
0.0
 11
4394.0125303709
 21
375.4940069694018
 31
0.0
  0
LINE
  5
107
  8
0
  6
CONTINUOUS
 62
     7
 10
4395.352276333056
 20
309.9656308162549
 30
0.0
 11
4394.0125303709
 21
312.286138891944
 31
0.0
  0
LINE
  5
108
  8
0
  6
CONTINUOUS
 62
     7
 10
4430.672784408745
 20
309.9656308162549
 30
0.0
 11
4432.0125303709
 21
312.286138891944
 31
0.0
  0
LINE
  5
109
  8
1
  6
CONTINUOUS
 62
     7
 10
4395.01253037153
 20
377.2260577780624
 30
0.0
 11
4395.012530372671
 21
310.5540880813091
 31
0.0
  0
LINE
  5
10A
  8
1
  6
CONTINUOUS
 62
     7
 10
4397.5125303716
 20
307.3662887388704
 30
0.0
 11
4397.5125303716
 21
380.4138571224754
 31
0.0
  0
TEXT
  5
10B
  8
1
  6
CONTINUOUS
 62
     7
 10
4526.695831112571
 20
273.7418299090908
 30
0.0
 40
3.5
  1
ＤＣＦ－５０Ｆ
 41
0.609191
 51
15.0
  0
LINE
  5
10C
  8
1
  6
CONTINUOUS
 62
     7
 10
4502.1389855534
 20
382.9965042897
 30
0.0
 11
4502.1389855534
 21
371.9113791213
 31
0.0
  0
LINE
  5
10D
  8
1
  6
CONTINUOUS
 62
     7
 10
4502.1389855534
 20
371.9113791213
 30
0.0
 11
4497.8369862936
 21
371.9113791213
 31
0.0
  0
LINE
  5
10E
  8
1
  6
CONTINUOUS
 62
     7
 10
4497.8369862936
 20
371.9113791213
 30
0.0
 11
4497.6343666035
 21
372.2623267193
 31
0.0
  0
ARC
  5
10F
  8
1
  6
CONTINUOUS
 62
     7
 10
4499.5437397259
 20
373.3647038056
 30
0.0
 40
2.2047541725
 50
143.2889572925
 51
210.0000000002
  0
LINE
  5
110
  8
1
  6
CONTINUOUS
 62
     7
 10
4497.7762755081
 20
374.6826610126
 30
0.0
 11
4502.1389855534
 21
374.6826610126
 31
0.0
  0
LINE
  5
111
  8
1
  6
CONTINUOUS
 62
     7
 10
4502.1389855534
 20
382.9965042897
 30
0.0
 11
4497.8369862936
 21
382.9965042897
 31
0.0
  0
LINE
  5
112
  8
1
  6
CONTINUOUS
 62
     7
 10
4497.8369862936
 20
382.9965042897
 30
0.0
 11
4497.6343666035
 21
382.6455566917
 31
0.0
  0
ARC
  5
113
  8
1
  6
CONTINUOUS
 62
     7
 10
4499.5437397259
 20
381.5431796055
 30
0.0
 40
2.2047541725
 50
149.9999999999
 51
216.7110427075
  0
LINE
  5
114
  8
1
  6
CONTINUOUS
 62
     7
 10
4497.7762755081
 20
380.2252223984
 30
0.0
 11
4502.1389855534
 21
380.2252223984
 31
0.0
  0
LINE
  5
115
  8
1
  6
CONTINUOUS
 62
     7
 10
4497.3389855534
 20
373.3647038056
 30
0.0
 11
4497.3389855534
 21
381.5431796055
 31
0.0
  0
ARC
  5
116
  8
1
  6
CONTINUOUS
 62
     7
 10
4506.3389855534
 20
377.4539417055
 30
0.0
 40
9.0
 50
162.0660707094
 51
197.9339292906
  0
INSERT
  5
118
  8
0
 62
     7
  2
D_FRAME_DRAWING_21
 10
0.0
 20
0.0
 30
0.0
  0
ENDSEC
  0
EOF
