  0
SECTION
  2
HEADER
  9
$ACADVER
  1
AC1006
  9
$DWGCODEPAGE
  3
ansi_932
  9
$INSBASE
 10
0.0
 20
0.0
 30
0.0
  9
$EXTMIN
 10
0.0
 20
0.0
  9
$EXTMAX
 10
4763.5422730253
 20
421.9304249111
  9
$LIMMIN
 10
0.0
 20
0.0
  9
$LIMMAX
 10
12.0
 20
9.0
  9
$ORTHOMODE
 70
     0
  9
$REGENMODE
 70
     1
  9
$FILLMODE
 70
     1
  9
$QTEXTMODE
 70
     0
  9
$MIRRTEXT
 70
     1
  9
$DRAGMODE
 70
     2
  9
$LTSCALE
 40
1.0
  9
$OSMODE
 70
    37
  9
$ATTMODE
 70
     1
  9
$TEXTSIZE
 40
0.2
  9
$TRACEWID
 40
0.05
  9
$TEXTSTYLE
  7
STANDARD
  9
$CLAYER
  8
0
  9
$CELTYPE
  6
BYLAYER
  9
$CECOLOR
 62
   256
  9
$DIMSCALE
 40
1.0
  9
$DIMASZ
 40
3.0
  9
$DIMEXO
 40
0.0625
  9
$DIMDLI
 40
0.38
  9
$DIMRND
 40
0.0
  9
$DIMDLE
 40
0.0
  9
$DIMEXE
 40
1.5
  9
$DIMTP
 40
0.0
  9
$DIMTM
 40
0.0
  9
$DIMTXT
 40
3.5
  9
$DIMCEN
 40
0.09
  9
$DIMTSZ
 40
0.0
  9
$DIMTOL
 70
     0
  9
$DIMLIM
 70
     0
  9
$DIMTIH
 70
     1
  9
$DIMTOH
 70
     1
  9
$DIMSE1
 70
     0
  9
$DIMSE2
 70
     0
  9
$DIMTAD
 70
     1
  9
$DIMZIN
 70
     0
  9
$DIMBLK
  1

  9
$DIMASO
 70
     1
  9
$DIMSHO
 70
     1
  9
$DIMPOST
  1

  9
$DIMAPOST
  1

  9
$DIMALT
 70
     0
  9
$DIMALTD
 70
     2
  9
$DIMALTF
 40
25.4
  9
$DIMLFAC
 40
1.0
  9
$DIMTOFL
 70
     0
  9
$DIMTVP
 40
0.0
  9
$DIMTIX
 70
     0
  9
$DIMSOXD
 70
     0
  9
$DIMSAH
 70
     0
  9
$DIMBLK1
  1

  9
$DIMBLK2
  1

  9
$LUNITS
 70
     2
  9
$LUPREC
 70
     4
  9
$SKETCHINC
 40
0.1
  9
$FILLETRAD
 40
0.5
  9
$AUNITS
 70
     0
  9
$AUPREC
 70
     0
  9
$MENU
  1
.
  9
$ELEVATION
 40
0.0
  9
$THICKNESS
 40
0.0
  9
$LIMCHECK
 70
     0
  9
$CHAMFERA
 40
0.0
  9
$CHAMFERB
 40
0.0
  9
$SKPOLY
 70
     0
  9
$TDCREATE
 40
2460286.5851739
  9
$TDUPDATE
 40
2460286.585174294
  9
$TDINDWG
 40
0.0000000116
  9
$TDUSRTIMER
 40
0.0000000116
  9
$USRTIMER
 70
     1
  9
$ANGBASE
 50
0.0
  9
$ANGDIR
 70
     0
  9
$PDMODE
 70
     0
  9
$PDSIZE
 40
0.0
  9
$PLINEWID
 40
0.0
  9
$COORDS
 70
     1
  9
$SPLFRAME
 70
     0
  9
$SPLINETYPE
 70
     6
  9
$SPLINESEGS
 70
     8
  9
$ATTDIA
 70
     0
  9
$ATTREQ
 70
     1
  9
$HANDLING
 70
     1
  9
$HANDSEED
  5
19B
  9
$SURFTAB1
 70
     6
  9
$SURFTAB2
 70
     6
  9
$SURFTYPE
 70
     6
  9
$SURFU
 70
     6
  9
$SURFV
 70
     6
  9
$UCSNAME
  2

  9
$UCSORG
 10
0.0
 20
0.0
 30
0.0
  9
$UCSXDIR
 10
1.0
 20
0.0
 30
0.0
  9
$UCSYDIR
 10
0.0
 20
1.0
 30
0.0
  9
$USERI1
 70
     0
  9
$USERI2
 70
     0
  9
$USERI3
 70
     0
  9
$USERI4
 70
     0
  9
$USERI5
 70
     0
  9
$USERR1
 40
0.0
  9
$USERR2
 40
0.0
  9
$USERR3
 40
0.0
  9
$USERR4
 40
0.0
  9
$USERR5
 40
0.0
  9
$WORLDVIEW
 70
     1
  0
ENDSEC
  0
SECTION
  2
TABLES
  0
TABLE
  2
VPORT
 70
     1
  0
VPORT
  2
*ACTIVE
 70
     0
 10
0.0
 20
0.0
 11
1.0
 21
1.0
 12
2381.77113651265
 22
210.96521245555
 13
0.0
 23
0.0
 14
0.5
 24
0.5
 15
0.5
 25
0.5
 16
0.0
 26
0.0
 36
1.0
 17
0.0
 27
0.0
 37
0.0
 40
421.9304249111
 41
1.6
 42
50.0
 43
0.0
 44
0.0
 50
0.0
 51
0.0
 71
     0
 72
   100
 73
     1
 74
     3
 75
     0
 76
     0
 77
     0
 78
     0
  0
ENDTAB
  0
TABLE
  2
LTYPE
 70
     2
  0
LTYPE
  2
CONTINUOUS
 70
     0
  3
Solid line
 72
    65
 73
     0
 40
0.0
  0
LTYPE
  2
CENTER
 70
     0
  3

 72
    65
 73
     0
 40
0.0
  0
ENDTAB
  0
TABLE
  2
LAYER
 70
     2
  0
LAYER
  2
0
 70
     0
 62
     7
  6
CONTINUOUS
  0
LAYER
  2
1
 70
     0
 62
     7
  6
CONTINUOUS
  0
ENDTAB
  0
TABLE
  2
STYLE
 70
     2
  0
STYLE
  2
STANDARD
 70
     0
 40
0.0
 41
1.0
 50
0.0
 71
     0
 42
0.2
  3
txt
  4

  0
STYLE
  2
ＭＳ_ゴシック
 70
     0
 40
0.0
 41
1.0
 50
0.0
 71
     0
 42
0.2
  3
ＭＳ ゴシック.shx
  4

  0
ENDTAB
  0
TABLE
  2
VIEW
 70
     0
  0
ENDTAB
  0
TABLE
  2
UCS
 70
     0
  0
ENDTAB
  0
ENDSEC
  0
SECTION
  2
BLOCKS
  0
BLOCK
  8
0
  2
D_FRAME_DRAWING_21
 70
     0
 10
0.0
 20
0.0
 30
0.0
  0
LINE
  5
108
  8
0
  6
CONTINUOUS
 62
     7
 10
0.0
 20
0.0
 30
0.0
 11
420.0
 21
0.0
 31
0.0
  0
LINE
  5
109
  8
0
  6
CONTINUOUS
 62
     7
 10
420.0
 20
0.0
 30
0.0
 11
420.0
 21
297.0
 31
0.0
  0
LINE
  5
10A
  8
0
  6
CONTINUOUS
 62
     7
 10
420.0
 20
297.0
 30
0.0
 11
0.0
 21
297.0
 31
0.0
  0
LINE
  5
10B
  8
0
  6
CONTINUOUS
 62
     7
 10
0.0
 20
297.0
 30
0.0
 11
0.0
 21
0.0
 31
0.0
  0
LINE
  5
10C
  8
0
  6
CONTINUOUS
 62
     7
 10
10.0
 20
10.0
 30
0.0
 11
409.9999999999999
 21
10.0
 31
0.0
  0
LINE
  5
10D
  8
0
  6
CONTINUOUS
 62
     7
 10
409.9999999999999
 20
10.0
 30
0.0
 11
409.9999999999999
 21
286.9999999999999
 31
0.0
  0
LINE
  5
10E
  8
0
  6
CONTINUOUS
 62
     7
 10
409.9999999999999
 20
286.9999999999999
 30
0.0
 11
10.00000000000006
 21
286.9999999999999
 31
0.0
  0
LINE
  5
10F
  8
0
  6
CONTINUOUS
 62
     7
 10
10.0
 20
286.9999999999999
 30
0.0
 11
10.0
 21
10.00000000000001
 31
0.0
  0
LINE
  5
110
  8
0
  6
CONTINUOUS
 62
     7
 10
210.0
 20
0.0
 30
0.0
 11
210.0
 21
10.0
 31
0.0
  0
LINE
  5
111
  8
0
  6
CONTINUOUS
 62
     7
 10
420.0
 20
148.5
 30
0.0
 11
409.9999999999999
 21
148.5
 31
0.0
  0
LINE
  5
112
  8
0
  6
CONTINUOUS
 62
     7
 10
210.0
 20
297.0
 30
0.0
 11
210.0
 21
286.9999999999999
 31
0.0
  0
LINE
  5
113
  8
0
  6
CONTINUOUS
 62
     7
 10
0.0
 20
148.5
 30
0.0
 11
10.0
 21
148.5
 31
0.0
  0
POLYLINE
  5
114
  8
0
  6
CONTINUOUS
 62
     7
 66
     1
 10
0.0
 20
0.0
 30
0.0
 70
     1
  0
VERTEX
  5
16C
  8
0
  6
CONTINUOUS
 62
     7
 10
11.0
 20
152.5
 30
0.0
  0
VERTEX
  5
16D
  8
0
  6
CONTINUOUS
 62
     7
 10
0.0
 20
148.5
 30
0.0
  0
VERTEX
  5
16E
  8
0
  6
CONTINUOUS
 62
     7
 10
11.0
 20
144.5
 30
0.0
  0
VERTEX
  5
16F
  8
0
  6
CONTINUOUS
 62
     7
 10
11.0
 20
152.5
 30
0.0
  0
SEQEND
  5
199
  8
0
  6
CONTINUOUS
 62
     7
  0
INSERT
  5
115
  8
0
 62
     7
  2
*U2
 10
0.0
 20
0.0
 30
0.0
  0
POLYLINE
  5
116
  8
0
  6
CONTINUOUS
 62
     7
 66
     1
 10
0.0
 20
0.0
 30
0.0
 70
     1
  0
VERTEX
  5
172
  8
0
  6
CONTINUOUS
 62
     7
 10
206.0
 20
11.0
 30
0.0
  0
VERTEX
  5
173
  8
0
  6
CONTINUOUS
 62
     7
 10
210.0
 20
0.0
 30
0.0
  0
VERTEX
  5
174
  8
0
  6
CONTINUOUS
 62
     7
 10
214.0
 20
11.0
 30
0.0
  0
VERTEX
  5
175
  8
0
  6
CONTINUOUS
 62
     7
 10
206.0
 20
11.0
 30
0.0
  0
SEQEND
  5
19A
  8
0
  6
CONTINUOUS
 62
     7
  0
INSERT
  5
117
  8
0
 62
     7
  2
*U3
 10
0.0
 20
0.0
 30
0.0
  0
LINE
  5
118
  8
0
  6
CONTINUOUS
 62
     7
 10
367.5
 20
286.9999999999999
 30
0.0
 11
367.5
 21
292.0
 31
0.0
  0
TEXT
  5
119
  8
0
  6
CONTINUOUS
 62
     7
 10
391.6340909090909
 20
291.8324293485057
 30
0.0
 40
3.5
  1
A
 50
270.0
  0
LINE
  5
11A
  8
0
  6
CONTINUOUS
 62
     7
 10
367.5
 20
10.0
 30
0.0
 11
367.5
 21
5.0
 31
0.0
  0
TEXT
  5
11B
  8
0
  6
CONTINUOUS
 62
     7
 10
392.9868888333125
 20
4.602272727272727
 30
0.0
 40
3.5
  1
A
  0
LINE
  5
11C
  8
0
  6
CONTINUOUS
 62
     7
 10
315.0
 20
286.9999999999999
 30
0.0
 11
315.0
 21
292.0
 31
0.0
  0
TEXT
  5
11D
  8
0
  6
CONTINUOUS
 62
     7
 10
339.1340909090909
 20
291.9745607727899
 30
0.0
 40
3.5
  1
B
 50
270.0
  0
LINE
  5
11E
  8
0
  6
CONTINUOUS
 62
     7
 10
315.0
 20
10.0
 30
0.0
 11
315.0
 21
5.0
 31
0.0
  0
TEXT
  5
11F
  8
0
  6
CONTINUOUS
 62
     7
 10
340.3447574090284
 20
4.602272727272727
 30
0.0
 40
3.5
  1
B
  0
LINE
  5
120
  8
0
  6
CONTINUOUS
 62
     7
 10
262.5
 20
286.9999999999999
 30
0.0
 11
262.5
 21
292.0
 31
0.0
  0
TEXT
  5
121
  8
0
  6
CONTINUOUS
 62
     7
 10
286.6327779167187
 20
291.9399305989747
 30
0.0
 40
3.5
  1
C
 50
270.0
  0
LINE
  5
122
  8
0
  6
CONTINUOUS
 62
     7
 10
262.5
 20
10.0
 30
0.0
 11
262.5
 21
5.0
 31
0.0
  0
TEXT
  5
123
  8
0
  6
CONTINUOUS
 62
     7
 10
287.8793875828435
 20
4.600959734900587
 30
0.0
 40
3.5
  1
C
  0
LINE
  5
124
  8
0
  6
CONTINUOUS
 62
     7
 10
210.0
 20
286.9999999999999
 30
0.0
 11
210.0
 21
292.0
 31
0.0
  0
TEXT
  5
125
  8
0
  6
CONTINUOUS
 62
     7
 10
234.1340909090909
 20
291.9745607727898
 30
0.0
 40
3.5
  1
D
 50
270.0
  0
LINE
  5
126
  8
0
  6
CONTINUOUS
 62
     7
 10
157.5
 20
286.9999999999999
 30
0.0
 11
157.5
 21
292.0
 31
0.0
  0
TEXT
  5
127
  8
0
  6
CONTINUOUS
 62
     7
 10
181.6327779167188
 20
292.027463423784
 30
0.0
 40
3.5
  1
E
 50
270.0
  0
LINE
  5
128
  8
0
  6
CONTINUOUS
 62
     7
 10
157.5
 20
10.0
 30
0.0
 11
157.5
 21
5.0
 31
0.0
  0
LINE
  5
129
  8
0
  6
CONTINUOUS
 62
     7
 10
105.0
 20
286.9999999999999
 30
0.0
 11
105.0
 21
292.0
 31
0.0
  0
TEXT
  5
12A
  8
0
  6
CONTINUOUS
 62
     7
 10
129.1327779167188
 20
291.9924502938602
 30
0.0
 40
3.5
  1
F
 50
270.0
  0
LINE
  5
12B
  8
0
  6
CONTINUOUS
 62
     7
 10
105.0
 20
10.0
 30
0.0
 11
105.0
 21
5.0
 31
0.0
  0
TEXT
  5
12C
  8
0
  6
CONTINUOUS
 62
     7
 10
130.326867887958
 20
4.600959734900587
 30
0.0
 40
3.5
  1
F
  0
LINE
  5
12D
  8
0
  6
CONTINUOUS
 62
     7
 10
52.50000000000004
 20
286.9999999999999
 30
0.0
 11
52.50000000000004
 21
292.0
 31
0.0
  0
TEXT
  5
12E
  8
0
  6
CONTINUOUS
 62
     7
 10
76.6327779167188
 20
291.9399305989746
 30
0.0
 40
3.5
  1
G
 50
270.0
  0
LINE
  5
12F
  8
0
  6
CONTINUOUS
 62
     7
 10
52.50000000000004
 20
10.0
 30
0.0
 11
52.50000000000004
 21
5.0
 31
0.0
  0
TEXT
  5
130
  8
0
  6
CONTINUOUS
 62
     7
 10
77.8793875828436
 20
4.600959734900587
 30
0.0
 40
3.5
  1
G
  0
TEXT
  5
131
  8
0
  6
CONTINUOUS
 62
     7
 10
24.13277791671879
 20
291.9749437288983
 30
0.0
 40
3.5
  1
H
 50
270.0
  0
TEXT
  5
132
  8
0
  6
CONTINUOUS
 62
     7
 10
25.34437445291988
 20
4.600959734900587
 30
0.0
 40
3.5
  1
H
  0
LINE
  5
133
  8
0
  6
CONTINUOUS
 62
     7
 10
409.9999999999999
 20
74.25
 30
0.0
 11
414.9999999999999
 21
74.25
 31
0.0
  0
TEXT
  5
134
  8
0
  6
CONTINUOUS
 62
     7
 10
412.9326059772414
 20
35.00777791671877
 30
0.0
 40
3.5
  1
1
  0
LINE
  5
135
  8
0
  6
CONTINUOUS
 62
     7
 10
10.0
 20
74.25
 30
0.0
 11
5.0
 21
74.25
 31
0.0
  0
TEXT
  5
136
  8
0
  6
CONTINUOUS
 62
     7
 10
4.600959734900584
 20
38.26171220457671
 30
0.0
 40
3.5
  1
1
 50
270.0
  0
LINE
  5
137
  8
0
  6
CONTINUOUS
 62
     7
 10
409.9999999999999
 20
148.5
 30
0.0
 11
414.9999999999999
 21
148.5
 31
0.0
  0
TEXT
  5
138
  8
0
  6
CONTINUOUS
 62
     7
 10
413.163692634738
 20
109.2577779167188
 30
0.0
 40
3.5
  1
2
  0
LINE
  5
139
  8
0
  6
CONTINUOUS
 62
     7
 10
10.0
 20
148.5
 30
0.0
 11
5.0
 21
148.5
 31
0.0
  0
TEXT
  5
13A
  8
0
  6
CONTINUOUS
 62
     7
 10
4.600959734900599
 20
112.2806255470802
 30
0.0
 40
3.5
  1
2
 50
270.0
  0
LINE
  5
13B
  8
0
  6
CONTINUOUS
 62
     7
 10
409.9999999999999
 20
222.75
 30
0.0
 11
414.9999999999999
 21
222.75
 31
0.0
  0
TEXT
  5
13C
  8
0
  6
CONTINUOUS
 62
     7
 10
413.1811991996998
 20
183.5077779167188
 30
0.0
 40
3.5
  1
3
  0
LINE
  5
13D
  8
0
  6
CONTINUOUS
 62
     7
 10
10.0
 20
222.75
 30
0.0
 11
5.0
 21
222.75
 31
0.0
  0
TEXT
  5
13E
  8
0
  6
CONTINUOUS
 62
     7
 10
4.600959734900584
 20
186.5131189821183
 30
0.0
 40
3.5
  1
3
 50
270.0
  0
TEXT
  5
13F
  8
0
  6
CONTINUOUS
 62
     7
 10
413.2351413029886
 20
257.7590909090909
 30
0.0
 40
3.5
  1
4
  0
TEXT
  5
140
  8
0
  6
CONTINUOUS
 62
     7
 10
4.60227272727272
 20
260.7091768788295
 30
0.0
 40
3.5
  1
4
 50
270.0
  0
LINE
  5
141
  8
0
  6
CONTINUOUS
 62
     7
 10
220.0
 20
10.0
 30
0.0
 11
220.0
 21
7.0
 31
0.0
  0
LINE
  5
142
  8
0
  6
CONTINUOUS
 62
     7
 10
200.0
 20
10.0
 30
0.0
 11
200.0
 21
7.0
 31
0.0
  0
LINE
  5
143
  8
0
  6
CONTINUOUS
 62
     7
 10
230.0
 20
10.0
 30
0.0
 11
230.0
 21
7.0
 31
0.0
  0
LINE
  5
144
  8
0
  6
CONTINUOUS
 62
     7
 10
190.0
 20
10.0
 30
0.0
 11
190.0
 21
7.0
 31
0.0
  0
LINE
  5
145
  8
0
  6
CONTINUOUS
 62
     7
 10
240.0
 20
10.0
 30
0.0
 11
240.0
 21
7.0
 31
0.0
  0
LINE
  5
146
  8
0
  6
CONTINUOUS
 62
     7
 10
180.0
 20
10.0
 30
0.0
 11
180.0
 21
7.0
 31
0.0
  0
LINE
  5
147
  8
0
  6
CONTINUOUS
 62
     7
 10
250.0
 20
10.0
 30
0.0
 11
250.0
 21
7.0
 31
0.0
  0
LINE
  5
148
  8
0
  6
CONTINUOUS
 62
     7
 10
170.0
 20
10.0
 30
0.0
 11
170.0
 21
7.0
 31
0.0
  0
LINE
  5
149
  8
0
  6
CONTINUOUS
 62
     7
 10
260.0
 20
10.0
 30
0.0
 11
260.0
 21
5.0
 31
0.0
  0
LINE
  5
14A
  8
0
  6
CONTINUOUS
 62
     7
 10
160.0
 20
10.0
 30
0.0
 11
160.0
 21
5.0
 31
0.0
  0
LINE
  5
14B
  8
0
  6
CONTINUOUS
 62
     7
 10
260.0
 20
10.0
 30
0.0
 11
160.0
 21
10.0
 31
0.0
  0
LINE
  5
14C
  8
0
  6
CONTINUOUS
 62
     7
 10
260.0
 20
7.0
 30
0.0
 11
160.0
 21
7.0
 31
0.0
  0
INSERT
  5
14D
  8
0
 62
     7
  2
*U4
 10
0.0
 20
0.0
 30
0.0
  0
INSERT
  5
14E
  8
0
 62
     7
  2
*U5
 10
0.0
 20
0.0
 30
0.0
  0
INSERT
  5
14F
  8
0
 62
     7
  2
*U6
 10
0.0
 20
0.0
 30
0.0
  0
INSERT
  5
150
  8
0
 62
     7
  2
*U7
 10
0.0
 20
0.0
 30
0.0
  0
ENDBLK
  8
0
  0
BLOCK
  8
0
  2
*U2
 70
     1
 10
0.0
 20
0.0
 30
0.0
  0
SOLID
  5
171
  8
0
  6
CONTINUOUS
 62
     7
 10
11.0
 20
144.5
 30
0.0
 11
6.999999999999999
 21
148.5
 31
0.0
 12
11.0
 22
152.5
 32
0.0
 13
11.0
 23
152.5
 33
0.0
  0
ENDBLK
  8
0
  0
BLOCK
  8
0
  2
*U3
 70
     1
 10
0.0
 20
0.0
 30
0.0
  0
SOLID
  5
177
  8
0
  6
CONTINUOUS
 62
     7
 10
210.0
 20
6.999999999999999
 30
0.0
 11
206.0
 21
11.0
 31
0.0
 12
210.0
 22
11.0
 32
0.0
 13
210.0
 23
11.0
 33
0.0
  0
SOLID
  5
178
  8
0
  6
CONTINUOUS
 62
     7
 10
210.0
 20
6.999999999999999
 30
0.0
 11
210.0
 21
11.0
 31
0.0
 12
214.0
 22
11.0
 32
0.0
 13
214.0
 23
11.0
 33
0.0
  0
ENDBLK
  8
0
  0
BLOCK
  8
0
  2
*U4
 70
     1
 10
0.0
 20
0.0
 30
0.0
  0
SOLID
  5
17A
  8
0
  6
CONTINUOUS
 62
     7
 10
0.0
 20
0.0
 30
0.0
 11
0.0
 21
10.0
 31
0.0
 12
2.0
 22
0.0
 32
0.0
 13
2.0
 23
0.0
 33
0.0
  0
SOLID
  5
17B
  8
0
  6
CONTINUOUS
 62
     7
 10
2.0
 20
0.0
 30
0.0
 11
0.0
 21
10.0
 31
0.0
 12
2.0
 22
10.0
 32
0.0
 13
2.0
 23
10.0
 33
0.0
  0
SOLID
  5
17C
  8
0
  6
CONTINUOUS
 62
     7
 10
2.0
 20
0.0
 30
0.0
 11
2.0
 21
2.0
 31
0.0
 12
10.0
 22
0.0
 32
0.0
 13
10.0
 23
0.0
 33
0.0
  0
SOLID
  5
17D
  8
0
  6
CONTINUOUS
 62
     7
 10
10.0
 20
0.0
 30
0.0
 11
2.0
 21
2.0
 31
0.0
 12
10.0
 22
2.0
 32
0.0
 13
10.0
 23
2.0
 33
0.0
  0
ENDBLK
  8
0
  0
BLOCK
  8
0
  2
*U5
 70
     1
 10
0.0
 20
0.0
 30
0.0
  0
SOLID
  5
17F
  8
0
  6
CONTINUOUS
 62
     7
 10
409.9999999999999
 20
0.0
 30
0.0
 11
409.9999999999999
 21
2.0
 31
0.0
 12
418.0
 22
0.0
 32
0.0
 13
418.0
 23
0.0
 33
0.0
  0
SOLID
  5
180
  8
0
  6
CONTINUOUS
 62
     7
 10
418.0
 20
0.0
 30
0.0
 11
409.9999999999999
 21
2.0
 31
0.0
 12
418.0
 22
2.0
 32
0.0
 13
418.0
 23
2.0
 33
0.0
  0
SOLID
  5
181
  8
0
  6
CONTINUOUS
 62
     7
 10
418.0
 20
0.0
 30
0.0
 11
418.0
 21
10.0
 31
0.0
 12
420.0
 22
0.0
 32
0.0
 13
420.0
 23
0.0
 33
0.0
  0
SOLID
  5
182
  8
0
  6
CONTINUOUS
 62
     7
 10
420.0
 20
0.0
 30
0.0
 11
418.0
 21
10.0
 31
0.0
 12
420.0
 22
10.0
 32
0.0
 13
420.0
 23
10.0
 33
0.0
  0
ENDBLK
  8
0
  0
BLOCK
  8
0
  2
*U6
 70
     1
 10
0.0
 20
0.0
 30
0.0
  0
SOLID
  5
184
  8
0
  6
CONTINUOUS
 62
     7
 10
409.9999999999999
 20
295.0
 30
0.0
 11
409.9999999999999
 21
297.0
 31
0.0
 12
418.0
 22
295.0
 32
0.0
 13
418.0
 23
295.0
 33
0.0
  0
SOLID
  5
185
  8
0
  6
CONTINUOUS
 62
     7
 10
418.0
 20
295.0
 30
0.0
 11
409.9999999999999
 21
297.0
 31
0.0
 12
418.0
 22
297.0
 32
0.0
 13
418.0
 23
297.0
 33
0.0
  0
SOLID
  5
186
  8
0
  6
CONTINUOUS
 62
     7
 10
418.0
 20
286.9999999999999
 30
0.0
 11
418.0
 21
297.0
 31
0.0
 12
420.0
 22
286.9999999999999
 32
0.0
 13
420.0
 23
286.9999999999999
 33
0.0
  0
SOLID
  5
187
  8
0
  6
CONTINUOUS
 62
     7
 10
420.0
 20
286.9999999999999
 30
0.0
 11
418.0
 21
297.0
 31
0.0
 12
420.0
 22
297.0
 32
0.0
 13
420.0
 23
297.0
 33
0.0
  0
ENDBLK
  8
0
  0
BLOCK
  8
0
  2
*U7
 70
     1
 10
0.0
 20
0.0
 30
0.0
  0
SOLID
  5
189
  8
0
  6
CONTINUOUS
 62
     7
 10
0.0
 20
286.9999999999999
 30
0.0
 11
0.0
 21
297.0
 31
0.0
 12
2.0
 22
286.9999999999999
 32
0.0
 13
2.0
 23
286.9999999999999
 33
0.0
  0
SOLID
  5
18A
  8
0
  6
CONTINUOUS
 62
     7
 10
2.0
 20
286.9999999999999
 30
0.0
 11
0.0
 21
297.0
 31
0.0
 12
2.0
 22
297.0
 32
0.0
 13
2.0
 23
297.0
 33
0.0
  0
SOLID
  5
18B
  8
0
  6
CONTINUOUS
 62
     7
 10
2.0
 20
295.0
 30
0.0
 11
2.0
 21
297.0
 31
0.0
 12
10.0
 22
295.0
 32
0.0
 13
10.0
 23
295.0
 33
0.0
  0
SOLID
  5
18C
  8
0
  6
CONTINUOUS
 62
     7
 10
10.0
 20
295.0
 30
0.0
 11
2.0
 21
297.0
 31
0.0
 12
10.0
 22
297.0
 32
0.0
 13
10.0
 23
297.0
 33
0.0
  0
ENDBLK
  8
0
  0
ENDSEC
  0
SECTION
  2
ENTITIES
  0
LINE
  5
70
  8
1
  6
CONTINUOUS
 62
     7
 10
4572.0726588417
 20
311.5452074299
 30
0.0
 11
4575.9474354155
 21
310.2300469124
 31
0.0
  0
LINE
  5
71
  8
1
  6
CONTINUOUS
 62
     7
 10
4716.0422730243
 20
414.1827902199
 30
0.0
 11
4710.0422730243
 21
414.1827902199
 31
0.0
  0
LINE
  5
72
  8
1
  6
CONTINUOUS
 62
     7
 10
4708.5422730243
 20
404.7854508953
 30
0.0
 11
4708.5422730243
 21
418.6827902199
 31
0.0
  0
ARC
  5
73
  8
1
  6
CONTINUOUS
 62
     7
 10
4708.0422730243
 20
416.1827902199
 30
0.0
 40
0.5
 50
270.0
 51
0.0
  0
ARC
  5
74
  8
1
  6
CONTINUOUS
 62
     7
 10
4708.0422730243
 20
406.1827902199
 30
0.0
 40
0.5
 50
0.0
 51
90.0
  0
LINE
  5
75
  8
1
  6
CONTINUOUS
 62
     7
 10
4571.7512119617
 20
304.1827902199
 30
0.0
 11
4601.7512119617
 21
304.1827902199
 31
0.0
  0
LINE
  5
76
  8
1
  6
CONTINUOUS
 62
     7
 10
4718.5422740721
 20
404.7898068092
 30
0.0
 11
4718.5422730241
 21
406.6827902199
 31
0.0
  0
LINE
  5
77
  8
1
  6
CONTINUOUS
 62
     7
 10
4725.5422730246
 20
408.6827885022
 30
0.0
 11
4725.5422730243
 21
413.6827885021
 31
0.0
  0
ARC
  5
78
  8
1
  6
CONTINUOUS
 62
     7
 10
4718.0422730243
 20
416.1827902199
 30
0.0
 40
0.5
 50
180.0
 51
270.0
  0
ARC
  5
79
  8
1
  6
CONTINUOUS
 62
     7
 10
4588.8512119617
 20
413.2827902197
 30
0.0
 40
1.2
 50
180.0
 51
270.0
  0
LINE
  5
7A
  8
1
  6
CONTINUOUS
 62
     7
 10
4720.5422730243
 20
413.6827885021
 30
0.0
 11
4725.5422730243
 21
413.6827885021
 31
0.0
  0
LINE
  5
7B
  8
1
  6
CONTINUOUS
 62
     7
 10
4724.5422730243
 20
414.1827885021
 30
0.0
 11
4725.5422730243
 21
413.6827885021
 31
0.0
  0
ARC
  5
7C
  8
1
  6
CONTINUOUS
 62
     7
 10
4713.0422730243
 20
359.1827902199
 30
0.0
 40
43.0
 50
97.49471745390002
 51
180.0
  0
ARC
  5
7D
  8
1
  6
CONTINUOUS
 62
     7
 10
4713.0422730243
 20
359.1827902199
 30
0.0
 40
43.0
 50
0.0
 51
82.5052825461
  0
LINE
  5
7E
  8
1
  6
CONTINUOUS
 62
     7
 10
4668.5422685258
 20
311.1586830613
 30
0.0
 11
4670.0422730582
 21
311.1586830613
 31
0.0
  0
LINE
  5
7F
  8
1
  6
CONTINUOUS
 62
     7
 10
4720.5422730243
 20
408.1827885022
 30
0.0
 11
4724.5422730243
 21
408.1827885022
 31
0.0
  0
ARC
  5
80
  8
1
  6
CONTINUOUS
 62
     7
 10
4713.0422730243
 20
359.1827902199
 30
0.0
 40
44.5
 50
97.49471745390002
 51
180.0
  0
LINE
  5
81
  8
1
  6
CONTINUOUS
 62
     7
 10
4705.5422730243
 20
415.6827902199
 30
0.0
 11
4705.5422730243
 21
406.6827902199
 31
0.0
  0
LINE
  5
82
  8
1
  6
CONTINUOUS
 62
     7
 10
4577.2512119617
 20
317.1827902199
 30
0.0
 11
4577.2512119617
 21
311.1827902199
 31
0.0
  0
LINE
  5
83
  8
1
  6
CONTINUOUS
 62
     7
 10
4668.5422741401
 20
304.1827932311
 30
0.0
 11
4670.0422730229
 21
304.1827932311
 31
0.0
  0
ARC
  5
84
  8
1
  6
CONTINUOUS
 62
     7
 10
4576.2512119617
 20
311.1827902199
 30
0.0
 40
1.0
 50
251.2495513582
 51
0.0
  0
ARC
  5
85
  8
1
  6
CONTINUOUS
 62
     7
 10
4713.0422730243
 20
359.1827902199
 30
0.0
 40
45.5
 50
97.4947187703
 51
180.0
  0
LINE
  5
86
  8
1
  6
CONTINUOUS
 62
     7
 10
4720.5422730243
 20
415.6827902199
 30
0.0
 11
4720.5422730243
 21
406.6827902199
 31
0.0
  0
ARC
  5
87
  8
1
  6
CONTINUOUS
 62
     7
 10
4707.0422730243
 20
404.7898072239
 30
0.0
 40
1.5
 50
277.4947174539
 51
0.0
  0
LINE
  5
88
  8
1
  6
CONTINUOUS
 62
     7
 10
4719.252598375
 20
406.6827902199
 30
0.0
 11
4719.252598375
 21
406.6822695153
 31
0.0
  0
ARC
  5
89
  8
1
  6
CONTINUOUS
 62
     7
 10
4719.0422740721
 20
404.7898070861
 30
0.0
 40
0.5
 50
180.0000317194
 51
262.5052812298
  0
LINE
  5
8A
  8
1
  6
CONTINUOUS
 62
     7
 10
4706.8319476736
 20
406.6827902199
 30
0.0
 11
4706.8319476736
 21
406.6822695152
 31
0.0
  0
LINE
  5
8B
  8
1
  6
CONTINUOUS
 62
     7
 10
4708.0422730243
 20
406.6827902199
 30
0.0
 11
4705.5422730243
 21
406.6827902199
 31
0.0
  0
LINE
  5
8C
  8
1
  6
CONTINUOUS
 62
     7
 10
4717.5422730243
 20
404.7854508953
 30
0.0
 11
4717.5422730243
 21
418.6827902199
 31
0.0
  0
LINE
  5
8D
  8
1
  6
CONTINUOUS
 62
     7
 10
4757.5422719085
 20
304.1827932311
 30
0.0
 11
4756.0422730257
 21
304.1827932311
 31
0.0
  0
LINE
  5
8E
  8
1
  6
CONTINUOUS
 62
     7
 10
4668.5422710446
 20
317.1827902191
 30
0.0
 11
4670.0422730582
 21
317.1827902191
 31
0.0
  0
LINE
  5
8F
  8
1
  6
CONTINUOUS
 62
     7
 10
4718.0422730243
 20
406.6827902199
 30
0.0
 11
4720.5422730243
 21
406.6827902199
 31
0.0
  0
LINE
  5
90
  8
1
  6
CONTINUOUS
 62
     7
 10
4716.0422730243
 20
408.6828383634
 30
0.0
 11
4710.0422730243
 21
408.6826889755
 31
0.0
  0
LINE
  5
91
  8
1
  6
CONTINUOUS
 62
     7
 10
4708.0422730243
 20
415.6827902199
 30
0.0
 11
4705.5422730243
 21
415.6827902199
 31
0.0
  0
LINE
  5
92
  8
1
  6
CONTINUOUS
 62
     7
 10
4720.5422730243
 20
414.1827885022
 30
0.0
 11
4724.5422730243
 21
414.1827885022
 31
0.0
  0
LINE
  5
93
  8
1
  6
CONTINUOUS
 62
     7
 10
4667.5422730233
 20
326.4685045056
 30
0.0
 11
4668.5422807879
 21
323.2377352748
 31
0.0
  0
LINE
  5
94
  8
1
  6
CONTINUOUS
 62
     7
 10
4716.0422730243
 20
408.1827902199
 30
0.0
 11
4710.0422730243
 21
408.1827902199
 31
0.0
  0
ARC
  5
95
  8
1
  6
CONTINUOUS
 62
     7
 10
4707.0422730243
 20
404.7898072239
 30
0.0
 40
3.0
 50
277.4947174539
 51
0.0
  0
LINE
  5
96
  8
1
  6
CONTINUOUS
 62
     7
 10
4710.0422730243
 20
404.7854508953
 30
0.0
 11
4710.0422730243
 21
418.6827902199
 31
0.0
  0
LINE
  5
97
  8
1
  6
CONTINUOUS
 62
     7
 10
4710.0422730243
 20
413.6828307223
 30
0.0
 11
4716.0422730243
 21
413.6827673927
 31
0.0
  0
LINE
  5
98
  8
1
  6
CONTINUOUS
 62
     7
 10
4707.5422719765
 20
404.7898068092
 30
0.0
 11
4707.5422730245
 21
406.6827902199
 31
0.0
  0
LINE
  5
99
  8
1
  6
CONTINUOUS
 62
     7
 10
4708.5422730243
 20
418.6827902199
 30
0.0
 11
4710.0422730243
 21
418.6827902199
 31
0.0
  0
LINE
  5
9A
  8
1
  6
CENTER
 62
     7
 10
4695.7422730243
 20
411.1827902199
 30
0.0
 11
4730.5422730484
 21
411.1827902199
 31
0.0
  0
LINE
  5
9C
  8
1
  6
CONTINUOUS
 62
     7
 10
4668.5422886054
 20
359.1827902199
 30
0.0
 11
4668.5422656091
 21
304.1827902199
 31
0.0
  0
LINE
  5
9D
  8
1
  6
CONTINUOUS
 62
     7
 10
4670.0422730243
 20
359.1827902199
 30
0.0
 11
4670.042273058
 21
304.1827902199
 31
0.0
  0
ARC
  5
9E
  8
1
  6
CONTINUOUS
 62
     7
 10
4584.6512119617
 20
409.0827902197
 30
0.0
 40
1.2
 50
0.0
 51
90.0
  0
LINE
  5
9F
  8
1
  6
CONTINUOUS
 62
     7
 10
4725.5422730243
 20
408.6827885022
 30
0.0
 11
4720.5422730243
 21
408.6827885022
 31
0.0
  0
ARC
  5
A0
  8
1
  6
CONTINUOUS
 62
     7
 10
4588.8512119617
 20
409.0827902199
 30
0.0
 40
1.2
 50
90.0
 51
180.0
  0
LINE
  5
A1
  8
1
  6
CONTINUOUS
 62
     7
 10
4596.2512119604
 20
317.1827902199
 30
0.0
 11
4596.2512119605
 21
311.1827902199
 31
0.0
  0
LINE
  5
A2
  8
1
  6
CONTINUOUS
 62
     7
 10
4667.5422730233
 20
326.4685045056
 30
0.0
 11
4667.5422730233
 21
359.1827902199
 31
0.0
  0
LINE
  5
A3
  8
1
  6
CONTINUOUS
 62
     7
 10
4718.0422730243
 20
415.6827902199
 30
0.0
 11
4720.5422730243
 21
415.6827902199
 31
0.0
  0
LINE
  5
A4
  8
1
  6
CONTINUOUS
 62
     7
 10
4757.5422775228
 20
311.1586830613
 30
0.0
 11
4756.0422729904
 21
311.1586830613
 31
0.0
  0
ARC
  5
A5
  8
1
  6
CONTINUOUS
 62
     7
 10
4719.0422730243
 20
404.7898072239
 30
0.0
 40
3.0
 50
180.0
 51
262.5052825461
  0
LINE
  5
A6
  8
1
  6
CONTINUOUS
 62
     7
 10
4758.5422730253
 20
326.4685045056
 30
0.0
 11
4758.5422730253
 21
359.1827902199
 31
0.0
  0
LINE
  5
A7
  8
1
  6
CONTINUOUS
 62
     7
 10
4673.0422730243
 20
316.1827902539
 30
0.0
 11
4673.0422730243
 21
304.1827902539
 31
0.0
  0
ARC
  5
A8
  8
1
  6
CONTINUOUS
 62
     7
 10
4713.0422730243
 20
359.1827902199
 30
0.0
 40
44.5
 50
0.0
 51
82.5052825461
  0
LINE
  5
A9
  8
1
  6
CONTINUOUS
 62
     7
 10
4717.5422730243
 20
418.6827902199
 30
0.0
 11
4716.0422730243
 21
418.6827902199
 31
0.0
  0
ARC
  5
AA
  8
1
  6
CONTINUOUS
 62
     7
 10
4707.0422719765
 20
404.7898070861
 30
0.0
 40
0.5
 50
277.4947187702
 51
0.0
  0
LINE
  5
AB
  8
1
  6
CONTINUOUS
 62
     7
 10
4716.0422730243
 20
404.7854508953
 30
0.0
 11
4716.0422730243
 21
418.6827902199
 31
0.0
  0
LINE
  5
AC
  8
1
  6
CONTINUOUS
 62
     7
 10
4673.0422730243
 20
308.389897035
 30
0.0
 11
4753.0422730243
 21
308.389897035
 31
0.0
  0
LINE
  5
AD
  8
1
  6
CONTINUOUS
 62
     7
 10
4673.0422730243
 20
304.1827902539
 30
0.0
 11
4753.0422730243
 21
304.1827902539
 31
0.0
  0
LINE
  5
AE
  8
1
  6
CONTINUOUS
 62
     7
 10
4753.0422730243
 20
316.1827902539
 30
0.0
 11
4673.0422730243
 21
316.1827902539
 31
0.0
  0
LINE
  5
AF
  8
1
  6
CONTINUOUS
 62
     7
 10
4757.542275004
 20
317.1827902191
 30
0.0
 11
4756.0422729904
 21
317.1827902191
 31
0.0
  0
ARC
  5
B0
  8
1
  6
CONTINUOUS
 62
     7
 10
4719.0422730243
 20
404.7898072239
 30
0.0
 40
1.5
 50
180.0
 51
262.5052825461
  0
LINE
  5
B1
  8
1
  6
CONTINUOUS
 62
     7
 10
4753.0422730243
 20
309.1827902539
 30
0.0
 11
4673.0422730243
 21
309.1827902539
 31
0.0
  0
LINE
  5
B2
  8
1
  6
CONTINUOUS
 62
     7
 10
4757.5422574432
 20
359.1827902199
 30
0.0
 11
4757.5422804395
 21
304.1827902199
 31
0.0
  0
ARC
  5
B3
  8
1
  6
CONTINUOUS
 62
     7
 10
4713.0422730243
 20
359.1827902199
 30
0.0
 40
45.5
 50
0.0
 51
82.5052812297
  0
ARC
  5
B4
  8
1
  6
CONTINUOUS
 62
     7
 10
4718.0422730243
 20
406.1827902199
 30
0.0
 40
0.5
 50
90.0
 51
180.0
  0
LINE
  5
B5
  8
1
  6
CONTINUOUS
 62
     7
 10
4758.5422730253
 20
326.4685045056
 30
0.0
 11
4757.5422652607
 21
323.2377352748
 31
0.0
  0
LINE
  5
B6
  8
1
  6
CONTINUOUS
 62
     7
 10
4673.0422730243
 20
309.9756834727
 30
0.0
 11
4753.0422730243
 21
309.9756834727
 31
0.0
  0
LINE
  5
B7
  8
1
  6
CONTINUOUS
 62
     7
 10
4756.0422730243
 20
359.1827902199
 30
0.0
 11
4756.0422729906
 21
304.1827902199
 31
0.0
  0
ARC
  5
B8
  8
1
  6
CONTINUOUS
 62
     7
 10
4566.7512119617
 20
314.1827902223
 30
0.0
 40
1.0
 50
90.0
 51
180.0
  0
LINE
  5
B9
  8
1
  6
CONTINUOUS
 62
     7
 10
4608.7512119617
 20
308.3898970034
 30
0.0
 11
4608.7512119617
 21
304.1827902223
 31
0.0
  0
ARC
  5
BA
  8
1
  6
CONTINUOUS
 62
     7
 10
4606.7512119617
 20
314.1827902223
 30
0.0
 40
2.0
 50
0.0
 51
90.0
  0
LINE
  5
BB
  8
1
  6
CONTINUOUS
 62
     7
 10
4608.7512119617
 20
304.1827902223
 30
0.0
 11
4607.7512119617
 21
304.1827902223
 31
0.0
  0
ARC
  5
BC
  8
1
  6
CONTINUOUS
 62
     7
 10
4606.7512119617
 20
314.1827902223
 30
0.0
 40
1.0
 50
0.0
 51
90.0
  0
ARC
  5
BD
  8
1
  6
CONTINUOUS
 62
     7
 10
4709.7422730243
 20
411.1827885022
 30
0.0
 40
9.0
 50
162.0660707094
 51
197.9339292906
  0
LINE
  5
BE
  8
1
  6
CONTINUOUS
 62
     7
 10
4564.7512119617
 20
314.1827902223
 30
0.0
 11
4564.7512119617
 21
309.9756834411
 31
0.0
  0
LINE
  5
BF
  8
1
  6
CONTINUOUS
 62
     7
 10
4606.8976585711
 20
308.8292368317
 30
0.0
 11
4607.7512119617
 21
307.9756834411
 31
0.0
  0
LINE
  5
C0
  8
1
  6
CONTINUOUS
 62
     7
 10
4608.7512119617
 20
314.1827902223
 30
0.0
 11
4608.7512119617
 21
309.9756834411
 31
0.0
  0
LINE
  5
C1
  8
1
  6
CONTINUOUS
 62
     7
 10
4608.0997400991
 20
309.3242115785
 30
0.0
 11
4608.7512119617
 21
309.9756834411
 31
0.0
  0
LINE
  5
C2
  8
1
  6
CONTINUOUS
 62
     7
 10
4567.7512119617
 20
403.6827902199
 30
0.0
 11
4605.7512119617
 21
403.6827902199
 31
0.0
  0
LINE
  5
C3
  8
1
  6
CONTINUOUS
 62
     7
 10
4597.5726588405
 20
310.2358626074
 30
0.0
 11
4601.5424482879
 21
311.1366491796
 31
0.0
  0
LINE
  5
C4
  8
1
  6
CONTINUOUS
 62
     7
 10
4577.2512120232
 20
315.1827902223
 30
0.0
 11
4566.7512119617
 21
315.1827902223
 31
0.0
  0
ARC
  5
C5
  8
1
  6
CONTINUOUS
 62
     7
 10
4607.2512119617
 20
309.1827902223
 30
0.0
 40
0.5
 50
135.0
 51
225.0
  0
LINE
  5
C6
  8
1
  6
CONTINUOUS
 62
     7
 10
4606.8976585711
 20
309.5363436128
 30
0.0
 11
4607.7512119617
 21
310.3898970034
 31
0.0
  0
LINE
  5
C7
  8
1
  6
CONTINUOUS
 62
     7
 10
4705.5422730243
 20
416.7253510864
 30
0.0
 11
4701.2402737645
 21
416.7253510864
 31
0.0
  0
LINE
  5
C8
  8
1
  6
CONTINUOUS
 62
     7
 10
4606.7512119617
 20
316.1827902223
 30
0.0
 11
4596.2512119002
 21
316.1827902223
 31
0.0
  0
ARC
  5
C9
  8
1
  6
CONTINUOUS
 62
     7
 10
4597.2512119605
 20
311.1827902199
 30
0.0
 40
1.0
 50
180.0
 51
288.7504486418
  0
ARC
  5
CA
  8
1
  6
CONTINUOUS
 62
     7
 10
4601.7512119617
 20
310.1586830613
 30
0.0
 40
1.0
 50
5.997972041500001
 51
101.4952707111
  0
LINE
  5
CB
  8
1
  6
CENTER
 62
     7
 10
4580.7286689255
 20
411.1827902199
 30
0.0
 11
4593.3589356488
 21
411.1827902199
 31
0.0
  0
LINE
  5
CC
  8
1
  6
CENTER
 62
     7
 10
4713.0422730243
 20
421.9304249111
 30
0.0
 11
4713.0422730243
 21
296.6827902199
 31
0.0
  0
LINE
  5
CD
  8
1
  6
CENTER
 62
     7
 10
4662.7512119617
 20
359.1827902199
 30
0.0
 11
4763.5422730253
 21
359.1827902199
 31
0.0
  0
LINE
  5
CE
  8
1
  6
CONTINUOUS
 62
     7
 10
4701.2402737645
 20
405.6402259179
 30
0.0
 11
4701.0376540743
 21
405.9911735159
 31
0.0
  0
ARC
  5
CF
  8
1
  6
CONTINUOUS
 62
     7
 10
4702.9470271968
 20
407.0935506022
 30
0.0
 40
2.2047541725
 50
143.2889572925
 51
210.0000000002
  0
LINE
  5
D0
  8
1
  6
CONTINUOUS
 62
     7
 10
4701.1795629789
 20
408.4115078093
 30
0.0
 11
4705.5422730243
 21
408.4115078093
 31
0.0
  0
LINE
  5
D1
  8
1
  6
CENTER
 62
     7
 10
4586.7512119617
 20
421.9304249111
 30
0.0
 11
4586.7512119617
 21
296.6827902199
 31
0.0
  0
LINE
  5
D2
  8
1
  6
CONTINUOUS
 62
     7
 10
4701.2402737645
 20
416.7253510864
 30
0.0
 11
4701.0376540743
 21
416.3744034884
 31
0.0
  0
LINE
  5
D3
  8
1
  6
CONTINUOUS
 62
     7
 10
4705.5422730243
 20
416.7253510864
 30
0.0
 11
4705.5422730243
 21
405.6402259179
 31
0.0
  0
ARC
  5
D4
  8
1
  6
CONTINUOUS
 62
     7
 10
4702.9470271968
 20
415.2720264021
 30
0.0
 40
2.2047541725
 50
149.9999999999
 51
216.7110427075
  0
LINE
  5
D5
  8
1
  6
CONTINUOUS
 62
     7
 10
4701.1795629789
 20
413.9540691951
 30
0.0
 11
4705.5422730243
 21
413.9540691951
 31
0.0
  0
LINE
  5
D6
  8
1
  6
CONTINUOUS
 62
     7
 10
4570.7512119617
 20
310.5982798174
 30
0.0
 11
4570.7512119617
 21
305.1827902199
 31
0.0
  0
LINE
  5
D7
  8
1
  6
CONTINUOUS
 62
     7
 10
4705.5422730243
 20
405.6402259179
 30
0.0
 11
4701.2402737645
 21
405.6402259179
 31
0.0
  0
LINE
  5
D8
  8
1
  6
CONTINUOUS
 62
     7
 10
4602.7512119617
 20
310.2637515111
 30
0.0
 11
4602.7512119617
 21
305.1827902199
 31
0.0
  0
LINE
  5
D9
  8
1
  6
CONTINUOUS
 62
     7
 10
4700.7422730243
 20
407.0935506022
 30
0.0
 11
4700.7422730243
 21
415.2720264021
 31
0.0
  0
ARC
  5
DA
  8
1
  6
CONTINUOUS
 62
     7
 10
4571.7512119617
 20
310.5982798174
 30
0.0
 40
1.0
 50
71.24955135819998
 51
180.0
  0
LINE
  5
DB
  8
1
  6
CONTINUOUS
 62
     7
 10
4564.7512119617
 20
304.1827902223
 30
0.0
 11
4565.7512119617
 21
304.1827902223
 31
0.0
  0
LINE
  5
DC
  8
1
  6
CONTINUOUS
 62
     7
 10
4607.7512119617
 20
314.1827902223
 30
0.0
 11
4607.7512119617
 21
310.3898970034
 31
0.0
  0
LINE
  5
DD
  8
1
  6
CONTINUOUS
 62
     7
 10
4577.2512120232
 20
316.1827902223
 30
0.0
 11
4566.7512119617
 21
316.1827902223
 31
0.0
  0
LINE
  5
DE
  8
1
  6
CONTINUOUS
 62
     7
 10
4753.0422730243
 20
316.1827902539
 30
0.0
 11
4753.0422730243
 21
304.1827902539
 31
0.0
  0
ARC
  5
DF
  8
1
  6
CONTINUOUS
 62
     7
 10
4608.2411614553
 20
309.1827902223
 30
0.0
 40
0.2
 50
135.0
 51
224.9999999995
  0
LINE
  5
E0
  8
1
  6
CONTINUOUS
 62
     7
 10
4564.7512119617
 20
308.3898970034
 30
0.0
 11
4564.7512119617
 21
304.1827902223
 31
0.0
  0
LINE
  5
E1
  8
1
  6
CONTINUOUS
 62
     7
 10
4607.7512119617
 20
307.9756834411
 30
0.0
 11
4607.7512119617
 21
304.1827902223
 31
0.0
  0
LINE
  5
E2
  8
1
  6
CONTINUOUS
 62
     7
 10
4585.8512119617
 20
407.1827902199
 30
0.0
 11
4585.8512119617
 21
409.0827902197
 31
0.0
  0
LINE
  5
E3
  8
1
  6
CONTINUOUS
 62
     7
 10
4608.0997400991
 20
309.041368866
 30
0.0
 11
4608.7512119617
 21
308.3898970034
 31
0.0
  0
ARC
  5
E4
  8
1
  6
CONTINUOUS
 62
     7
 10
4566.7512119617
 20
314.1827902223
 30
0.0
 40
2.0
 50
90.0
 51
180.0
  0
LINE
  5
E5
  8
1
  6
CONTINUOUS
 62
     7
 10
4588.8512119617
 20
412.0827902199
 30
0.0
 11
4590.7512119617
 21
412.0827902199
 31
0.0
  0
LINE
  5
E6
  8
1
  6
CONTINUOUS
 62
     7
 10
4582.7512119617
 20
410.2827902199
 30
0.0
 11
4582.7512119617
 21
412.0827902199
 31
0.0
  0
LINE
  5
E7
  8
1
  6
CONTINUOUS
 62
     7
 10
4565.7512119617
 20
307.9756834411
 30
0.0
 11
4565.7512119617
 21
304.1827902223
 31
0.0
  0
LINE
  5
E8
  8
1
  6
CONTINUOUS
 62
     7
 10
4585.8512119617
 20
413.2827902199
 30
0.0
 11
4585.8512119617
 21
415.1827902199
 31
0.0
  0
LINE
  5
E9
  8
1
  6
CONTINUOUS
 62
     7
 10
4592.2112119617
 20
408.0304577502
 30
0.0
 11
4586.7512119617
 21
404.8781252804
 31
0.0
  0
LINE
  5
EA
  8
1
  6
CONTINUOUS
 62
     7
 10
4586.7512119617
 20
417.4874551595
 30
0.0
 11
4581.2912119617
 21
414.3351226897
 31
0.0
  0
LINE
  5
EB
  8
1
  6
CONTINUOUS
 62
     7
 10
4590.7512119617
 20
410.2827902199
 30
0.0
 11
4588.8512119617
 21
410.2827902199
 31
0.0
  0
LINE
  5
EC
  8
1
  6
CONTINUOUS
 62
     7
 10
4586.7512119617
 20
404.8781252804
 30
0.0
 11
4581.2912119617
 21
408.0304577502
 31
0.0
  0
LINE
  5
ED
  8
1
  6
CONTINUOUS
 62
     7
 10
4566.6047653523
 20
309.5363436128
 30
0.0
 11
4565.7512119617
 21
310.3898970034
 31
0.0
  0
LINE
  5
EE
  8
1
  6
CONTINUOUS
 62
     7
 10
4565.4026838243
 20
309.041368866
 30
0.0
 11
4564.7512119617
 21
308.3898970034
 31
0.0
  0
LINE
  5
EF
  8
1
  6
CONTINUOUS
 62
     7
 10
4582.7512119617
 20
412.0827902199
 30
0.0
 11
4584.6512119617
 21
412.0827902199
 31
0.0
  0
LINE
  5
F0
  8
1
  6
CONTINUOUS
 62
     7
 10
4587.6512119617
 20
415.1827902199
 30
0.0
 11
4587.6512119617
 21
413.2827902197
 31
0.0
  0
LINE
  5
F1
  8
1
  6
CONTINUOUS
 62
     7
 10
4565.4026838243
 20
309.3242115785
 30
0.0
 11
4564.7512119617
 21
309.9756834411
 31
0.0
  0
ARC
  5
F2
  8
1
  6
CONTINUOUS
 62
     7
 10
4571.7512119617
 20
305.1827902199
 30
0.0
 40
1.0
 50
180.0
 51
270.0
  0
LINE
  5
F3
  8
1
  6
CONTINUOUS
 62
     7
 10
4725.5422730243
 20
408.6827885022
 30
0.0
 11
4724.5422730243
 21
408.1827885022
 31
0.0
  0
CIRCLE
  5
F4
  8
1
  6
CONTINUOUS
 62
     7
 10
4586.7512119617
 20
411.1827902199
 30
0.0
 40
5.1
  0
LINE
  5
F5
  8
1
  6
CONTINUOUS
 62
     7
 10
4584.6512119617
 20
410.2827902199
 30
0.0
 11
4582.7512119617
 21
410.2827902199
 31
0.0
  0
ARC
  5
F6
  8
1
  6
CONTINUOUS
 62
     7
 10
4566.2512119617
 20
309.1827902223
 30
0.0
 40
0.5
 50
314.9999999999
 51
45.00000000009999
  0
LINE
  5
F7
  8
1
  6
CONTINUOUS
 62
     7
 10
4592.2112119617
 20
408.0304577502
 30
0.0
 11
4592.2112119617
 21
414.3351226897
 31
0.0
  0
ARC
  5
F8
  8
1
  6
CONTINUOUS
 62
     7
 10
4601.7512119617
 20
305.1827902199
 30
0.0
 40
1.0
 50
270.0
 51
0.0
  0
ARC
  5
F9
  8
1
  6
CONTINUOUS
 62
     7
 10
4584.6512119617
 20
413.2827902199
 30
0.0
 40
1.2
 50
270.0
 51
0.0
  0
LINE
  5
FA
  8
1
  6
CONTINUOUS
 62
     7
 10
4724.5422730243
 20
414.1827885022
 30
0.0
 11
4724.5422730243
 21
408.1827885022
 31
0.0
  0
LINE
  5
FB
  8
1
  6
CONTINUOUS
 62
     7
 10
4606.7512119617
 20
315.1827902223
 30
0.0
 11
4596.2512119002
 21
315.1827902223
 31
0.0
  0
LINE
  5
FC
  8
1
  6
CONTINUOUS
 62
     7
 10
4565.7512119617
 20
314.1827902223
 30
0.0
 11
4565.7512119617
 21
310.3898970034
 31
0.0
  0
LINE
  5
FD
  8
1
  6
CONTINUOUS
 62
     7
 10
4581.2912119617
 20
414.3351226897
 30
0.0
 11
4581.2912119617
 21
408.0304577502
 31
0.0
  0
LINE
  5
FE
  8
1
  6
CONTINUOUS
 62
     7
 10
4590.7512119617
 20
412.0827902199
 30
0.0
 11
4590.7512119617
 21
410.2827902199
 31
0.0
  0
ARC
  5
FF
  8
1
  6
CONTINUOUS
 62
     7
 10
4565.261262468
 20
309.1827902223
 30
0.0
 40
0.2
 50
315.0000000005
 51
45.0
  0
LINE
  5
100
  8
1
  6
CONTINUOUS
 62
     7
 10
4592.2112119617
 20
414.3351226897
 30
0.0
 11
4586.7512119617
 21
417.4874551595
 31
0.0
  0
LINE
  5
101
  8
1
  6
CONTINUOUS
 62
     7
 10
4585.8512119617
 20
415.1827902199
 30
0.0
 11
4587.6512119617
 21
415.1827902199
 31
0.0
  0
LINE
  5
102
  8
1
  6
CONTINUOUS
 62
     7
 10
4587.6512119617
 20
409.0827902199
 30
0.0
 11
4587.6512119617
 21
407.1827902199
 31
0.0
  0
LINE
  5
103
  8
1
  6
CONTINUOUS
 62
     7
 10
4587.6512119617
 20
407.1827902199
 30
0.0
 11
4585.8512119617
 21
407.1827902199
 31
0.0
  0
LINE
  5
104
  8
1
  6
CONTINUOUS
 62
     7
 10
4566.6047653523
 20
308.8292368317
 30
0.0
 11
4565.7512119617
 21
307.9756834411
 31
0.0
  0
TEXT
  5
105
  8
1
  6
CONTINUOUS
 62
     7
 10
4737.025594225142
 20
276.6182888181818
 30
0.0
 40
3.5
  1
ＤＣＦ－６５Ｆ
 41
0.609191
 51
15.0
  0
INSERT
  5
107
  8
0
 62
     7
  2
D_FRAME_DRAWING_21
 10
0.0
 20
0.0
 30
0.0
  0
LINE
  5
151
  8
1
  6
CONTINUOUS
 62
     7
 10
4569.090957923856
 20
411.5433613193917
 30
0.0
 11
4567.7512119617
 21
409.2228532437029
 31
0.0
  0
ARC
  5
152
  8
1
  6
CONTINUOUS
 62
     7
 10
4595.7512119617
 20
406.543361319392
 30
0.0
 40
10.0
 50
29.99999999999977
 51
63.25631604959642
  0
LINE
  5
153
  8
1
  6
CONTINUOUS
 62
     7
 10
4602.2512119617
 20
321.0951350136512
 30
0.0
 11
4602.2512119617
 21
414.1427033961774
 31
0.0
  0
LINE
  5
154
  8
1
  6
CONTINUOUS
 62
     7
 10
4568.751211961704
 20
410.9549040512789
 30
0.0
 11
4568.751211961896
 21
324.2829343579291
 31
0.0
  0
ARC
  5
155
  8
1
  6
CONTINUOUS
 62
     7
 10
4586.7512119617
 20
388.6827902199
 30
0.0
 40
30.00000000000025
 50
63.2563160495964
 51
90.0
  0
LINE
  5
156
  8
1
  6
CONTINUOUS
 62
     7
 10
4567.7512119617
 20
326.0149851658365
 30
0.0
 11
4567.7512119617
 21
409.2228532437029
 31
0.0
  0
ARC
  5
157
  8
1
  6
CONTINUOUS
 62
     7
 10
4586.7512119617
 20
388.6827902199
 30
0.0
 40
30.00000000000025
 50
90.0
 51
116.7436839504036
  0
LINE
  5
158
  8
1
  6
CONTINUOUS
 62
     7
 10
4605.7512119617
 20
326.0149851661257
 30
0.0
 11
4605.7512119617
 21
409.2228532437029
 31
0.0
  0
LINE
  5
159
  8
1
  6
CONTINUOUS
 62
     7
 10
4596.2512119595
 20
317.1827902191001
 30
0.0
 11
4601.091141874696
 21
320.2395880595687
 31
0.0
  0
LINE
  5
15A
  8
1
  6
CONTINUOUS
 62
     7
 10
4604.411465999545
 20
323.6944770904369
 30
0.0
 11
4605.7512119617
 21
326.0149851661257
 31
0.0
  0
LINE
  5
15B
  8
1
  6
CONTINUOUS
 62
     7
 10
4569.090957923856
 20
323.6944770901477
 30
0.0
 11
4567.7512119617
 21
326.0149851658365
 31
0.0
  0
LINE
  5
15C
  8
1
  6
CONTINUOUS
 62
     7
 10
4604.751211961706
 20
410.9549040512609
 30
0.0
 11
4604.751211961994
 21
324.2829343590647
 31
0.0
  0
ARC
  5
15D
  8
1
  6
CONTINUOUS
 62
     7
 10
4595.7512119617
 20
328.6944770904366
 30
0.0
 40
10.0
 50
302.2756443085869
 51
330.0000000000002
  0
ARC
  5
15E
  8
1
  6
CONTINUOUS
 62
     7
 10
4577.751211961699
 20
406.543361319392
 30
0.0
 40
10.0
 50
116.7436839504036
 51
150.0000000000003
  0
LINE
  5
15F
  8
1
  6
CONTINUOUS
 62
     7
 10
4571.2512119608
 20
321.0951350141316
 30
0.0
 11
4571.2512119608
 21
414.1427033954078
 31
0.0
  0
LINE
  5
160
  8
1
  6
CONTINUOUS
 62
     7
 10
4577.2512119617
 20
317.1827902199001
 30
0.0
 11
4572.41128204833
 21
320.2395880595163
 31
0.0
  0
LINE
  5
161
  8
1
  6
CONTINUOUS
 62
     7
 10
4604.411465999545
 20
411.543361319392
 30
0.0
 11
4605.7512119617
 21
409.2228532437029
 31
0.0
  0
ARC
  5
162
  8
1
  6
CONTINUOUS
 62
     7
 10
4577.751211961699
 20
328.6944770901474
 30
0.0
 40
10.0
 50
209.9999999999998
 51
237.7243556888729
  0
ENDSEC
  0
EOF
