  0
SECTION
  2
HEADER
  9
$ACADVER
  1
AC1006
  9
$DWGCODEPAGE
  3
ansi_932
  9
$INSBASE
 10
0.0
 20
0.0
 30
0.0
  9
$EXTMIN
 10
0.0
 20
0.0
  9
$EXTMAX
 10
4986.5458678536
 20
476.6943632107003
  9
$LIMMIN
 10
0.0
 20
0.0
  9
$LIMMAX
 10
12.0
 20
9.0
  9
$ORTHOMODE
 70
     0
  9
$REGENMODE
 70
     1
  9
$FILLMODE
 70
     1
  9
$QTEXTMODE
 70
     0
  9
$MIRRTEXT
 70
     1
  9
$DRAGMODE
 70
     2
  9
$LTSCALE
 40
1.0
  9
$OSMODE
 70
    37
  9
$ATTMODE
 70
     1
  9
$TEXTSIZE
 40
0.2
  9
$TRACEWID
 40
0.05
  9
$TEXTSTYLE
  7
STANDARD
  9
$CLAYER
  8
0
  9
$CELTYPE
  6
BYLAYER
  9
$CECOLOR
 62
   256
  9
$DIMSCALE
 40
1.0
  9
$DIMASZ
 40
3.0
  9
$DIMEXO
 40
0.0625
  9
$DIMDLI
 40
0.38
  9
$DIMRND
 40
0.0
  9
$DIMDLE
 40
0.0
  9
$DIMEXE
 40
1.5
  9
$DIMTP
 40
0.0
  9
$DIMTM
 40
0.0
  9
$DIMTXT
 40
3.5
  9
$DIMCEN
 40
0.09
  9
$DIMTSZ
 40
0.0
  9
$DIMTOL
 70
     0
  9
$DIMLIM
 70
     0
  9
$DIMTIH
 70
     1
  9
$DIMTOH
 70
     1
  9
$DIMSE1
 70
     0
  9
$DIMSE2
 70
     0
  9
$DIMTAD
 70
     1
  9
$DIMZIN
 70
     0
  9
$DIMBLK
  1

  9
$DIMASO
 70
     1
  9
$DIMSHO
 70
     1
  9
$DIMPOST
  1

  9
$DIMAPOST
  1

  9
$DIMALT
 70
     0
  9
$DIMALTD
 70
     2
  9
$DIMALTF
 40
25.4
  9
$DIMLFAC
 40
1.0
  9
$DIMTOFL
 70
     0
  9
$DIMTVP
 40
0.0
  9
$DIMTIX
 70
     0
  9
$DIMSOXD
 70
     0
  9
$DIMSAH
 70
     0
  9
$DIMBLK1
  1

  9
$DIMBLK2
  1

  9
$LUNITS
 70
     2
  9
$LUPREC
 70
     4
  9
$SKETCHINC
 40
0.1
  9
$FILLETRAD
 40
0.5
  9
$AUNITS
 70
     0
  9
$AUPREC
 70
     0
  9
$MENU
  1
.
  9
$ELEVATION
 40
0.0
  9
$THICKNESS
 40
0.0
  9
$LIMCHECK
 70
     0
  9
$CHAMFERA
 40
0.0
  9
$CHAMFERB
 40
0.0
  9
$SKPOLY
 70
     0
  9
$TDCREATE
 40
2460286.591564444
  9
$TDUPDATE
 40
2460286.591564826
  9
$TDINDWG
 40
0.0000000116
  9
$TDUSRTIMER
 40
0.0000000116
  9
$USRTIMER
 70
     1
  9
$ANGBASE
 50
0.0
  9
$ANGDIR
 70
     0
  9
$PDMODE
 70
     0
  9
$PDSIZE
 40
0.0
  9
$PLINEWID
 40
0.0
  9
$COORDS
 70
     1
  9
$SPLFRAME
 70
     0
  9
$SPLINETYPE
 70
     6
  9
$SPLINESEGS
 70
     8
  9
$ATTDIA
 70
     0
  9
$ATTREQ
 70
     1
  9
$HANDLING
 70
     1
  9
$HANDSEED
  5
19C
  9
$SURFTAB1
 70
     6
  9
$SURFTAB2
 70
     6
  9
$SURFTYPE
 70
     6
  9
$SURFU
 70
     6
  9
$SURFV
 70
     6
  9
$UCSNAME
  2

  9
$UCSORG
 10
0.0
 20
0.0
 30
0.0
  9
$UCSXDIR
 10
1.0
 20
0.0
 30
0.0
  9
$UCSYDIR
 10
0.0
 20
1.0
 30
0.0
  9
$USERI1
 70
     0
  9
$USERI2
 70
     0
  9
$USERI3
 70
     0
  9
$USERI4
 70
     0
  9
$USERI5
 70
     0
  9
$USERR1
 40
0.0
  9
$USERR2
 40
0.0
  9
$USERR3
 40
0.0
  9
$USERR4
 40
0.0
  9
$USERR5
 40
0.0
  9
$WORLDVIEW
 70
     1
  0
ENDSEC
  0
SECTION
  2
TABLES
  0
TABLE
  2
VPORT
 70
     1
  0
VPORT
  2
*ACTIVE
 70
     0
 10
0.0
 20
0.0
 11
1.0
 21
1.0
 12
2493.2729339268
 22
238.3471816053502
 13
0.0
 23
0.0
 14
0.5
 24
0.5
 15
0.5
 25
0.5
 16
0.0
 26
0.0
 36
1.0
 17
0.0
 27
0.0
 37
0.0
 40
476.6943632107003
 41
1.6
 42
50.0
 43
0.0
 44
0.0
 50
0.0
 51
0.0
 71
     0
 72
   100
 73
     1
 74
     3
 75
     0
 76
     0
 77
     0
 78
     0
  0
ENDTAB
  0
TABLE
  2
LTYPE
 70
     2
  0
LTYPE
  2
CONTINUOUS
 70
     0
  3
Solid line
 72
    65
 73
     0
 40
0.0
  0
LTYPE
  2
CENTER
 70
     0
  3

 72
    65
 73
     0
 40
0.0
  0
ENDTAB
  0
TABLE
  2
LAYER
 70
     2
  0
LAYER
  2
0
 70
     0
 62
     7
  6
CONTINUOUS
  0
LAYER
  2
1
 70
     0
 62
     7
  6
CONTINUOUS
  0
ENDTAB
  0
TABLE
  2
STYLE
 70
     2
  0
STYLE
  2
STANDARD
 70
     0
 40
0.0
 41
1.0
 50
0.0
 71
     0
 42
0.2
  3
txt
  4

  0
STYLE
  2
ＭＳ_ゴシック
 70
     0
 40
0.0
 41
1.0
 50
0.0
 71
     0
 42
0.2
  3
ＭＳ ゴシック.shx
  4

  0
ENDTAB
  0
TABLE
  2
VIEW
 70
     0
  0
ENDTAB
  0
TABLE
  2
UCS
 70
     0
  0
ENDTAB
  0
ENDSEC
  0
SECTION
  2
BLOCKS
  0
BLOCK
  8
0
  2
D_FRAME_DRAWING_21
 70
     0
 10
0.0
 20
0.0
 30
0.0
  0
LINE
  5
85
  8
0
  6
CONTINUOUS
 62
     7
 10
0.0
 20
0.0
 30
0.0
 11
420.0
 21
0.0
 31
0.0
  0
LINE
  5
86
  8
0
  6
CONTINUOUS
 62
     7
 10
420.0
 20
0.0
 30
0.0
 11
420.0
 21
297.0
 31
0.0
  0
LINE
  5
87
  8
0
  6
CONTINUOUS
 62
     7
 10
420.0
 20
297.0
 30
0.0
 11
0.0
 21
297.0
 31
0.0
  0
LINE
  5
88
  8
0
  6
CONTINUOUS
 62
     7
 10
0.0
 20
297.0
 30
0.0
 11
0.0
 21
0.0
 31
0.0
  0
LINE
  5
89
  8
0
  6
CONTINUOUS
 62
     7
 10
10.0
 20
10.0
 30
0.0
 11
409.9999999999999
 21
10.0
 31
0.0
  0
LINE
  5
8A
  8
0
  6
CONTINUOUS
 62
     7
 10
409.9999999999999
 20
10.0
 30
0.0
 11
409.9999999999999
 21
286.9999999999999
 31
0.0
  0
LINE
  5
8B
  8
0
  6
CONTINUOUS
 62
     7
 10
409.9999999999999
 20
286.9999999999999
 30
0.0
 11
10.00000000000006
 21
286.9999999999999
 31
0.0
  0
LINE
  5
8C
  8
0
  6
CONTINUOUS
 62
     7
 10
10.0
 20
286.9999999999999
 30
0.0
 11
10.0
 21
10.00000000000001
 31
0.0
  0
LINE
  5
8D
  8
0
  6
CONTINUOUS
 62
     7
 10
210.0
 20
0.0
 30
0.0
 11
210.0
 21
10.0
 31
0.0
  0
LINE
  5
8E
  8
0
  6
CONTINUOUS
 62
     7
 10
420.0
 20
148.5
 30
0.0
 11
409.9999999999999
 21
148.5
 31
0.0
  0
LINE
  5
8F
  8
0
  6
CONTINUOUS
 62
     7
 10
210.0
 20
297.0
 30
0.0
 11
210.0
 21
286.9999999999999
 31
0.0
  0
LINE
  5
90
  8
0
  6
CONTINUOUS
 62
     7
 10
0.0
 20
148.5
 30
0.0
 11
10.0
 21
148.5
 31
0.0
  0
POLYLINE
  5
91
  8
0
  6
CONTINUOUS
 62
     7
 66
     1
 10
0.0
 20
0.0
 30
0.0
 70
     1
  0
VERTEX
  5
16D
  8
0
  6
CONTINUOUS
 62
     7
 10
11.0
 20
152.5
 30
0.0
  0
VERTEX
  5
16E
  8
0
  6
CONTINUOUS
 62
     7
 10
0.0
 20
148.5
 30
0.0
  0
VERTEX
  5
16F
  8
0
  6
CONTINUOUS
 62
     7
 10
11.0
 20
144.5
 30
0.0
  0
VERTEX
  5
170
  8
0
  6
CONTINUOUS
 62
     7
 10
11.0
 20
152.5
 30
0.0
  0
SEQEND
  5
19A
  8
0
  6
CONTINUOUS
 62
     7
  0
INSERT
  5
92
  8
0
 62
     7
  2
*U2
 10
0.0
 20
0.0
 30
0.0
  0
POLYLINE
  5
93
  8
0
  6
CONTINUOUS
 62
     7
 66
     1
 10
0.0
 20
0.0
 30
0.0
 70
     1
  0
VERTEX
  5
173
  8
0
  6
CONTINUOUS
 62
     7
 10
206.0
 20
11.0
 30
0.0
  0
VERTEX
  5
174
  8
0
  6
CONTINUOUS
 62
     7
 10
210.0
 20
0.0
 30
0.0
  0
VERTEX
  5
175
  8
0
  6
CONTINUOUS
 62
     7
 10
214.0
 20
11.0
 30
0.0
  0
VERTEX
  5
176
  8
0
  6
CONTINUOUS
 62
     7
 10
206.0
 20
11.0
 30
0.0
  0
SEQEND
  5
19B
  8
0
  6
CONTINUOUS
 62
     7
  0
INSERT
  5
94
  8
0
 62
     7
  2
*U3
 10
0.0
 20
0.0
 30
0.0
  0
LINE
  5
95
  8
0
  6
CONTINUOUS
 62
     7
 10
367.5
 20
286.9999999999999
 30
0.0
 11
367.5
 21
292.0
 31
0.0
  0
TEXT
  5
96
  8
0
  6
CONTINUOUS
 62
     7
 10
391.6340909090909
 20
291.8324293485057
 30
0.0
 40
3.5
  1
A
 50
270.0
  0
LINE
  5
97
  8
0
  6
CONTINUOUS
 62
     7
 10
367.5
 20
10.0
 30
0.0
 11
367.5
 21
5.0
 31
0.0
  0
TEXT
  5
98
  8
0
  6
CONTINUOUS
 62
     7
 10
392.9868888333125
 20
4.602272727272727
 30
0.0
 40
3.5
  1
A
  0
LINE
  5
99
  8
0
  6
CONTINUOUS
 62
     7
 10
315.0
 20
286.9999999999999
 30
0.0
 11
315.0
 21
292.0
 31
0.0
  0
TEXT
  5
9A
  8
0
  6
CONTINUOUS
 62
     7
 10
339.1340909090909
 20
291.9745607727899
 30
0.0
 40
3.5
  1
B
 50
270.0
  0
LINE
  5
9B
  8
0
  6
CONTINUOUS
 62
     7
 10
315.0
 20
10.0
 30
0.0
 11
315.0
 21
5.0
 31
0.0
  0
TEXT
  5
9C
  8
0
  6
CONTINUOUS
 62
     7
 10
340.3447574090284
 20
4.602272727272727
 30
0.0
 40
3.5
  1
B
  0
LINE
  5
9D
  8
0
  6
CONTINUOUS
 62
     7
 10
262.5
 20
286.9999999999999
 30
0.0
 11
262.5
 21
292.0
 31
0.0
  0
TEXT
  5
9E
  8
0
  6
CONTINUOUS
 62
     7
 10
286.6327779167187
 20
291.9399305989747
 30
0.0
 40
3.5
  1
C
 50
270.0
  0
LINE
  5
9F
  8
0
  6
CONTINUOUS
 62
     7
 10
262.5
 20
10.0
 30
0.0
 11
262.5
 21
5.0
 31
0.0
  0
TEXT
  5
A0
  8
0
  6
CONTINUOUS
 62
     7
 10
287.8793875828435
 20
4.600959734900587
 30
0.0
 40
3.5
  1
C
  0
LINE
  5
A1
  8
0
  6
CONTINUOUS
 62
     7
 10
210.0
 20
286.9999999999999
 30
0.0
 11
210.0
 21
292.0
 31
0.0
  0
TEXT
  5
A2
  8
0
  6
CONTINUOUS
 62
     7
 10
234.1340909090909
 20
291.9745607727898
 30
0.0
 40
3.5
  1
D
 50
270.0
  0
LINE
  5
A3
  8
0
  6
CONTINUOUS
 62
     7
 10
157.5
 20
286.9999999999999
 30
0.0
 11
157.5
 21
292.0
 31
0.0
  0
TEXT
  5
A4
  8
0
  6
CONTINUOUS
 62
     7
 10
181.6327779167188
 20
292.027463423784
 30
0.0
 40
3.5
  1
E
 50
270.0
  0
LINE
  5
A5
  8
0
  6
CONTINUOUS
 62
     7
 10
157.5
 20
10.0
 30
0.0
 11
157.5
 21
5.0
 31
0.0
  0
LINE
  5
A6
  8
0
  6
CONTINUOUS
 62
     7
 10
105.0
 20
286.9999999999999
 30
0.0
 11
105.0
 21
292.0
 31
0.0
  0
TEXT
  5
A7
  8
0
  6
CONTINUOUS
 62
     7
 10
129.1327779167188
 20
291.9924502938602
 30
0.0
 40
3.5
  1
F
 50
270.0
  0
LINE
  5
A8
  8
0
  6
CONTINUOUS
 62
     7
 10
105.0
 20
10.0
 30
0.0
 11
105.0
 21
5.0
 31
0.0
  0
TEXT
  5
A9
  8
0
  6
CONTINUOUS
 62
     7
 10
130.326867887958
 20
4.600959734900587
 30
0.0
 40
3.5
  1
F
  0
LINE
  5
AA
  8
0
  6
CONTINUOUS
 62
     7
 10
52.50000000000004
 20
286.9999999999999
 30
0.0
 11
52.50000000000004
 21
292.0
 31
0.0
  0
TEXT
  5
AB
  8
0
  6
CONTINUOUS
 62
     7
 10
76.6327779167188
 20
291.9399305989746
 30
0.0
 40
3.5
  1
G
 50
270.0
  0
LINE
  5
AC
  8
0
  6
CONTINUOUS
 62
     7
 10
52.50000000000004
 20
10.0
 30
0.0
 11
52.50000000000004
 21
5.0
 31
0.0
  0
TEXT
  5
AD
  8
0
  6
CONTINUOUS
 62
     7
 10
77.8793875828436
 20
4.600959734900587
 30
0.0
 40
3.5
  1
G
  0
TEXT
  5
AE
  8
0
  6
CONTINUOUS
 62
     7
 10
24.13277791671879
 20
291.9749437288983
 30
0.0
 40
3.5
  1
H
 50
270.0
  0
TEXT
  5
AF
  8
0
  6
CONTINUOUS
 62
     7
 10
25.34437445291988
 20
4.600959734900587
 30
0.0
 40
3.5
  1
H
  0
LINE
  5
B0
  8
0
  6
CONTINUOUS
 62
     7
 10
409.9999999999999
 20
74.25
 30
0.0
 11
414.9999999999999
 21
74.25
 31
0.0
  0
TEXT
  5
B1
  8
0
  6
CONTINUOUS
 62
     7
 10
412.9326059772414
 20
35.00777791671877
 30
0.0
 40
3.5
  1
1
  0
LINE
  5
B2
  8
0
  6
CONTINUOUS
 62
     7
 10
10.0
 20
74.25
 30
0.0
 11
5.0
 21
74.25
 31
0.0
  0
TEXT
  5
B3
  8
0
  6
CONTINUOUS
 62
     7
 10
4.600959734900584
 20
38.26171220457671
 30
0.0
 40
3.5
  1
1
 50
270.0
  0
LINE
  5
B4
  8
0
  6
CONTINUOUS
 62
     7
 10
409.9999999999999
 20
148.5
 30
0.0
 11
414.9999999999999
 21
148.5
 31
0.0
  0
TEXT
  5
B5
  8
0
  6
CONTINUOUS
 62
     7
 10
413.163692634738
 20
109.2577779167188
 30
0.0
 40
3.5
  1
2
  0
LINE
  5
B6
  8
0
  6
CONTINUOUS
 62
     7
 10
10.0
 20
148.5
 30
0.0
 11
5.0
 21
148.5
 31
0.0
  0
TEXT
  5
B7
  8
0
  6
CONTINUOUS
 62
     7
 10
4.600959734900599
 20
112.2806255470802
 30
0.0
 40
3.5
  1
2
 50
270.0
  0
LINE
  5
B8
  8
0
  6
CONTINUOUS
 62
     7
 10
409.9999999999999
 20
222.75
 30
0.0
 11
414.9999999999999
 21
222.75
 31
0.0
  0
TEXT
  5
B9
  8
0
  6
CONTINUOUS
 62
     7
 10
413.1811991996998
 20
183.5077779167188
 30
0.0
 40
3.5
  1
3
  0
LINE
  5
BA
  8
0
  6
CONTINUOUS
 62
     7
 10
10.0
 20
222.75
 30
0.0
 11
5.0
 21
222.75
 31
0.0
  0
TEXT
  5
BB
  8
0
  6
CONTINUOUS
 62
     7
 10
4.600959734900584
 20
186.5131189821183
 30
0.0
 40
3.5
  1
3
 50
270.0
  0
TEXT
  5
BC
  8
0
  6
CONTINUOUS
 62
     7
 10
413.2351413029886
 20
257.7590909090909
 30
0.0
 40
3.5
  1
4
  0
TEXT
  5
BD
  8
0
  6
CONTINUOUS
 62
     7
 10
4.60227272727272
 20
260.7091768788295
 30
0.0
 40
3.5
  1
4
 50
270.0
  0
LINE
  5
BE
  8
0
  6
CONTINUOUS
 62
     7
 10
220.0
 20
10.0
 30
0.0
 11
220.0
 21
7.0
 31
0.0
  0
LINE
  5
BF
  8
0
  6
CONTINUOUS
 62
     7
 10
200.0
 20
10.0
 30
0.0
 11
200.0
 21
7.0
 31
0.0
  0
LINE
  5
C0
  8
0
  6
CONTINUOUS
 62
     7
 10
230.0
 20
10.0
 30
0.0
 11
230.0
 21
7.0
 31
0.0
  0
LINE
  5
C1
  8
0
  6
CONTINUOUS
 62
     7
 10
190.0
 20
10.0
 30
0.0
 11
190.0
 21
7.0
 31
0.0
  0
LINE
  5
C2
  8
0
  6
CONTINUOUS
 62
     7
 10
240.0
 20
10.0
 30
0.0
 11
240.0
 21
7.0
 31
0.0
  0
LINE
  5
C3
  8
0
  6
CONTINUOUS
 62
     7
 10
180.0
 20
10.0
 30
0.0
 11
180.0
 21
7.0
 31
0.0
  0
LINE
  5
C4
  8
0
  6
CONTINUOUS
 62
     7
 10
250.0
 20
10.0
 30
0.0
 11
250.0
 21
7.0
 31
0.0
  0
LINE
  5
C5
  8
0
  6
CONTINUOUS
 62
     7
 10
170.0
 20
10.0
 30
0.0
 11
170.0
 21
7.0
 31
0.0
  0
LINE
  5
C6
  8
0
  6
CONTINUOUS
 62
     7
 10
260.0
 20
10.0
 30
0.0
 11
260.0
 21
5.0
 31
0.0
  0
LINE
  5
C7
  8
0
  6
CONTINUOUS
 62
     7
 10
160.0
 20
10.0
 30
0.0
 11
160.0
 21
5.0
 31
0.0
  0
LINE
  5
C8
  8
0
  6
CONTINUOUS
 62
     7
 10
260.0
 20
10.0
 30
0.0
 11
160.0
 21
10.0
 31
0.0
  0
LINE
  5
C9
  8
0
  6
CONTINUOUS
 62
     7
 10
260.0
 20
7.0
 30
0.0
 11
160.0
 21
7.0
 31
0.0
  0
INSERT
  5
CA
  8
0
 62
     7
  2
*U4
 10
0.0
 20
0.0
 30
0.0
  0
INSERT
  5
CB
  8
0
 62
     7
  2
*U5
 10
0.0
 20
0.0
 30
0.0
  0
INSERT
  5
CC
  8
0
 62
     7
  2
*U6
 10
0.0
 20
0.0
 30
0.0
  0
INSERT
  5
CD
  8
0
 62
     7
  2
*U7
 10
0.0
 20
0.0
 30
0.0
  0
ENDBLK
  8
0
  0
BLOCK
  8
0
  2
*U2
 70
     1
 10
0.0
 20
0.0
 30
0.0
  0
SOLID
  5
172
  8
0
  6
CONTINUOUS
 62
     7
 10
11.0
 20
144.5
 30
0.0
 11
6.999999999999999
 21
148.5
 31
0.0
 12
11.0
 22
152.5
 32
0.0
 13
11.0
 23
152.5
 33
0.0
  0
ENDBLK
  8
0
  0
BLOCK
  8
0
  2
*U3
 70
     1
 10
0.0
 20
0.0
 30
0.0
  0
SOLID
  5
178
  8
0
  6
CONTINUOUS
 62
     7
 10
210.0
 20
6.999999999999999
 30
0.0
 11
206.0
 21
11.0
 31
0.0
 12
210.0
 22
11.0
 32
0.0
 13
210.0
 23
11.0
 33
0.0
  0
SOLID
  5
179
  8
0
  6
CONTINUOUS
 62
     7
 10
210.0
 20
6.999999999999999
 30
0.0
 11
210.0
 21
11.0
 31
0.0
 12
214.0
 22
11.0
 32
0.0
 13
214.0
 23
11.0
 33
0.0
  0
ENDBLK
  8
0
  0
BLOCK
  8
0
  2
*U4
 70
     1
 10
0.0
 20
0.0
 30
0.0
  0
SOLID
  5
17B
  8
0
  6
CONTINUOUS
 62
     7
 10
0.0
 20
0.0
 30
0.0
 11
0.0
 21
10.0
 31
0.0
 12
2.0
 22
0.0
 32
0.0
 13
2.0
 23
0.0
 33
0.0
  0
SOLID
  5
17C
  8
0
  6
CONTINUOUS
 62
     7
 10
2.0
 20
0.0
 30
0.0
 11
0.0
 21
10.0
 31
0.0
 12
2.0
 22
10.0
 32
0.0
 13
2.0
 23
10.0
 33
0.0
  0
SOLID
  5
17D
  8
0
  6
CONTINUOUS
 62
     7
 10
2.0
 20
0.0
 30
0.0
 11
2.0
 21
2.0
 31
0.0
 12
10.0
 22
0.0
 32
0.0
 13
10.0
 23
0.0
 33
0.0
  0
SOLID
  5
17E
  8
0
  6
CONTINUOUS
 62
     7
 10
10.0
 20
0.0
 30
0.0
 11
2.0
 21
2.0
 31
0.0
 12
10.0
 22
2.0
 32
0.0
 13
10.0
 23
2.0
 33
0.0
  0
ENDBLK
  8
0
  0
BLOCK
  8
0
  2
*U5
 70
     1
 10
0.0
 20
0.0
 30
0.0
  0
SOLID
  5
180
  8
0
  6
CONTINUOUS
 62
     7
 10
409.9999999999999
 20
0.0
 30
0.0
 11
409.9999999999999
 21
2.0
 31
0.0
 12
418.0
 22
0.0
 32
0.0
 13
418.0
 23
0.0
 33
0.0
  0
SOLID
  5
181
  8
0
  6
CONTINUOUS
 62
     7
 10
418.0
 20
0.0
 30
0.0
 11
409.9999999999999
 21
2.0
 31
0.0
 12
418.0
 22
2.0
 32
0.0
 13
418.0
 23
2.0
 33
0.0
  0
SOLID
  5
182
  8
0
  6
CONTINUOUS
 62
     7
 10
418.0
 20
0.0
 30
0.0
 11
418.0
 21
10.0
 31
0.0
 12
420.0
 22
0.0
 32
0.0
 13
420.0
 23
0.0
 33
0.0
  0
SOLID
  5
183
  8
0
  6
CONTINUOUS
 62
     7
 10
420.0
 20
0.0
 30
0.0
 11
418.0
 21
10.0
 31
0.0
 12
420.0
 22
10.0
 32
0.0
 13
420.0
 23
10.0
 33
0.0
  0
ENDBLK
  8
0
  0
BLOCK
  8
0
  2
*U6
 70
     1
 10
0.0
 20
0.0
 30
0.0
  0
SOLID
  5
185
  8
0
  6
CONTINUOUS
 62
     7
 10
409.9999999999999
 20
295.0
 30
0.0
 11
409.9999999999999
 21
297.0
 31
0.0
 12
418.0
 22
295.0
 32
0.0
 13
418.0
 23
295.0
 33
0.0
  0
SOLID
  5
186
  8
0
  6
CONTINUOUS
 62
     7
 10
418.0
 20
295.0
 30
0.0
 11
409.9999999999999
 21
297.0
 31
0.0
 12
418.0
 22
297.0
 32
0.0
 13
418.0
 23
297.0
 33
0.0
  0
SOLID
  5
187
  8
0
  6
CONTINUOUS
 62
     7
 10
418.0
 20
286.9999999999999
 30
0.0
 11
418.0
 21
297.0
 31
0.0
 12
420.0
 22
286.9999999999999
 32
0.0
 13
420.0
 23
286.9999999999999
 33
0.0
  0
SOLID
  5
188
  8
0
  6
CONTINUOUS
 62
     7
 10
420.0
 20
286.9999999999999
 30
0.0
 11
418.0
 21
297.0
 31
0.0
 12
420.0
 22
297.0
 32
0.0
 13
420.0
 23
297.0
 33
0.0
  0
ENDBLK
  8
0
  0
BLOCK
  8
0
  2
*U7
 70
     1
 10
0.0
 20
0.0
 30
0.0
  0
SOLID
  5
18A
  8
0
  6
CONTINUOUS
 62
     7
 10
0.0
 20
286.9999999999999
 30
0.0
 11
0.0
 21
297.0
 31
0.0
 12
2.0
 22
286.9999999999999
 32
0.0
 13
2.0
 23
286.9999999999999
 33
0.0
  0
SOLID
  5
18B
  8
0
  6
CONTINUOUS
 62
     7
 10
2.0
 20
286.9999999999999
 30
0.0
 11
0.0
 21
297.0
 31
0.0
 12
2.0
 22
297.0
 32
0.0
 13
2.0
 23
297.0
 33
0.0
  0
SOLID
  5
18C
  8
0
  6
CONTINUOUS
 62
     7
 10
2.0
 20
295.0
 30
0.0
 11
2.0
 21
297.0
 31
0.0
 12
10.0
 22
295.0
 32
0.0
 13
10.0
 23
295.0
 33
0.0
  0
SOLID
  5
18D
  8
0
  6
CONTINUOUS
 62
     7
 10
10.0
 20
295.0
 30
0.0
 11
2.0
 21
297.0
 31
0.0
 12
10.0
 22
297.0
 32
0.0
 13
10.0
 23
297.0
 33
0.0
  0
ENDBLK
  8
0
  0
ENDSEC
  0
SECTION
  2
ENTITIES
  0
LINE
  5
70
  8
0
  6
CONTINUOUS
 62
     7
 10
4785.3637386176
 20
340.3094381965858
 30
0.0
 11
4785.3637386176
 21
440.0173062744034
 31
0.0
  0
LINE
  5
71
  8
0
  6
CONTINUOUS
 62
     7
 10
4813.8637386156
 20
331.4772432499
 30
0.0
 11
4818.70366853112
 21
334.5340410909948
 31
0.0
  0
ARC
  5
72
  8
0
  6
CONTINUOUS
 62
     7
 10
4795.363738617599
 20
437.3378143500925
 30
0.0
 40
9.999999999999787
 50
116.7436839504008
 51
150.0000000000003
  0
ARC
  5
73
  8
0
  6
CONTINUOUS
 62
     7
 10
4813.363738617599
 20
437.3378143500918
 30
0.0
 40
9.999999999999787
 50
29.99999999999977
 51
63.25631604959688
  0
ARC
  5
74
  8
0
  6
CONTINUOUS
 62
     7
 10
4795.363738617599
 20
342.9889301208983
 30
0.0
 40
9.999999999999957
 50
210.0
 51
237.7243556884403
  0
LINE
  5
75
  8
0
  6
CONTINUOUS
 62
     7
 10
4786.703484579755
 20
442.3378143500922
 30
0.0
 11
4785.3637386176
 21
440.0173062744034
 31
0.0
  0
LINE
  5
76
  8
0
  6
CONTINUOUS
 62
     7
 10
4822.023992655443
 20
442.3378143500915
 30
0.0
 11
4823.363738617599
 21
440.0173062744025
 31
0.0
  0
LINE
  5
77
  8
0
  6
CONTINUOUS
 62
     7
 10
4822.023992655443
 20
337.988930121531
 30
0.0
 11
4823.363738617599
 21
340.3094381972198
 31
0.0
  0
ARC
  5
78
  8
0
  6
CONTINUOUS
 62
     7
 10
4813.363738617599
 20
342.9889301215307
 30
0.0
 40
9.999999999999787
 50
302.2756443121499
 51
330.0000000000002
  0
LINE
  5
79
  8
0
  6
CONTINUOUS
 62
     7
 10
4786.703484579754
 20
337.988930120898
 30
0.0
 11
4785.3637386176
 21
340.3094381965858
 31
0.0
  0
LINE
  5
7A
  8
0
  6
CONTINUOUS
 62
     7
 10
4823.363738617599
 20
340.3094381972198
 30
0.0
 11
4823.363738617599
 21
440.0173062744025
 31
0.0
  0
ARC
  5
7B
  8
0
  6
CONTINUOUS
 62
     7
 10
4804.363738617599
 20
419.4772432506001
 30
0.0
 40
30.00000000000025
 50
63.25631604959604
 51
116.7436839504008
  0
LINE
  5
7C
  8
0
  6
CONTINUOUS
 62
     7
 10
4790.023808704164
 20
334.5340410903074
 30
0.0
 11
4794.8637386176
 21
331.4772432506
 31
0.0
  0
LINE
  5
7D
  8
0
  6
CONTINUOUS
 62
     7
 10
4786.703484579754
 20
337.9889301208983
 30
0.0
 11
4785.3637386176
 21
340.3094381965858
 31
0.0
  0
LINE
  5
7E
  8
1
  6
CONTINUOUS
 62
     7
 10
4822.363738617601
 20
441.7493570819661
 30
0.0
 11
4822.363738617698
 21
338.5773873898229
 31
0.0
  0
LINE
  5
7F
  8
1
  6
CONTINUOUS
 62
     7
 10
4788.8637386168
 20
335.3895880447959
 30
0.0
 11
4788.8637386168
 21
444.9371564261946
 31
0.0
  0
LINE
  5
80
  8
1
  6
CONTINUOUS
 62
     7
 10
4819.8637386177
 20
335.3895880448322
 30
0.0
 11
4819.8637386177
 21
444.9371564267902
 31
0.0
  0
LINE
  5
81
  8
0
  6
CONTINUOUS
 62
     7
 10
4822.023992655443
 20
337.988930121531
 30
0.0
 11
4823.363738617599
 21
340.3094381972198
 31
0.0
  0
LINE
  5
82
  8
1
  6
CONTINUOUS
 62
     7
 10
4786.363738617601
 20
441.7493570819756
 30
0.0
 11
4786.363738617698
 21
338.5773873888454
 31
0.0
  0
INSERT
  5
84
  8
0
 62
     7
  2
D_FRAME_DRAWING_21
 10
0.0
 20
0.0
 30
0.0
  0
LINE
  5
CE
  8
1
  6
CONTINUOUS
 62
     7
 10
4803.4637386176
 20
444.0772432506
 30
0.0
 11
4803.4637386176
 21
445.9772432506
 31
0.0
  0
LINE
  5
CF
  8
1
  6
CONTINUOUS
 62
     7
 10
4824.3637386176
 20
329.4772432506
 30
0.0
 11
4813.8637385562
 21
329.4772432506
 31
0.0
  0
LINE
  5
D0
  8
1
  6
CONTINUOUS
 62
     7
 10
4803.4637386176
 20
445.9772432506
 30
0.0
 11
4805.2637386176
 21
445.9772432506
 31
0.0
  0
LINE
  5
D1
  8
1
  6
CONTINUOUS
 62
     7
 10
4982.5458678463
 20
337.4772432506
 30
0.0
 11
4981.5458677512
 21
335.2667169351
 31
0.0
  0
LINE
  5
D2
  8
1
  6
CONTINUOUS
 62
     7
 10
4800.3637386176
 20
441.0772432506
 30
0.0
 11
4800.3637386176
 21
442.8772432506
 31
0.0
  0
ARC
  5
D3
  8
1
  6
CONTINUOUS
 62
     7
 10
4922.0458677334
 20
435.088240365
 30
0.0
 40
1.5
 50
276.8497464359
 51
0.0
  0
LINE
  5
D4
  8
1
  6
CONTINUOUS
 62
     7
 10
4981.5458718889
 20
325.453136092
 30
0.0
 11
4980.0458684458
 21
325.453136092
 31
0.0
  0
LINE
  5
D5
  8
1
  6
CONTINUOUS
 62
     7
 10
4782.3637386176
 20
327.4772432506
 30
0.0
 11
4782.3637386176
 21
323.2701364695
 31
0.0
  0
LINE
  5
D6
  8
1
  6
CONTINUOUS
 62
     7
 10
4809.8237386176
 20
438.8249107809
 30
0.0
 11
4804.3637386176
 21
435.6725783111
 31
0.0
  0
LINE
  5
D7
  8
1
  6
CONTINUOUS
 62
     7
 10
4804.3637386176
 20
448.2819081902
 30
0.0
 11
4798.9037386176
 21
445.1295757204
 31
0.0
  0
ARC
  5
D8
  8
1
  6
CONTINUOUS
 62
     7
 10
4934.0458677334
 20
435.9772432506
 30
0.0
 40
0.5
 50
90.0
 51
180.0
  0
LINE
  5
D9
  8
1
  6
CONTINUOUS
 62
     7
 10
4783.0152104802
 20
322.6186646069
 30
0.0
 11
4782.3637386176
 21
323.2701364695
 31
0.0
  0
ARC
  5
DA
  8
1
  6
CONTINUOUS
 62
     7
 10
4782.873789124
 20
322.4772432506
 30
0.0
 40
0.2
 50
315.0000000005
 51
45.0
  0
LINE
  5
DB
  8
1
  6
CONTINUOUS
 62
     7
 10
4824.510185227
 20
322.1236898601
 30
0.0
 11
4825.3637386176
 21
321.2701364695
 31
0.0
  0
LINE
  5
DC
  8
1
  6
CONTINUOUS
 62
     7
 10
4826.3637386176
 20
317.4772432506
 30
0.0
 11
4825.3637386176
 21
317.4772432506
 31
0.0
  0
LINE
  5
DD
  8
1
  6
CONTINUOUS
 62
     7
 10
4826.3637386176
 20
327.4772432506
 30
0.0
 11
4826.3637386176
 21
323.2701364695
 31
0.0
  0
LINE
  5
DE
  8
1
  6
CONTINUOUS
 62
     7
 10
4939.5458677334
 20
443.9772415329
 30
0.0
 11
4939.5458677334
 21
437.9772415329
 31
0.0
  0
LINE
  5
DF
  8
1
  6
CONTINUOUS
 62
     7
 10
4824.3637386176
 20
328.4772432506
 30
0.0
 11
4813.8637385562
 21
328.4772432506
 31
0.0
  0
LINE
  5
E0
  8
1
  6
CONTINUOUS
 62
     7
 10
4936.5458677334
 20
437.9772415329
 30
0.0
 11
4939.5458677334
 21
437.9772415329
 31
0.0
  0
LINE
  5
E1
  8
1
  6
CONTINUOUS
 62
     7
 10
4939.5458677333
 20
443.9772415329
 30
0.0
 11
4940.5458677334
 21
443.4772415329
 31
0.0
  0
LINE
  5
E2
  8
1
  6
CONTINUOUS
 62
     7
 10
4794.8637386791
 20
328.4772432506
 30
0.0
 11
4784.3637386176
 21
328.4772432506
 31
0.0
  0
ARC
  5
E3
  8
1
  6
CONTINUOUS
 62
     7
 10
4824.3637386176
 20
327.4772432506
 30
0.0
 40
2.0
 50
0.0
 51
90.0
  0
LINE
  5
E4
  8
1
  6
CONTINUOUS
 62
     7
 10
4825.3637386176
 20
321.2701364695
 30
0.0
 11
4825.3637386176
 21
317.4772432506
 31
0.0
  0
LINE
  5
E5
  8
1
  6
CONTINUOUS
 62
     7
 10
4825.3637386176
 20
327.4772432506
 30
0.0
 11
4825.3637386176
 21
323.6843500318
 31
0.0
  0
LINE
  5
E6
  8
1
  6
CONTINUOUS
 62
     7
 10
4805.2637386176
 20
445.9772432506
 30
0.0
 11
4805.2637386176
 21
444.0772432504
 31
0.0
  0
LINE
  5
E7
  8
1
  6
CONTINUOUS
 62
     7
 10
4875.5458869885
 20
380.9772433311
 30
0.0
 11
4875.5458606366
 21
318.4772432506
 31
0.0
  0
LINE
  5
E8
  8
1
  6
CONTINUOUS
 62
     7
 10
4826.3637386176
 20
321.6843500318
 30
0.0
 11
4826.3637386176
 21
317.4772432506
 31
0.0
  0
LINE
  5
E9
  8
1
  6
CONTINUOUS
 62
     7
 10
4888.5458677334
 20
329.4772432506
 30
0.0
 11
4888.5458677334
 21
317.4772432506
 31
0.0
  0
LINE
  5
EA
  8
1
  6
CONTINUOUS
 62
     7
 10
4936.5458677334
 20
443.4772415329
 30
0.0
 11
4940.5458677334
 21
443.4772415329
 31
0.0
  0
LINE
  5
EB
  8
1
  6
CONTINUOUS
 62
     7
 10
4783.3637386176
 20
327.4772432506
 30
0.0
 11
4783.3637386176
 21
323.6843500318
 31
0.0
  0
LINE
  5
EC
  8
1
  6
CONTINUOUS
 62
     7
 10
4925.0458677334
 20
443.477283753
 30
0.0
 11
4932.0458677334
 21
443.4772098686
 31
0.0
  0
ARC
  5
ED
  8
1
  6
CONTINUOUS
 62
     7
 10
4824.3637386176
 20
327.4772432506
 30
0.0
 40
1.0
 50
0.0
 51
90.0
  0
LINE
  5
EE
  8
1
  6
CONTINUOUS
 62
     7
 10
4824.510185227
 20
322.8307966412
 30
0.0
 11
4825.3637386176
 21
323.6843500318
 31
0.0
  0
LINE
  5
EF
  8
1
  6
CONTINUOUS
 62
     7
 10
4783.3637386176
 20
321.2701364695
 30
0.0
 11
4783.3637386176
 21
317.4772432506
 31
0.0
  0
LINE
  5
F0
  8
1
  6
CONTINUOUS
 62
     7
 10
4794.8637386791
 20
329.4772432506
 30
0.0
 11
4784.3637386176
 21
329.4772432506
 31
0.0
  0
LINE
  5
F1
  8
1
  6
CONTINUOUS
 62
     7
 10
4825.712266755
 20
322.6186646069
 30
0.0
 11
4826.3637386176
 21
323.2701364695
 31
0.0
  0
LINE
  5
F2
  8
1
  6
CONTINUOUS
 62
     7
 10
4789.3637386176
 20
318.4772432506
 30
0.0
 11
4819.3637386176
 21
318.4772432506
 31
0.0
  0
LINE
  5
F3
  8
1
  6
CONTINUOUS
 62
     7
 10
4782.3637386176
 20
321.6843500318
 30
0.0
 11
4782.3637386176
 21
317.4772432506
 31
0.0
  0
ARC
  5
F4
  8
1
  6
CONTINUOUS
 62
     7
 10
4819.3637386176
 20
319.4772432506
 30
0.0
 40
1.0
 50
270.0
 51
0.0
  0
LINE
  5
F5
  8
1
  6
CONTINUOUS
 62
     7
 10
4940.5458677336
 20
438.4772415329
 30
0.0
 11
4940.5458677334
 21
443.4772415329
 31
0.0
  0
ARC
  5
F6
  8
1
  6
CONTINUOUS
 62
     7
 10
4784.3637386176
 20
327.4772432506
 30
0.0
 40
1.0
 50
90.0
 51
180.0
  0
LINE
  5
F7
  8
1
  6
CONTINUOUS
 62
     7
 10
4940.5458677334
 20
438.4772415329
 30
0.0
 11
4939.5458677333
 21
437.977241533
 31
0.0
  0
LINE
  5
F8
  8
1
  6
CONTINUOUS
 62
     7
 10
4940.5458677334
 20
438.4772415329
 30
0.0
 11
4936.5458677334
 21
438.4772415329
 31
0.0
  0
LINE
  5
F9
  8
1
  6
CONTINUOUS
 62
     7
 10
4784.2172920082
 20
322.1236898601
 30
0.0
 11
4783.3637386176
 21
321.2701364695
 31
0.0
  0
ARC
  5
FA
  8
1
  6
CONTINUOUS
 62
     7
 10
4784.3637386176
 20
327.4772432506
 30
0.0
 40
2.0
 50
90.0
 51
180.0
  0
ARC
  5
FB
  8
1
  6
CONTINUOUS
 62
     7
 10
4825.8536881113
 20
322.4772432506
 30
0.0
 40
0.2
 50
135.0
 51
224.9999999995
  0
LINE
  5
FC
  8
1
  6
CONTINUOUS
 62
     7
 10
4968.545867733399
 20
329.4772432506
 30
0.0
 11
4968.545867733399
 21
317.4772432506
 31
0.0
  0
LINE
  5
FD
  8
1
  6
CONTINUOUS
 62
     7
 10
4936.5458677334
 20
443.9772415329
 30
0.0
 11
4939.5458677334
 21
443.9772415329
 31
0.0
  0
LINE
  5
FE
  8
1
  6
CONTINUOUS
 62
     7
 10
4980.0458684457
 20
318.4772432506
 30
0.0
 11
4981.5458748301
 21
318.4772432506
 31
0.0
  0
LINE
  5
FF
  8
1
  6
CONTINUOUS
 62
     7
 10
4783.0152104802
 20
322.3358218944
 30
0.0
 11
4782.3637386176
 21
321.6843500318
 31
0.0
  0
LINE
  5
100
  8
1
  6
CONTINUOUS
 62
     7
 10
4932.0458677334
 20
438.4773162921
 30
0.0
 11
4925.0458677334
 21
438.4771420062
 31
0.0
  0
LINE
  5
101
  8
1
  6
CONTINUOUS
 62
     7
 10
4784.2172920082
 20
322.8307966412
 30
0.0
 11
4783.3637386176
 21
323.6843500318
 31
0.0
  0
ARC
  5
102
  8
1
  6
CONTINUOUS
 62
     7
 10
4783.8637386176
 20
322.4772432506
 30
0.0
 40
0.5
 50
314.9999999999
 51
45.00000000009999
  0
ARC
  5
103
  8
1
  6
CONTINUOUS
 62
     7
 10
4789.3637386176
 20
319.4772432506
 30
0.0
 40
1.0
 50
180.0
 51
270.0
  0
LINE
  5
104
  8
1
  6
CONTINUOUS
 62
     7
 10
4875.5458606366
 20
318.4772432506
 30
0.0
 11
4877.0458670205
 21
318.4772432506
 31
0.0
  0
LINE
  5
105
  8
1
  6
CONTINUOUS
 62
     7
 10
4782.3637386176
 20
317.4772432506
 30
0.0
 11
4783.3637386176
 21
317.4772432506
 31
0.0
  0
ARC
  5
106
  8
1
  6
CONTINUOUS
 62
     7
 10
4824.8637386176
 20
322.4772432506
 30
0.0
 40
0.5
 50
135.0
 51
225.0
  0
LINE
  5
107
  8
1
  6
CONTINUOUS
 62
     7
 10
4825.712266755
 20
322.3358218944
 30
0.0
 11
4826.3637386176
 21
321.6843500318
 31
0.0
  0
LINE
  5
108
  8
1
  6
CONTINUOUS
 62
     7
 10
4968.545867733399
 20
322.4772432506
 30
0.0
 11
4888.5458677334
 21
322.4772432506
 31
0.0
  0
LINE
  5
109
  8
1
  6
CONTINUOUS
 62
     7
 10
4789.6851854976
 20
325.8396604607
 30
0.0
 11
4793.5599620714
 21
324.5244999431
 31
0.0
  0
LINE
  5
10A
  8
1
  6
CONTINUOUS
 62
     7
 10
4920.5458677334
 20
446.5198041171
 30
0.0
 11
4920.5458677334
 21
435.4346789487
 31
0.0
  0
LINE
  5
10B
  8
1
  6
CONTINUOUS
 62
     7
 10
4920.5458677334
 20
435.4346789487
 30
0.0
 11
4916.2438684736
 21
435.4346789487
 31
0.0
  0
ARC
  5
10C
  8
1
  6
CONTINUOUS
 62
     7
 10
4917.9506219059
 20
436.8880036329
 30
0.0
 40
2.2047541725
 50
143.2889572925
 51
210.0000000002
  0
LINE
  5
10D
  8
1
  6
CONTINUOUS
 62
     7
 10
4923.0458677334
 20
445.4772432506
 30
0.0
 11
4920.5458677334
 21
445.4772432506
 31
0.0
  0
ARC
  5
10E
  8
1
  6
CONTINUOUS
 62
     7
 10
4814.8637386164
 20
325.4772432506
 30
0.0
 40
1.0
 50
180.0
 51
288.7504486418
  0
LINE
  5
10F
  8
1
  6
CONTINUOUS
 62
     7
 10
4920.5458677334
 20
446.5198041171
 30
0.0
 11
4916.2438684736
 21
446.5198041171
 31
0.0
  0
LINE
  5
110
  8
1
  6
CONTINUOUS
 62
     7
 10
4925.0458677334
 20
434.7871621045
 30
0.0
 11
4925.0458677334
 21
448.4772432508
 31
0.0
  0
ARC
  5
111
  8
1
  6
CONTINUOUS
 62
     7
 10
4917.9506219059
 20
445.0664794329
 30
0.0
 40
2.2047541725
 50
149.9999999999
 51
216.7110427075
  0
LINE
  5
112
  8
1
  6
CENTER
 62
     7
 10
4868.1291458793
 20
380.9772432506
 30
0.0
 11
4986.5458678536
 21
380.9772432506
 31
0.0
  0
LINE
  5
114
  8
1
  6
CONTINUOUS
 62
     7
 10
4916.183157688
 20
443.7485222258
 30
0.0
 11
4920.5458677334
 21
443.7485222258
 31
0.0
  0
LINE
  5
115
  8
1
  6
CONTINUOUS
 62
     7
 10
4888.5458677334
 20
323.2701364695
 30
0.0
 11
4968.545867733399
 21
323.2701364695
 31
0.0
  0
ARC
  5
116
  8
1
  6
CONTINUOUS
 62
     7
 10
4924.7458677334
 20
440.9772415329
 30
0.0
 40
9.0
 50
162.0660707094
 51
197.9339292906
  0
LINE
  5
117
  8
1
  6
CONTINUOUS
 62
     7
 10
4785.3637386176
 20
434.4772432506
 30
0.0
 11
4823.3637386176
 21
434.4772432506
 31
0.0
  0
LINE
  5
118
  8
1
  6
CONTINUOUS
 62
     7
 10
4934.5458685022
 20
435.0882399958
 30
0.0
 11
4934.5458677332
 21
436.4772432506
 31
0.0
  0
LINE
  5
119
  8
1
  6
CONTINUOUS
 62
     7
 10
4916.183157688
 20
438.20596084
 30
0.0
 11
4920.5458677334
 21
438.20596084
 31
0.0
  0
LINE
  5
11A
  8
1
  6
CONTINUOUS
 62
     7
 10
4968.545867733399
 20
329.4772432506
 30
0.0
 11
4888.5458677334
 21
329.4772432506
 31
0.0
  0
LINE
  5
11B
  8
1
  6
CONTINUOUS
 62
     7
 10
4916.2438684736
 20
446.5198041171
 30
0.0
 11
4916.0412487834
 21
446.1688565191
 31
0.0
  0
LINE
  5
11C
  8
1
  6
CONTINUOUS
 62
     7
 10
4820.3637386176
 20
324.5582045419
 30
0.0
 11
4820.3637386176
 21
319.4772432506
 31
0.0
  0
LINE
  5
11D
  8
1
  6
CONTINUOUS
 62
     7
 10
4915.7458677334
 20
436.8880036329
 30
0.0
 11
4915.7458677334
 21
445.0664794329
 31
0.0
  0
LINE
  5
11E
  8
1
  6
CONTINUOUS
 62
     7
 10
4798.9037386176
 20
445.1295757204
 30
0.0
 11
4798.9037386176
 21
438.8249107809
 31
0.0
  0
LINE
  5
11F
  8
1
  6
CONTINUOUS
 62
     7
 10
4809.8237386176
 20
438.8249107809
 30
0.0
 11
4809.8237386176
 21
445.1295757204
 31
0.0
  0
LINE
  5
120
  8
1
  6
CONTINUOUS
 62
     7
 10
4933.5458677334
 20
448.4772432506
 30
0.0
 11
4932.0458677334
 21
448.4772432508
 31
0.0
  0
LINE
  5
121
  8
1
  6
CONTINUOUS
 62
     7
 10
4888.5458677334
 20
321.6843500318
 30
0.0
 11
4968.545867733399
 21
321.6843500318
 31
0.0
  0
LINE
  5
122
  8
1
  6
CONTINUOUS
 62
     7
 10
4932.0458677334
 20
443.9772432506
 30
0.0
 11
4925.0458677334
 21
443.9772432506
 31
0.0
  0
LINE
  5
123
  8
1
  6
CONTINUOUS
 62
     7
 10
4874.5458676204
 20
337.4772432506
 30
0.0
 11
4875.5458677155
 21
335.2667169351
 31
0.0
  0
ARC
  5
124
  8
1
  6
CONTINUOUS
 62
     7
 10
4928.5458677334
 20
380.9772433311
 30
0.0
 40
53.0
 50
0.0
 51
83.15025356409998
  0
LINE
  5
125
  8
1
  6
CONTINUOUS
 62
     7
 10
4923.0458677334
 20
436.4772432506
 30
0.0
 11
4920.5458677334
 21
436.4772432506
 31
0.0
  0
ARC
  5
126
  8
1
  6
CONTINUOUS
 62
     7
 10
4819.3637386176
 20
324.453136092
 30
0.0
 40
1.0
 50
5.997972041500001
 51
101.4952707111
  0
LINE
  5
127
  8
1
  6
CONTINUOUS
 62
     7
 10
4888.5458677334
 20
317.4772432506
 30
0.0
 11
4968.545867733399
 21
317.4772432506
 31
0.0
  0
LINE
  5
128
  8
1
  6
CONTINUOUS
 62
     7
 10
4916.2438684736
 20
435.4346789487
 30
0.0
 11
4916.0412487834
 21
435.7856265467
 31
0.0
  0
LINE
  5
129
  8
1
  6
CONTINUOUS
 62
     7
 10
4875.5458661178
 20
331.4772432515
 30
0.0
 11
4877.0458670209
 21
331.4772432515
 31
0.0
  0
LINE
  5
12A
  8
1
  6
CONTINUOUS
 62
     7
 10
4809.8237386176
 20
445.1295757204
 30
0.0
 11
4804.3637386176
 21
448.2819081902
 31
0.0
  0
LINE
  5
12B
  8
1
  6
CENTER
 62
     7
 10
4928.5458677334
 20
453.4772432508
 30
0.0
 11
4928.5458677334
 21
309.9772433311
 31
0.0
  0
LINE
  5
12C
  8
1
  6
CONTINUOUS
 62
     7
 10
4813.8637386164
 20
331.4772432506
 30
0.0
 11
4813.8637386164
 21
325.4772432506
 31
0.0
  0
ARC
  5
12D
  8
1
  6
CONTINUOUS
 62
     7
 10
4793.8637386176
 20
325.4772432506
 30
0.0
 40
1.0
 50
251.2495513582
 51
0.0
  0
LINE
  5
12E
  8
1
  6
CONTINUOUS
 62
     7
 10
4922.5458669646
 20
435.0882399958
 30
0.0
 11
4922.5458677335
 21
436.4772432506
 31
0.0
  0
LINE
  5
12F
  8
1
  6
CENTER
 62
     7
 10
4804.3637386176
 20
452.7248779418
 30
0.0
 11
4804.3637386176
 21
310.9772432506
 31
0.0
  0
ARC
  5
130
  8
1
  6
CONTINUOUS
 62
     7
 10
4789.3637386176
 20
324.8927328481
 30
0.0
 40
1.0
 50
71.24955135819998
 51
180.0
  0
LINE
  5
131
  8
1
  6
CONTINUOUS
 62
     7
 10
4788.3637386176
 20
324.8927328481
 30
0.0
 11
4788.3637386176
 21
319.4772432506
 31
0.0
  0
ARC
  5
132
  8
1
  6
CONTINUOUS
 62
     7
 10
4928.5458677334
 20
380.9772433311
 30
0.0
 40
54.0
 50
96.8497472499
 51
180.0
  0
ARC
  5
133
  8
1
  6
CONTINUOUS
 62
     7
 10
4923.0458677334
 20
435.9772432506
 30
0.0
 40
0.5
 50
0.0
 51
90.0
  0
LINE
  5
134
  8
1
  6
CONTINUOUS
 62
     7
 10
4921.8355423826
 20
436.4772432506
 30
0.0
 11
4921.8355423826
 21
436.476722546
 31
0.0
  0
LINE
  5
135
  8
1
  6
CONTINUOUS
 62
     7
 10
4920.5458677334
 20
445.4772432506
 30
0.0
 11
4920.5458677334
 21
436.4772432506
 31
0.0
  0
LINE
  5
136
  8
1
  6
CONTINUOUS
 62
     7
 10
4923.5458677334
 20
448.4772432506
 30
0.0
 11
4925.0458677334
 21
448.4772432508
 31
0.0
  0
LINE
  5
137
  8
1
  6
CONTINUOUS
 62
     7
 10
4815.1851854964
 20
324.5303156381
 30
0.0
 11
4819.1549749438
 21
325.4311022103
 31
0.0
  0
ARC
  5
138
  8
1
  6
CONTINUOUS
 62
     7
 10
4928.5458677334
 20
380.9772433311
 30
0.0
 40
53.0
 50
96.84974643589999
 51
180.0
  0
LINE
  5
139
  8
1
  6
CONTINUOUS
 62
     7
 10
4932.0458677334
 20
437.9772432506
 30
0.0
 11
4925.0458677334
 21
437.9772432506
 31
0.0
  0
ARC
  5
13A
  8
1
  6
CONTINUOUS
 62
     7
 10
4928.5458677334
 20
380.9772433311
 30
0.0
 40
51.5
 50
0.0
 51
83.15025356409998
  0
ARC
  5
13B
  8
1
  6
CONTINUOUS
 62
     7
 10
4928.5458677334
 20
380.9772433311
 30
0.0
 40
51.5
 50
96.84974643589999
 51
180.0
  0
ARC
  5
13C
  8
1
  6
CONTINUOUS
 62
     7
 10
4923.0458677334
 20
445.9772432506
 30
0.0
 40
0.5
 50
270.0
 51
0.0
  0
LINE
  5
13D
  8
1
  6
CENTER
 62
     7
 10
4798.3411955814
 20
441.9772432506
 30
0.0
 11
4810.9714623047
 21
441.9772432506
 31
0.0
  0
LINE
  5
13E
  8
1
  6
CONTINUOUS
 62
     7
 10
4923.5458677334
 20
435.088240365
 30
0.0
 11
4923.5458677334
 21
448.4772432506
 31
0.0
  0
LINE
  5
13F
  8
1
  6
CONTINUOUS
 62
     7
 10
4794.8637386176
 20
331.4772432506
 30
0.0
 11
4794.8637386176
 21
325.4772432506
 31
0.0
  0
LINE
  5
140
  8
1
  6
CONTINUOUS
 62
     7
 10
4802.2637386176
 20
441.0772432506
 30
0.0
 11
4800.3637386176
 21
441.0772432506
 31
0.0
  0
LINE
  5
141
  8
1
  6
CONTINUOUS
 62
     7
 10
4803.4637386176
 20
437.9772432506
 30
0.0
 11
4803.4637386176
 21
439.8772432504
 31
0.0
  0
LINE
  5
142
  8
1
  6
CONTINUOUS
 62
     7
 10
4980.0458677334
 20
380.9772433311
 30
0.0
 11
4980.0458684457
 21
318.4772432506
 31
0.0
  0
LINE
  5
143
  8
1
  6
CONTINUOUS
 62
     7
 10
4933.5458677334
 20
435.088240365
 30
0.0
 11
4933.5458677334
 21
448.4772432506
 31
0.0
  0
ARC
  5
144
  8
1
  6
CONTINUOUS
 62
     7
 10
4802.2637386176
 20
439.8772432504
 30
0.0
 40
1.2
 50
0.0
 51
90.0
  0
ARC
  5
145
  8
1
  6
CONTINUOUS
 62
     7
 10
4806.4637386176
 20
444.0772432504
 30
0.0
 40
1.2
 50
180.0
 51
270.0
  0
LINE
  5
146
  8
1
  6
CENTER
 62
     7
 10
4945.5458677334
 20
440.9772432506
 30
0.0
 11
4910.7458677334
 21
440.9772432506
 31
0.0
  0
LINE
  5
147
  8
1
  6
CONTINUOUS
 62
     7
 10
4805.2637386176
 20
439.8772432506
 30
0.0
 11
4805.2637386176
 21
437.9772432506
 31
0.0
  0
ARC
  5
148
  8
1
  6
CONTINUOUS
 62
     7
 10
4922.0458677334
 20
435.0882403649
 30
0.0
 40
3.0
 50
276.8497464359
 51
0.0
  0
LINE
  5
149
  8
1
  6
CONTINUOUS
 62
     7
 10
4875.5458635778
 20
325.453136092
 30
0.0
 11
4877.0458670209
 21
325.453136092
 31
0.0
  0
LINE
  5
14A
  8
1
  6
CONTINUOUS
 62
     7
 10
4981.5458693489
 20
331.4772432515
 30
0.0
 11
4980.0458684458
 21
331.4772432515
 31
0.0
  0
LINE
  5
14B
  8
1
  6
CONTINUOUS
 62
     7
 10
4981.5458484782
 20
380.9772433311
 30
0.0
 11
4981.5458748301
 21
318.4772432506
 31
0.0
  0
ARC
  5
14C
  8
1
  6
CONTINUOUS
 62
     7
 10
4934.0458677334
 20
445.9772432506
 30
0.0
 40
0.5
 50
180.0
 51
270.0
  0
LINE
  5
14D
  8
1
  6
CONTINUOUS
 62
     7
 10
4935.2561930841
 20
436.4772432506
 30
0.0
 11
4935.2561930841
 21
436.476722546
 31
0.0
  0
ARC
  5
14E
  8
1
  6
CONTINUOUS
 62
     7
 10
4935.0458677334
 20
435.088240365
 30
0.0
 40
1.5
 50
180.0
 51
263.1502535641
  0
ARC
  5
14F
  8
1
  6
CONTINUOUS
 62
     7
 10
4935.0458677334
 20
435.0882403649
 30
0.0
 40
3.0
 50
180.0
 51
263.1502535641
  0
LINE
  5
150
  8
1
  6
CONTINUOUS
 62
     7
 10
4874.5458676203
 20
337.4772432506
 30
0.0
 11
4874.5458676203
 21
380.9772433311
 31
0.0
  0
LINE
  5
151
  8
1
  6
CONTINUOUS
 62
     7
 10
4932.0458677334
 20
434.7871621045
 30
0.0
 11
4932.0458677334
 21
448.4772432508
 31
0.0
  0
LINE
  5
152
  8
1
  6
CONTINUOUS
 62
     7
 10
4808.3637386176
 20
441.0772432506
 30
0.0
 11
4806.4637386176
 21
441.0772432506
 31
0.0
  0
ARC
  5
153
  8
1
  6
CONTINUOUS
 62
     7
 10
4928.5458677334
 20
380.9772433311
 30
0.0
 40
54.0
 50
0.0
 51
83.1502527501
  0
LINE
  5
154
  8
1
  6
CONTINUOUS
 62
     7
 10
4806.4637386176
 20
442.8772432506
 30
0.0
 11
4808.3637386176
 21
442.8772432506
 31
0.0
  0
LINE
  5
155
  8
1
  6
CONTINUOUS
 62
     7
 10
4800.3637386176
 20
442.8772432506
 30
0.0
 11
4802.2637386176
 21
442.8772432506
 31
0.0
  0
LINE
  5
156
  8
1
  6
CONTINUOUS
 62
     7
 10
4805.2637386176
 20
437.9772432506
 30
0.0
 11
4803.4637386176
 21
437.9772432506
 31
0.0
  0
ARC
  5
157
  8
1
  6
CONTINUOUS
 62
     7
 10
4806.4637386176
 20
439.8772432506
 30
0.0
 40
1.2
 50
90.0
 51
180.0
  0
LINE
  5
158
  8
1
  6
CONTINUOUS
 62
     7
 10
4877.0458677334
 20
380.9772433311
 30
0.0
 11
4877.0458670205
 21
318.4772432506
 31
0.0
  0
LINE
  5
159
  8
1
  6
CONTINUOUS
 62
     7
 10
4808.3637386176
 20
442.8772432506
 30
0.0
 11
4808.3637386176
 21
441.0772432506
 31
0.0
  0
LINE
  5
15A
  8
1
  6
CONTINUOUS
 62
     7
 10
4934.0458677334
 20
436.4772432506
 30
0.0
 11
4936.5458677334
 21
436.4772432506
 31
0.0
  0
LINE
  5
15B
  8
1
  6
CONTINUOUS
 62
     7
 10
4934.0458677334
 20
445.4772432506
 30
0.0
 11
4936.5458677334
 21
445.4772432506
 31
0.0
  0
ARC
  5
15C
  8
1
  6
CONTINUOUS
 62
     7
 10
4802.2637386176
 20
444.0772432506
 30
0.0
 40
1.2
 50
270.0
 51
0.0
  0
LINE
  5
15D
  8
1
  6
CONTINUOUS
 62
     7
 10
4804.3637386176
 20
435.6725783111
 30
0.0
 11
4798.9037386176
 21
438.8249107809
 31
0.0
  0
LINE
  5
15E
  8
1
  6
CONTINUOUS
 62
     7
 10
4936.5458677334
 20
445.4772432506
 30
0.0
 11
4936.5458677334
 21
436.4772432506
 31
0.0
  0
LINE
  5
15F
  8
1
  6
CONTINUOUS
 62
     7
 10
4982.5458678464
 20
337.4772432506
 30
0.0
 11
4982.5458678464
 21
380.9772433311
 31
0.0
  0
ARC
  5
160
  8
1
  6
CONTINUOUS
 62
     7
 10
4922.0458669646
 20
435.0882402726
 30
0.0
 40
0.5
 50
276.8497472499
 51
0.0
  0
CIRCLE
  5
161
  8
1
  6
CONTINUOUS
 62
     7
 10
4804.3637386176
 20
441.9772432506
 30
0.0
 40
5.1
  0
ARC
  5
162
  8
1
  6
CONTINUOUS
 62
     7
 10
4935.0458685022
 20
435.0882402726
 30
0.0
 40
0.5
 50
180.0000317194
 51
263.1502527501
  0
TEXT
  5
163
  8
1
  6
CONTINUOUS
 62
     7
 10
4964.936487225142
 20
302.1386368181818
 30
0.0
 40
3.5
  1
ＤＣＦ－８０Ｆ
 41
0.609191
 51
15.0
  0
ENDSEC
  0
EOF
