  0
SECTION
  2
HEADER
  9
$ACADVER
  1
AC1006
  9
$DWGCODEPAGE
  3
ansi_932
  9
$INSBASE
 10
0.0
 20
0.0
 30
0.0
  9
$EXTMIN
 10
-1230.0
 20
579.2386363636361
  9
$EXTMAX
 10
-678.7563734269404
 20
938.7499999999998
  9
$LIMMIN
 10
0.0
 20
0.0
  9
$LIMMAX
 10
12.0
 20
9.0
  9
$ORTHOMODE
 70
     0
  9
$REGENMODE
 70
     1
  9
$FILLMODE
 70
     1
  9
$QTEXTMODE
 70
     0
  9
$MIRRTEXT
 70
     1
  9
$DRAGMODE
 70
     2
  9
$LTSCALE
 40
1.0
  9
$OSMODE
 70
    37
  9
$ATTMODE
 70
     1
  9
$TEXTSIZE
 40
0.2
  9
$TRACEWID
 40
0.05
  9
$TEXTSTYLE
  7
STANDARD
  9
$CLAYER
  8
0
  9
$CELTYPE
  6
BYLAYER
  9
$CECOLOR
 62
   256
  9
$DIMSCALE
 40
1.0
  9
$DIMASZ
 40
3.0
  9
$DIMEXO
 40
0.0625
  9
$DIMDLI
 40
0.38
  9
$DIMRND
 40
0.0
  9
$DIMDLE
 40
0.0
  9
$DIMEXE
 40
1.5
  9
$DIMTP
 40
0.0
  9
$DIMTM
 40
0.0
  9
$DIMTXT
 40
3.0
  9
$DIMCEN
 40
0.09
  9
$DIMTSZ
 40
0.0
  9
$DIMTOL
 70
     0
  9
$DIMLIM
 70
     0
  9
$DIMTIH
 70
     1
  9
$DIMTOH
 70
     1
  9
$DIMSE1
 70
     0
  9
$DIMSE2
 70
     0
  9
$DIMTAD
 70
     1
  9
$DIMZIN
 70
     0
  9
$DIMBLK
  1

  9
$DIMASO
 70
     1
  9
$DIMSHO
 70
     1
  9
$DIMPOST
  1

  9
$DIMAPOST
  1

  9
$DIMALT
 70
     0
  9
$DIMALTD
 70
     2
  9
$DIMALTF
 40
25.4
  9
$DIMLFAC
 40
1.0
  9
$DIMTOFL
 70
     0
  9
$DIMTVP
 40
0.0
  9
$DIMTIX
 70
     0
  9
$DIMSOXD
 70
     0
  9
$DIMSAH
 70
     0
  9
$DIMBLK1
  1

  9
$DIMBLK2
  1

  9
$LUNITS
 70
     2
  9
$LUPREC
 70
     4
  9
$SKETCHINC
 40
0.1
  9
$FILLETRAD
 40
0.5
  9
$AUNITS
 70
     0
  9
$AUPREC
 70
     0
  9
$MENU
  1
.
  9
$ELEVATION
 40
0.0
  9
$THICKNESS
 40
0.0
  9
$LIMCHECK
 70
     0
  9
$CHAMFERA
 40
0.0
  9
$CHAMFERB
 40
0.0
  9
$SKPOLY
 70
     0
  9
$TDCREATE
 40
2460455.390063796
  9
$TDUPDATE
 40
2460455.390064063
  9
$TDINDWG
 40
0.0000000116
  9
$TDUSRTIMER
 40
0.0000000116
  9
$USRTIMER
 70
     1
  9
$ANGBASE
 50
0.0
  9
$ANGDIR
 70
     0
  9
$PDMODE
 70
     0
  9
$PDSIZE
 40
0.0
  9
$PLINEWID
 40
0.0
  9
$COORDS
 70
     1
  9
$SPLFRAME
 70
     0
  9
$SPLINETYPE
 70
     6
  9
$SPLINESEGS
 70
     8
  9
$ATTDIA
 70
     0
  9
$ATTREQ
 70
     1
  9
$HANDLING
 70
     1
  9
$HANDSEED
  5
6BC
  9
$SURFTAB1
 70
     6
  9
$SURFTAB2
 70
     6
  9
$SURFTYPE
 70
     6
  9
$SURFU
 70
     6
  9
$SURFV
 70
     6
  9
$UCSNAME
  2

  9
$UCSORG
 10
0.0
 20
0.0
 30
0.0
  9
$UCSXDIR
 10
1.0
 20
0.0
 30
0.0
  9
$UCSYDIR
 10
0.0
 20
1.0
 30
0.0
  9
$USERI1
 70
     0
  9
$USERI2
 70
     0
  9
$USERI3
 70
     0
  9
$USERI4
 70
     0
  9
$USERI5
 70
     0
  9
$USERR1
 40
0.0
  9
$USERR2
 40
0.0
  9
$USERR3
 40
0.0
  9
$USERR4
 40
0.0
  9
$USERR5
 40
0.0
  9
$WORLDVIEW
 70
     1
  0
ENDSEC
  0
SECTION
  2
TABLES
  0
TABLE
  2
VPORT
 70
     1
  0
VPORT
  2
*ACTIVE
 70
     0
 10
0.0
 20
0.0
 11
1.0
 21
1.0
 12
-954.3781867134702
 22
758.994318181818
 13
0.0
 23
0.0
 14
0.5
 24
0.5
 15
0.5
 25
0.5
 16
0.0
 26
0.0
 36
1.0
 17
0.0
 27
0.0
 37
0.0
 40
359.5113636363636
 41
1.6
 42
50.0
 43
0.0
 44
0.0
 50
0.0
 51
0.0
 71
     0
 72
   100
 73
     1
 74
     3
 75
     0
 76
     0
 77
     0
 78
     0
  0
ENDTAB
  0
TABLE
  2
LTYPE
 70
     2
  0
LTYPE
  2
CONTINUOUS
 70
     0
  3
Solid line
 72
    65
 73
     0
 40
0.0
  0
LTYPE
  2
CENTER
 70
     0
  3

 72
    65
 73
     0
 40
0.0
  0
ENDTAB
  0
TABLE
  2
LAYER
 70
     1
  0
LAYER
  2
0
 70
     0
 62
     7
  6
CONTINUOUS
  0
ENDTAB
  0
TABLE
  2
STYLE
 70
     2
  0
STYLE
  2
STANDARD
 70
     0
 40
0.0
 41
1.0
 50
0.0
 71
     0
 42
0.2
  3
txt
  4

  0
STYLE
  2
ＭＳ_ゴシック
 70
     0
 40
0.0
 41
1.0
 50
0.0
 71
     0
 42
0.2
  3
ＭＳ ゴシック.shx
  4

  0
ENDTAB
  0
TABLE
  2
VIEW
 70
     0
  0
ENDTAB
  0
TABLE
  2
UCS
 70
     0
  0
ENDTAB
  0
ENDSEC
  0
SECTION
  2
BLOCKS
  0
BLOCK
  8
0
  2
D_FRAME_VIEW_1330
 70
     0
 10
0.0
 20
0.0
 30
0.0
  0
ARC
  5
71
  8
0
  6
CONTINUOUS
 62
     7
 10
-892.0000000000001
 20
911.7499999999999
 30
0.0
 40
20.00000000000002
 50
0.000000000000007
 51
90.0
  0
LINE
  5
72
  8
0
  6
CONTINUOUS
 62
     7
 10
-872.0000000000001
 20
766.2499999999999
 30
0.0
 11
-872.0000000000001
 21
911.7499999999999
 31
0.0
  0
LINE
  5
73
  8
0
  6
CONTINUOUS
 62
     9
 10
-872.0000000000001
 20
766.2499999999999
 30
0.0
 11
-907.0
 21
766.2499999999999
 31
0.0
  0
LINE
  5
74
  8
0
  6
CONTINUOUS
 62
     7
 10
-872.0000000000001
 20
620.7499999999999
 30
0.0
 11
-872.0000000000001
 21
766.2499999999999
 31
0.0
  0
LINE
  5
75
  8
0
  6
CONTINUOUS
 62
     7
 10
-892.0
 20
600.7499999999999
 30
0.0
 11
-1037.5
 21
600.7499999999999
 31
0.0
  0
LINE
  5
76
  8
0
  6
CONTINUOUS
 62
     9
 10
-1037.5
 20
600.7499999999999
 30
0.0
 11
-1037.5
 21
635.7499999999999
 31
0.0
  0
LINE
  5
77
  8
0
  6
CONTINUOUS
 62
     7
 10
-1037.5
 20
600.7499999999999
 30
0.0
 11
-1183.0
 21
600.7499999999999
 31
0.0
  0
ARC
  5
78
  8
0
  6
CONTINUOUS
 62
     7
 10
-1183.0
 20
620.7499999999998
 30
0.0
 40
20.00000000000002
 50
180.0
 51
270.0
  0
LINE
  5
79
  8
0
  6
CONTINUOUS
 62
     7
 10
-1203.0
 20
620.7499999999998
 30
0.0
 11
-1203.0
 21
766.2499999999999
 31
0.0
  0
LINE
  5
7A
  8
0
  6
CONTINUOUS
 62
     9
 10
-1203.0
 20
766.2499999999999
 30
0.0
 11
-1168.0
 21
766.2499999999999
 31
0.0
  0
LINE
  5
7B
  8
0
  6
CONTINUOUS
 62
     7
 10
-1203.0
 20
766.2499999999999
 30
0.0
 11
-1203.0
 21
911.7499999999998
 31
0.0
  0
ARC
  5
7C
  8
0
  6
CONTINUOUS
 62
     7
 10
-1183.0
 20
911.7499999999998
 30
0.0
 40
20.00000000000002
 50
90.0
 51
180.0
  0
LINE
  5
7D
  8
0
  6
CONTINUOUS
 62
     7
 10
-1037.5
 20
931.7499999999999
 30
0.0
 11
-1183.0
 21
931.7499999999999
 31
0.0
  0
LINE
  5
7E
  8
0
  6
CONTINUOUS
 62
     9
 10
-1037.5
 20
931.7499999999999
 30
0.0
 11
-1037.5
 21
896.7499999999999
 31
0.0
  0
LINE
  5
7F
  8
0
  6
CONTINUOUS
 62
     7
 10
-892.0000000000001
 20
931.7499999999999
 30
0.0
 11
-1037.5
 21
931.7499999999999
 31
0.0
  0
ARC
  5
80
  8
0
  6
CONTINUOUS
 62
     7
 10
-892.0
 20
620.7499999999999
 30
0.0
 40
19.99999999999991
 50
270.0
 51
0.0
  0
POLYLINE
  5
81
  8
0
  6
CONTINUOUS
 62
     9
 66
     1
 10
0.0
 20
0.0
 30
0.0
  0
VERTEX
  5
212
  8
0
  6
CONTINUOUS
 62
     9
 10
-1049.029635251075
 20
641.2543063177665
 30
0.0
  0
VERTEX
  5
213
  8
0
  6
CONTINUOUS
 62
     9
 10
-1048.345582997127
 20
641.3214338114395
 30
0.0
  0
VERTEX
  5
214
  8
0
  6
CONTINUOUS
 62
     9
 10
-1047.687882295415
 20
641.5204162576817
 30
0.0
  0
VERTEX
  5
215
  8
0
  6
CONTINUOUS
 62
     9
 10
-1047.081793566879
 20
641.8436113043731
 30
0.0
  0
VERTEX
  5
216
  8
0
  6
CONTINUOUS
 62
     9
 10
-1046.550594962769
 20
642.278605945257
 30
0.0
  0
VERTEX
  5
217
  8
0
  6
CONTINUOUS
 62
     9
 10
-1046.114688316788
 20
642.8086932683483
 30
0.0
  0
VERTEX
  5
218
  8
0
  6
CONTINUOUS
 62
     9
 10
-1045.790815568453
 20
643.4135141210994
 30
0.0
  0
VERTEX
  5
219
  8
0
  6
CONTINUOUS
 62
     9
 10
-1045.591415752621
 20
644.0698390477795
 30
0.0
  0
VERTEX
  5
21A
  8
0
  6
CONTINUOUS
 62
     9
 10
-1045.524147251397
 20
644.7524604670695
 30
0.0
  0
SEQEND
  5
642
  8
0
  6
CONTINUOUS
 62
     9
  0
LINE
  5
82
  8
0
  6
CONTINUOUS
 62
     9
 10
-1049.029635251075
 20
641.2543063177666
 30
0.0
 11
-1143.970364748925
 21
641.2543063177666
 31
0.0
  0
POLYLINE
  5
83
  8
0
  6
CONTINUOUS
 62
     9
 66
     1
 10
0.0
 20
0.0
 30
0.0
  0
VERTEX
  5
21B
  8
0
  6
CONTINUOUS
 62
     9
 10
-1029.475852748603
 20
644.7524604670695
 30
0.0
  0
VERTEX
  5
21C
  8
0
  6
CONTINUOUS
 62
     9
 10
-1029.408584247379
 20
644.0698390477795
 30
0.0
  0
VERTEX
  5
21D
  8
0
  6
CONTINUOUS
 62
     9
 10
-1029.209184431548
 20
643.4135141210994
 30
0.0
  0
VERTEX
  5
21E
  8
0
  6
CONTINUOUS
 62
     9
 10
-1028.885311683213
 20
642.8086932683483
 30
0.0
  0
VERTEX
  5
21F
  8
0
  6
CONTINUOUS
 62
     9
 10
-1028.449405037231
 20
642.278605945257
 30
0.0
  0
VERTEX
  5
220
  8
0
  6
CONTINUOUS
 62
     9
 10
-1027.918206433121
 20
641.8436113043731
 30
0.0
  0
VERTEX
  5
221
  8
0
  6
CONTINUOUS
 62
     9
 10
-1027.312117704586
 20
641.5204162576817
 30
0.0
  0
VERTEX
  5
222
  8
0
  6
CONTINUOUS
 62
     9
 10
-1026.654417002874
 20
641.3214338114395
 30
0.0
  0
VERTEX
  5
223
  8
0
  6
CONTINUOUS
 62
     9
 10
-1025.970364748925
 20
641.2543063177665
 30
0.0
  0
SEQEND
  5
643
  8
0
  6
CONTINUOUS
 62
     9
  0
LINE
  5
84
  8
0
  6
CONTINUOUS
 62
     9
 10
-1025.970364748925
 20
641.2543063177666
 30
0.0
 11
-931.0296352510749
 21
641.2543063177666
 31
0.0
  0
POLYLINE
  5
85
  8
0
  6
CONTINUOUS
 62
     9
 66
     1
 10
0.0
 20
0.0
 30
0.0
  0
VERTEX
  5
224
  8
0
  6
CONTINUOUS
 62
     9
 10
-1147.475852748603
 20
644.7524604670695
 30
0.0
  0
VERTEX
  5
225
  8
0
  6
CONTINUOUS
 62
     9
 10
-1147.408584247379
 20
644.0698390477795
 30
0.0
  0
VERTEX
  5
226
  8
0
  6
CONTINUOUS
 62
     9
 10
-1147.209184431547
 20
643.4135141210994
 30
0.0
  0
VERTEX
  5
227
  8
0
  6
CONTINUOUS
 62
     9
 10
-1146.885311683212
 20
642.8086932683483
 30
0.0
  0
VERTEX
  5
228
  8
0
  6
CONTINUOUS
 62
     9
 10
-1146.449405037231
 20
642.278605945257
 30
0.0
  0
VERTEX
  5
229
  8
0
  6
CONTINUOUS
 62
     9
 10
-1145.918206433121
 20
641.8436113043732
 30
0.0
  0
VERTEX
  5
22A
  8
0
  6
CONTINUOUS
 62
     9
 10
-1145.312117704586
 20
641.5204162576817
 30
0.0
  0
VERTEX
  5
22B
  8
0
  6
CONTINUOUS
 62
     9
 10
-1144.654417002873
 20
641.3214338114395
 30
0.0
  0
VERTEX
  5
22C
  8
0
  6
CONTINUOUS
 62
     9
 10
-1143.970364748925
 20
641.2543063177665
 30
0.0
  0
SEQEND
  5
644
  8
0
  6
CONTINUOUS
 62
     9
  0
POLYLINE
  5
86
  8
0
  6
CONTINUOUS
 62
     9
 66
     1
 10
0.0
 20
0.0
 30
0.0
  0
VERTEX
  5
22D
  8
0
  6
CONTINUOUS
 62
     9
 10
-931.029635251075
 20
641.2543063177666
 30
0.0
  0
VERTEX
  5
22E
  8
0
  6
CONTINUOUS
 62
     9
 10
-930.3455829971269
 20
641.3214338114396
 30
0.0
  0
VERTEX
  5
22F
  8
0
  6
CONTINUOUS
 62
     9
 10
-929.6878822954145
 20
641.5204162576819
 30
0.0
  0
VERTEX
  5
230
  8
0
  6
CONTINUOUS
 62
     9
 10
-929.0817935668791
 20
641.8436113043733
 30
0.0
  0
VERTEX
  5
231
  8
0
  6
CONTINUOUS
 62
     9
 10
-928.5505949627689
 20
642.2786059452571
 30
0.0
  0
VERTEX
  5
232
  8
0
  6
CONTINUOUS
 62
     9
 10
-928.1146883167877
 20
642.8086932683484
 30
0.0
  0
VERTEX
  5
233
  8
0
  6
CONTINUOUS
 62
     9
 10
-927.7908155684527
 20
643.4135141210995
 30
0.0
  0
VERTEX
  5
234
  8
0
  6
CONTINUOUS
 62
     9
 10
-927.5914157526214
 20
644.0698390477796
 30
0.0
  0
VERTEX
  5
235
  8
0
  6
CONTINUOUS
 62
     9
 10
-927.5241472513973
 20
644.7524604670696
 30
0.0
  0
SEQEND
  5
645
  8
0
  6
CONTINUOUS
 62
     9
  0
LINE
  5
87
  8
0
  6
CONTINUOUS
 62
     9
 10
-927.5241472513972
 20
644.7524604670695
 30
0.0
 11
-927.5241472513972
 21
651.7803143450013
 31
0.0
  0
LINE
  5
88
  8
0
  6
CONTINUOUS
 62
     9
 10
-1029.475852748603
 20
646.7803143450013
 30
0.0
 11
-1029.475852748603
 21
644.7524604670695
 31
0.0
  0
LINE
  5
89
  8
0
  6
CONTINUOUS
 62
     9
 10
-1045.524147251397
 20
646.7803143450013
 30
0.0
 11
-1045.524147251397
 21
644.7524604670695
 31
0.0
  0
LINE
  5
8A
  8
0
  6
CONTINUOUS
 62
     9
 10
-1147.475852748603
 20
644.7524604670695
 30
0.0
 11
-1147.475852748603
 21
651.7803143450013
 31
0.0
  0
POLYLINE
  5
8B
  8
0
  6
CONTINUOUS
 62
     9
 66
     1
 10
0.0
 20
0.0
 30
0.0
  0
VERTEX
  5
236
  8
0
  6
CONTINUOUS
 62
     9
 10
-1029.475852748603
 20
646.7803143450013
 30
0.0
  0
VERTEX
  5
237
  8
0
  6
CONTINUOUS
 62
     9
 10
-1029.562617110016
 20
647.657192522512
 30
0.0
  0
VERTEX
  5
238
  8
0
  6
CONTINUOUS
 62
     9
 10
-1029.818522042017
 20
648.5001221703761
 30
0.0
  0
VERTEX
  5
239
  8
0
  6
CONTINUOUS
 62
     9
 10
-1030.233767418706
 20
649.2768224856903
 30
0.0
  0
VERTEX
  5
23A
  8
0
  6
CONTINUOUS
 62
     9
 10
-1030.792451018356
 20
649.9575489816436
 30
0.0
  0
VERTEX
  5
23B
  8
0
  6
CONTINUOUS
 62
     9
 10
-1031.47317751431
 20
650.5162325812937
 30
0.0
  0
VERTEX
  5
23C
  8
0
  6
CONTINUOUS
 62
     9
 10
-1032.249877829624
 20
650.9314779579829
 30
0.0
  0
VERTEX
  5
23D
  8
0
  6
CONTINUOUS
 62
     9
 10
-1033.092807477488
 20
651.1873828899832
 30
0.0
  0
VERTEX
  5
23E
  8
0
  6
CONTINUOUS
 62
     9
 10
-1033.969685654998
 20
651.274147251397
 30
0.0
  0
SEQEND
  5
646
  8
0
  6
CONTINUOUS
 62
     9
  0
POLYLINE
  5
8C
  8
0
  6
CONTINUOUS
 62
     9
 66
     1
 10
0.0
 20
0.0
 30
0.0
  0
VERTEX
  5
23F
  8
0
  6
CONTINUOUS
 62
     9
 10
-1041.030314345001
 20
651.274147251397
 30
0.0
  0
VERTEX
  5
240
  8
0
  6
CONTINUOUS
 62
     9
 10
-1041.907192522512
 20
651.1873828899832
 30
0.0
  0
VERTEX
  5
241
  8
0
  6
CONTINUOUS
 62
     9
 10
-1042.750122170376
 20
650.9314779579829
 30
0.0
  0
VERTEX
  5
242
  8
0
  6
CONTINUOUS
 62
     9
 10
-1043.52682248569
 20
650.5162325812937
 30
0.0
  0
VERTEX
  5
243
  8
0
  6
CONTINUOUS
 62
     9
 10
-1044.207548981644
 20
649.9575489816436
 30
0.0
  0
VERTEX
  5
244
  8
0
  6
CONTINUOUS
 62
     9
 10
-1044.766232581294
 20
649.2768224856903
 30
0.0
  0
VERTEX
  5
245
  8
0
  6
CONTINUOUS
 62
     9
 10
-1045.181477957983
 20
648.5001221703761
 30
0.0
  0
VERTEX
  5
246
  8
0
  6
CONTINUOUS
 62
     9
 10
-1045.437382889983
 20
647.657192522512
 30
0.0
  0
VERTEX
  5
247
  8
0
  6
CONTINUOUS
 62
     9
 10
-1045.524147251397
 20
646.7803143450013
 30
0.0
  0
SEQEND
  5
647
  8
0
  6
CONTINUOUS
 62
     9
  0
LINE
  5
8D
  8
0
  6
CONTINUOUS
 62
     9
 10
-1041.030314345002
 20
651.2741472513969
 30
0.0
 11
-1033.969685654999
 21
651.2741472513969
 31
0.0
  0
POLYLINE
  5
8E
  8
0
  6
CONTINUOUS
 62
     9
 66
     1
 10
0.0
 20
0.0
 30
0.0
  0
VERTEX
  5
248
  8
0
  6
CONTINUOUS
 62
     9
 10
-923.0303143450017
 20
656.2741472513969
 30
0.0
  0
VERTEX
  5
249
  8
0
  6
CONTINUOUS
 62
     9
 10
-923.9071925225122
 20
656.1873828899833
 30
0.0
  0
VERTEX
  5
24A
  8
0
  6
CONTINUOUS
 62
     9
 10
-924.7501221703764
 20
655.931477957983
 30
0.0
  0
VERTEX
  5
24B
  8
0
  6
CONTINUOUS
 62
     9
 10
-925.5268224856907
 20
655.5162325812937
 30
0.0
  0
VERTEX
  5
24C
  8
0
  6
CONTINUOUS
 62
     9
 10
-926.2075489816439
 20
654.9575489816436
 30
0.0
  0
VERTEX
  5
24D
  8
0
  6
CONTINUOUS
 62
     9
 10
-926.7662325812939
 20
654.2768224856904
 30
0.0
  0
VERTEX
  5
24E
  8
0
  6
CONTINUOUS
 62
     9
 10
-927.1814779579831
 20
653.5001221703762
 30
0.0
  0
VERTEX
  5
24F
  8
0
  6
CONTINUOUS
 62
     9
 10
-927.4373828899834
 20
652.6571925225121
 30
0.0
  0
VERTEX
  5
250
  8
0
  6
CONTINUOUS
 62
     9
 10
-927.5241472513972
 20
651.7803143450014
 30
0.0
  0
SEQEND
  5
648
  8
0
  6
CONTINUOUS
 62
     9
  0
POLYLINE
  5
8F
  8
0
  6
CONTINUOUS
 62
     9
 66
     1
 10
0.0
 20
0.0
 30
0.0
  0
VERTEX
  5
251
  8
0
  6
CONTINUOUS
 62
     9
 10
-1147.475852748603
 20
651.7803143450014
 30
0.0
  0
VERTEX
  5
252
  8
0
  6
CONTINUOUS
 62
     9
 10
-1147.562617110017
 20
652.657192522512
 30
0.0
  0
VERTEX
  5
253
  8
0
  6
CONTINUOUS
 62
     9
 10
-1147.818522042017
 20
653.5001221703761
 30
0.0
  0
VERTEX
  5
254
  8
0
  6
CONTINUOUS
 62
     9
 10
-1148.233767418706
 20
654.2768224856904
 30
0.0
  0
VERTEX
  5
255
  8
0
  6
CONTINUOUS
 62
     9
 10
-1148.792451018356
 20
654.9575489816436
 30
0.0
  0
VERTEX
  5
256
  8
0
  6
CONTINUOUS
 62
     9
 10
-1149.47317751431
 20
655.5162325812937
 30
0.0
  0
VERTEX
  5
257
  8
0
  6
CONTINUOUS
 62
     9
 10
-1150.249877829624
 20
655.9314779579829
 30
0.0
  0
VERTEX
  5
258
  8
0
  6
CONTINUOUS
 62
     9
 10
-1151.092807477488
 20
656.1873828899832
 30
0.0
  0
VERTEX
  5
259
  8
0
  6
CONTINUOUS
 62
     9
 10
-1151.969685654999
 20
656.2741472513969
 30
0.0
  0
SEQEND
  5
649
  8
0
  6
CONTINUOUS
 62
     9
  0
POLYLINE
  5
90
  8
0
  6
CONTINUOUS
 62
     9
 66
     1
 10
0.0
 20
0.0
 30
0.0
  0
VERTEX
  5
25A
  8
0
  6
CONTINUOUS
 62
     9
 10
-916.0024604670696
 20
656.2741472513969
 30
0.0
  0
VERTEX
  5
25B
  8
0
  6
CONTINUOUS
 62
     9
 10
-915.3198390477797
 20
656.3414157526212
 30
0.0
  0
VERTEX
  5
25C
  8
0
  6
CONTINUOUS
 62
     9
 10
-914.6635141210995
 20
656.5408155684524
 30
0.0
  0
VERTEX
  5
25D
  8
0
  6
CONTINUOUS
 62
     9
 10
-914.0586932683484
 20
656.8646883167875
 30
0.0
  0
VERTEX
  5
25E
  8
0
  6
CONTINUOUS
 62
     9
 10
-913.5286059452571
 20
657.3005949627687
 30
0.0
  0
VERTEX
  5
25F
  8
0
  6
CONTINUOUS
 62
     9
 10
-913.0936113043733
 20
657.8317935668789
 30
0.0
  0
VERTEX
  5
260
  8
0
  6
CONTINUOUS
 62
     9
 10
-912.7704162576819
 20
658.4378822954143
 30
0.0
  0
VERTEX
  5
261
  8
0
  6
CONTINUOUS
 62
     9
 10
-912.5714338114396
 20
659.0955829971266
 30
0.0
  0
VERTEX
  5
262
  8
0
  6
CONTINUOUS
 62
     9
 10
-912.5043063177666
 20
659.7796352510748
 30
0.0
  0
SEQEND
  5
64A
  8
0
  6
CONTINUOUS
 62
     9
  0
LINE
  5
91
  8
0
  6
CONTINUOUS
 62
     9
 10
-1151.969685654999
 20
656.2741472513969
 30
0.0
 11
-1158.997539532931
 21
656.2741472513969
 31
0.0
  0
LINE
  5
92
  8
0
  6
CONTINUOUS
 62
     9
 10
-923.0303143450016
 20
656.2741472513969
 30
0.0
 11
-916.0024604670696
 21
656.2741472513969
 31
0.0
  0
POLYLINE
  5
93
  8
0
  6
CONTINUOUS
 62
     9
 66
     1
 10
0.0
 20
0.0
 30
0.0
  0
VERTEX
  5
263
  8
0
  6
CONTINUOUS
 62
     9
 10
-1162.495693682233
 20
659.7796352510748
 30
0.0
  0
VERTEX
  5
264
  8
0
  6
CONTINUOUS
 62
     9
 10
-1162.42856618856
 20
659.0955829971266
 30
0.0
  0
VERTEX
  5
265
  8
0
  6
CONTINUOUS
 62
     9
 10
-1162.229583742318
 20
658.4378822954143
 30
0.0
  0
VERTEX
  5
266
  8
0
  6
CONTINUOUS
 62
     9
 10
-1161.906388695627
 20
657.8317935668789
 30
0.0
  0
VERTEX
  5
267
  8
0
  6
CONTINUOUS
 62
     9
 10
-1161.471394054743
 20
657.3005949627687
 30
0.0
  0
VERTEX
  5
268
  8
0
  6
CONTINUOUS
 62
     9
 10
-1160.941306731652
 20
656.8646883167875
 30
0.0
  0
VERTEX
  5
269
  8
0
  6
CONTINUOUS
 62
     9
 10
-1160.3364858789
 20
656.5408155684524
 30
0.0
  0
VERTEX
  5
26A
  8
0
  6
CONTINUOUS
 62
     9
 10
-1159.68016095222
 20
656.3414157526212
 30
0.0
  0
VERTEX
  5
26B
  8
0
  6
CONTINUOUS
 62
     9
 10
-1158.99753953293
 20
656.2741472513969
 30
0.0
  0
SEQEND
  5
64B
  8
0
  6
CONTINUOUS
 62
     9
  0
LINE
  5
94
  8
0
  6
CONTINUOUS
 62
     9
 10
-1162.495693682233
 20
659.7796352510748
 30
0.0
 11
-1162.495693682233
 21
754.720364748925
 31
0.0
  0
LINE
  5
95
  8
0
  6
CONTINUOUS
 62
     9
 10
-912.5043063177667
 20
659.7796352510748
 30
0.0
 11
-912.5043063177667
 21
754.7203647489251
 31
0.0
  0
LINE
  5
96
  8
0
  6
CONTINUOUS
 62
     9
 10
-1162.495693682233
 20
872.720364748925
 30
0.0
 11
-1162.495693682233
 21
777.7796352510746
 31
0.0
  0
LINE
  5
97
  8
0
  6
CONTINUOUS
 62
     9
 10
-912.5043063177668
 20
872.720364748925
 30
0.0
 11
-912.5043063177667
 21
777.7796352510748
 31
0.0
  0
POLYLINE
  5
98
  8
0
  6
CONTINUOUS
 62
     9
 66
     1
 10
0.0
 20
0.0
 30
0.0
  0
VERTEX
  5
26C
  8
0
  6
CONTINUOUS
 62
     9
 10
-922.515769636674
 20
762.4478555608497
 30
0.0
  0
VERTEX
  5
26D
  8
0
  6
CONTINUOUS
 62
     9
 10
-922.384741863439
 20
761.6107987882382
 30
0.0
  0
VERTEX
  5
26E
  8
0
  6
CONTINUOUS
 62
     9
 10
-922.0991793231892
 20
760.813348798162
 30
0.0
  0
VERTEX
  5
26F
  8
0
  6
CONTINUOUS
 62
     9
 10
-921.6691940837483
 20
760.083744127715
 30
0.0
  0
VERTEX
  5
270
  8
0
  6
CONTINUOUS
 62
     9
 10
-921.1100123715693
 20
759.4478208403583
 30
0.0
  0
VERTEX
  5
271
  8
0
  6
CONTINUOUS
 62
     9
 10
-920.4414353951519
 20
758.9280976439259
 30
0.0
  0
VERTEX
  5
272
  8
0
  6
CONTINUOUS
 62
     9
 10
-919.687138163567
 20
758.5429784796601
 30
0.0
  0
VERTEX
  5
273
  8
0
  6
CONTINUOUS
 62
     9
 10
-918.8738311296573
 20
758.3061008194289
 30
0.0
  0
VERTEX
  5
274
  8
0
  6
CONTINUOUS
 62
     9
 10
-918.0303143450017
 20
758.2258527486028
 30
0.0
  0
SEQEND
  5
64C
  8
0
  6
CONTINUOUS
 62
     9
  0
POLYLINE
  5
99
  8
0
  6
CONTINUOUS
 62
     9
 66
     1
 10
0.0
 20
0.0
 30
0.0
  0
VERTEX
  5
275
  8
0
  6
CONTINUOUS
 62
     9
 10
-1158.99753953293
 20
758.2258527486028
 30
0.0
  0
VERTEX
  5
276
  8
0
  6
CONTINUOUS
 62
     9
 10
-1159.68016095222
 20
758.1585842473786
 30
0.0
  0
VERTEX
  5
277
  8
0
  6
CONTINUOUS
 62
     9
 10
-1160.3364858789
 20
757.9591844315473
 30
0.0
  0
VERTEX
  5
278
  8
0
  6
CONTINUOUS
 62
     9
 10
-1160.941306731652
 20
757.6353116832123
 30
0.0
  0
VERTEX
  5
279
  8
0
  6
CONTINUOUS
 62
     9
 10
-1161.471394054743
 20
757.199405037231
 30
0.0
  0
VERTEX
  5
27A
  8
0
  6
CONTINUOUS
 62
     9
 10
-1161.906388695627
 20
756.6682064331209
 30
0.0
  0
VERTEX
  5
27B
  8
0
  6
CONTINUOUS
 62
     9
 10
-1162.229583742318
 20
756.0621177045855
 30
0.0
  0
VERTEX
  5
27C
  8
0
  6
CONTINUOUS
 62
     9
 10
-1162.42856618856
 20
755.4044170028732
 30
0.0
  0
VERTEX
  5
27D
  8
0
  6
CONTINUOUS
 62
     9
 10
-1162.495693682233
 20
754.720364748925
 30
0.0
  0
SEQEND
  5
64D
  8
0
  6
CONTINUOUS
 62
     9
  0
POLYLINE
  5
9A
  8
0
  6
CONTINUOUS
 62
     9
 66
     1
 10
0.0
 20
0.0
 30
0.0
  0
VERTEX
  5
27E
  8
0
  6
CONTINUOUS
 62
     9
 10
-1156.969685654999
 20
758.2258527486028
 30
0.0
  0
VERTEX
  5
27F
  8
0
  6
CONTINUOUS
 62
     9
 10
-1156.126168870343
 20
758.3061008194289
 30
0.0
  0
VERTEX
  5
280
  8
0
  6
CONTINUOUS
 62
     9
 10
-1155.312861836433
 20
758.5429784796601
 30
0.0
  0
VERTEX
  5
281
  8
0
  6
CONTINUOUS
 62
     9
 10
-1154.558564604848
 20
758.9280976439259
 30
0.0
  0
VERTEX
  5
282
  8
0
  6
CONTINUOUS
 62
     9
 10
-1153.889987628431
 20
759.4478208403583
 30
0.0
  0
VERTEX
  5
283
  8
0
  6
CONTINUOUS
 62
     9
 10
-1153.330805916252
 20
760.083744127715
 30
0.0
  0
VERTEX
  5
284
  8
0
  6
CONTINUOUS
 62
     9
 10
-1152.900820676811
 20
760.813348798162
 30
0.0
  0
VERTEX
  5
285
  8
0
  6
CONTINUOUS
 62
     9
 10
-1152.615258136561
 20
761.6107987882382
 30
0.0
  0
VERTEX
  5
286
  8
0
  6
CONTINUOUS
 62
     9
 10
-1152.484230363326
 20
762.4478555608497
 30
0.0
  0
SEQEND
  5
64E
  8
0
  6
CONTINUOUS
 62
     9
  0
POLYLINE
  5
9B
  8
0
  6
CONTINUOUS
 62
     9
 66
     1
 10
0.0
 20
0.0
 30
0.0
  0
VERTEX
  5
287
  8
0
  6
CONTINUOUS
 62
     9
 10
-912.5043063177666
 20
754.720364748925
 30
0.0
  0
VERTEX
  5
288
  8
0
  6
CONTINUOUS
 62
     9
 10
-912.5714338114396
 20
755.4044170028732
 30
0.0
  0
VERTEX
  5
289
  8
0
  6
CONTINUOUS
 62
     9
 10
-912.7704162576819
 20
756.0621177045855
 30
0.0
  0
VERTEX
  5
28A
  8
0
  6
CONTINUOUS
 62
     9
 10
-913.0936113043733
 20
756.6682064331209
 30
0.0
  0
VERTEX
  5
28B
  8
0
  6
CONTINUOUS
 62
     9
 10
-913.528605945257
 20
757.199405037231
 30
0.0
  0
VERTEX
  5
28C
  8
0
  6
CONTINUOUS
 62
     9
 10
-914.0586932683484
 20
757.6353116832123
 30
0.0
  0
VERTEX
  5
28D
  8
0
  6
CONTINUOUS
 62
     9
 10
-914.6635141210995
 20
757.9591844315473
 30
0.0
  0
VERTEX
  5
28E
  8
0
  6
CONTINUOUS
 62
     9
 10
-915.3198390477796
 20
758.1585842473786
 30
0.0
  0
VERTEX
  5
28F
  8
0
  6
CONTINUOUS
 62
     9
 10
-916.0024604670695
 20
758.2258527486028
 30
0.0
  0
SEQEND
  5
64F
  8
0
  6
CONTINUOUS
 62
     9
  0
LINE
  5
9C
  8
0
  6
CONTINUOUS
 62
     9
 10
-916.0024604670696
 20
758.2258527486027
 30
0.0
 11
-918.0303143450016
 21
758.2258527486027
 31
0.0
  0
LINE
  5
9D
  8
0
  6
CONTINUOUS
 62
     9
 10
-1158.997539532931
 20
758.2258527486027
 30
0.0
 11
-1156.969685654999
 21
758.2258527486027
 31
0.0
  0
POLYLINE
  5
9E
  8
0
  6
CONTINUOUS
 62
     9
 66
     1
 10
0.0
 20
0.0
 30
0.0
  0
VERTEX
  5
290
  8
0
  6
CONTINUOUS
 62
     9
 10
-1152.484230363326
 20
762.4478555608497
 30
0.0
  0
VERTEX
  5
291
  8
0
  6
CONTINUOUS
 62
     9
 10
-1152.493784296654
 20
762.6505508281115
 30
0.0
  0
VERTEX
  5
292
  8
0
  6
CONTINUOUS
 62
     9
 10
-1152.544299893243
 20
762.8473363184911
 30
0.0
  0
VERTEX
  5
293
  8
0
  6
CONTINUOUS
 62
     9
 10
-1152.633680886122
 20
763.0300459416757
 30
0.0
  0
VERTEX
  5
294
  8
0
  6
CONTINUOUS
 62
     9
 10
-1152.758218194612
 20
763.191097719537
 30
0.0
  0
VERTEX
  5
295
  8
0
  6
CONTINUOUS
 62
     9
 10
-1152.912743841612
 20
763.3238084186693
 30
0.0
  0
VERTEX
  5
296
  8
0
  6
CONTINUOUS
 62
     9
 10
-1153.090845411314
 20
763.4226708873381
 30
0.0
  0
VERTEX
  5
297
  8
0
  6
CONTINUOUS
 62
     9
 10
-1153.285132147925
 20
763.4835825880742
 30
0.0
  0
VERTEX
  5
298
  8
0
  6
CONTINUOUS
 62
     9
 10
-1153.487541652968
 20
763.5040158423969
 30
0.0
  0
VERTEX
  5
299
  8
0
  6
CONTINUOUS
 62
     9
 10
-1153.689674454027
 20
763.4831227229522
 30
0.0
  0
VERTEX
  5
29A
  8
0
  6
CONTINUOUS
 62
     9
 10
-1153.883142561186
 20
763.4217702403105
 30
0.0
  0
VERTEX
  5
29B
  8
0
  6
CONTINUOUS
 62
     9
 10
-1154.059917546982
 20
763.3225043642648
 30
0.0
  0
VERTEX
  5
29C
  8
0
  6
CONTINUOUS
 62
     9
 10
-1154.212663705431
 20
763.1894443726502
 30
0.0
  0
SEQEND
  5
650
  8
0
  6
CONTINUOUS
 62
     9
  0
POLYLINE
  5
9F
  8
0
  6
CONTINUOUS
 62
     9
 66
     1
 10
0.0
 20
0.0
 30
0.0
  0
VERTEX
  5
29D
  8
0
  6
CONTINUOUS
 62
     9
 10
-920.7873362945696
 20
763.1894443726503
 30
0.0
  0
VERTEX
  5
29E
  8
0
  6
CONTINUOUS
 62
     9
 10
-920.9400824530182
 20
763.322504364265
 30
0.0
  0
VERTEX
  5
29F
  8
0
  6
CONTINUOUS
 62
     9
 10
-921.116857438814
 20
763.4217702403106
 30
0.0
  0
VERTEX
  5
2A0
  8
0
  6
CONTINUOUS
 62
     9
 10
-921.3103255459739
 20
763.4831227229522
 30
0.0
  0
VERTEX
  5
2A1
  8
0
  6
CONTINUOUS
 62
     9
 10
-921.5124583470326
 20
763.504015842397
 30
0.0
  0
VERTEX
  5
2A2
  8
0
  6
CONTINUOUS
 62
     9
 10
-921.7148678520755
 20
763.4835825880742
 30
0.0
  0
VERTEX
  5
2A3
  8
0
  6
CONTINUOUS
 62
     9
 10
-921.909154588686
 20
763.4226708873382
 30
0.0
  0
VERTEX
  5
2A4
  8
0
  6
CONTINUOUS
 62
     9
 10
-922.0872561583878
 20
763.3238084186692
 30
0.0
  0
VERTEX
  5
2A5
  8
0
  6
CONTINUOUS
 62
     9
 10
-922.2417818053877
 20
763.1910977195371
 30
0.0
  0
VERTEX
  5
2A6
  8
0
  6
CONTINUOUS
 62
     9
 10
-922.3663191138786
 20
763.0300459416758
 30
0.0
  0
VERTEX
  5
2A7
  8
0
  6
CONTINUOUS
 62
     9
 10
-922.4557001067577
 20
762.8473363184911
 30
0.0
  0
VERTEX
  5
2A8
  8
0
  6
CONTINUOUS
 62
     9
 10
-922.5062157033467
 20
762.6505508281115
 30
0.0
  0
VERTEX
  5
2A9
  8
0
  6
CONTINUOUS
 62
     9
 10
-922.515769636674
 20
762.4478555608497
 30
0.0
  0
SEQEND
  5
651
  8
0
  6
CONTINUOUS
 62
     9
  0
POLYLINE
  5
A0
  8
0
  6
CONTINUOUS
 62
     9
 66
     1
 10
0.0
 20
0.0
 30
0.0
  0
VERTEX
  5
2AA
  8
0
  6
CONTINUOUS
 62
     9
 10
-922.515769636674
 20
770.0521444391501
 30
0.0
  0
VERTEX
  5
2AB
  8
0
  6
CONTINUOUS
 62
     9
 10
-922.5062157033468
 20
769.8494491718883
 30
0.0
  0
VERTEX
  5
2AC
  8
0
  6
CONTINUOUS
 62
     9
 10
-922.4557001067577
 20
769.6526636815087
 30
0.0
  0
VERTEX
  5
2AD
  8
0
  6
CONTINUOUS
 62
     9
 10
-922.3663191138787
 20
769.4699540583241
 30
0.0
  0
VERTEX
  5
2AE
  8
0
  6
CONTINUOUS
 62
     9
 10
-922.2417818053877
 20
769.3089022804628
 30
0.0
  0
VERTEX
  5
2AF
  8
0
  6
CONTINUOUS
 62
     9
 10
-922.0872561583877
 20
769.1761915813305
 30
0.0
  0
VERTEX
  5
2B0
  8
0
  6
CONTINUOUS
 62
     9
 10
-921.9091545886859
 20
769.0773291126617
 30
0.0
  0
VERTEX
  5
2B1
  8
0
  6
CONTINUOUS
 62
     9
 10
-921.7148678520754
 20
769.0164174119255
 30
0.0
  0
VERTEX
  5
2B2
  8
0
  6
CONTINUOUS
 62
     9
 10
-921.5124583470325
 20
768.9959841576027
 30
0.0
  0
VERTEX
  5
2B3
  8
0
  6
CONTINUOUS
 62
     9
 10
-921.3103255459738
 20
769.0168772770476
 30
0.0
  0
VERTEX
  5
2B4
  8
0
  6
CONTINUOUS
 62
     9
 10
-921.1168574388138
 20
769.0782297596892
 30
0.0
  0
VERTEX
  5
2B5
  8
0
  6
CONTINUOUS
 62
     9
 10
-920.9400824530182
 20
769.177495635735
 30
0.0
  0
VERTEX
  5
2B6
  8
0
  6
CONTINUOUS
 62
     9
 10
-920.7873362945696
 20
769.3105556273495
 30
0.0
  0
SEQEND
  5
652
  8
0
  6
CONTINUOUS
 62
     9
  0
POLYLINE
  5
A1
  8
0
  6
CONTINUOUS
 62
     9
 66
     1
 10
0.0
 20
0.0
 30
0.0
  0
VERTEX
  5
2B7
  8
0
  6
CONTINUOUS
 62
     9
 10
-1154.21266370543
 20
769.3105556273495
 30
0.0
  0
VERTEX
  5
2B8
  8
0
  6
CONTINUOUS
 62
     9
 10
-1154.059917546982
 20
769.1774956357349
 30
0.0
  0
VERTEX
  5
2B9
  8
0
  6
CONTINUOUS
 62
     9
 10
-1153.883142561186
 20
769.0782297596892
 30
0.0
  0
VERTEX
  5
2BA
  8
0
  6
CONTINUOUS
 62
     9
 10
-1153.689674454026
 20
769.0168772770476
 30
0.0
  0
VERTEX
  5
2BB
  8
0
  6
CONTINUOUS
 62
     9
 10
-1153.487541652968
 20
768.9959841576028
 30
0.0
  0
VERTEX
  5
2BC
  8
0
  6
CONTINUOUS
 62
     9
 10
-1153.285132147925
 20
769.0164174119255
 30
0.0
  0
VERTEX
  5
2BD
  8
0
  6
CONTINUOUS
 62
     9
 10
-1153.090845411314
 20
769.0773291126616
 30
0.0
  0
VERTEX
  5
2BE
  8
0
  6
CONTINUOUS
 62
     9
 10
-1152.912743841612
 20
769.1761915813305
 30
0.0
  0
VERTEX
  5
2BF
  8
0
  6
CONTINUOUS
 62
     9
 10
-1152.758218194612
 20
769.3089022804627
 30
0.0
  0
VERTEX
  5
2C0
  8
0
  6
CONTINUOUS
 62
     9
 10
-1152.633680886122
 20
769.469954058324
 30
0.0
  0
VERTEX
  5
2C1
  8
0
  6
CONTINUOUS
 62
     9
 10
-1152.544299893243
 20
769.6526636815087
 30
0.0
  0
VERTEX
  5
2C2
  8
0
  6
CONTINUOUS
 62
     9
 10
-1152.493784296654
 20
769.8494491718883
 30
0.0
  0
VERTEX
  5
2C3
  8
0
  6
CONTINUOUS
 62
     9
 10
-1152.484230363326
 20
770.0521444391501
 30
0.0
  0
SEQEND
  5
653
  8
0
  6
CONTINUOUS
 62
     9
  0
POLYLINE
  5
A2
  8
0
  6
CONTINUOUS
 62
     9
 66
     1
 10
0.0
 20
0.0
 30
0.0
  0
VERTEX
  5
2C4
  8
0
  6
CONTINUOUS
 62
     9
 10
-1152.484230363326
 20
770.0521444391501
 30
0.0
  0
VERTEX
  5
2C5
  8
0
  6
CONTINUOUS
 62
     9
 10
-1152.615258136561
 20
770.8892012117616
 30
0.0
  0
VERTEX
  5
2C6
  8
0
  6
CONTINUOUS
 62
     9
 10
-1152.900820676811
 20
771.6866512018378
 30
0.0
  0
VERTEX
  5
2C7
  8
0
  6
CONTINUOUS
 62
     9
 10
-1153.330805916252
 20
772.4162558722848
 30
0.0
  0
VERTEX
  5
2C8
  8
0
  6
CONTINUOUS
 62
     9
 10
-1153.889987628431
 20
773.0521791596415
 30
0.0
  0
VERTEX
  5
2C9
  8
0
  6
CONTINUOUS
 62
     9
 10
-1154.558564604848
 20
773.5719023560739
 30
0.0
  0
VERTEX
  5
2CA
  8
0
  6
CONTINUOUS
 62
     9
 10
-1155.312861836433
 20
773.9570215203397
 30
0.0
  0
VERTEX
  5
2CB
  8
0
  6
CONTINUOUS
 62
     9
 10
-1156.126168870343
 20
774.1938991805708
 30
0.0
  0
VERTEX
  5
2CC
  8
0
  6
CONTINUOUS
 62
     9
 10
-1156.969685654999
 20
774.2741472513969
 30
0.0
  0
SEQEND
  5
654
  8
0
  6
CONTINUOUS
 62
     9
  0
POLYLINE
  5
A3
  8
0
  6
CONTINUOUS
 62
     9
 66
     1
 10
0.0
 20
0.0
 30
0.0
  0
VERTEX
  5
2CD
  8
0
  6
CONTINUOUS
 62
     9
 10
-918.0303143450017
 20
774.2741472513969
 30
0.0
  0
VERTEX
  5
2CE
  8
0
  6
CONTINUOUS
 62
     9
 10
-918.8738311296573
 20
774.1938991805708
 30
0.0
  0
VERTEX
  5
2CF
  8
0
  6
CONTINUOUS
 62
     9
 10
-919.687138163567
 20
773.9570215203397
 30
0.0
  0
VERTEX
  5
2D0
  8
0
  6
CONTINUOUS
 62
     9
 10
-920.4414353951519
 20
773.5719023560739
 30
0.0
  0
VERTEX
  5
2D1
  8
0
  6
CONTINUOUS
 62
     9
 10
-921.1100123715693
 20
773.0521791596415
 30
0.0
  0
VERTEX
  5
2D2
  8
0
  6
CONTINUOUS
 62
     9
 10
-921.6691940837483
 20
772.4162558722848
 30
0.0
  0
VERTEX
  5
2D3
  8
0
  6
CONTINUOUS
 62
     9
 10
-922.0991793231892
 20
771.6866512018378
 30
0.0
  0
VERTEX
  5
2D4
  8
0
  6
CONTINUOUS
 62
     9
 10
-922.384741863439
 20
770.8892012117616
 30
0.0
  0
VERTEX
  5
2D5
  8
0
  6
CONTINUOUS
 62
     9
 10
-922.515769636674
 20
770.0521444391501
 30
0.0
  0
SEQEND
  5
655
  8
0
  6
CONTINUOUS
 62
     9
  0
ARC
  5
A4
  8
0
  6
CONTINUOUS
 62
     9
 10
-1157.5
 20
766.2499999999999
 30
0.0
 40
4.491500936401462
 50
42.95395832303164
 51
317.0460416769683
  0
ARC
  5
A5
  8
0
  6
CONTINUOUS
 62
     9
 10
-917.5000000000001
 20
766.2499999999999
 30
0.0
 40
4.491500936401456
 50
222.9539583230316
 51
137.0460416769684
  0
LINE
  5
A6
  8
0
  6
CONTINUOUS
 62
     9
 10
-1158.997539532931
 20
774.2741472513969
 30
0.0
 11
-1156.969685654999
 21
774.2741472513969
 31
0.0
  0
POLYLINE
  5
A7
  8
0
  6
CONTINUOUS
 62
     9
 66
     1
 10
0.0
 20
0.0
 30
0.0
  0
VERTEX
  5
2D6
  8
0
  6
CONTINUOUS
 62
     9
 10
-1162.495693682233
 20
777.7796352510748
 30
0.0
  0
VERTEX
  5
2D7
  8
0
  6
CONTINUOUS
 62
     9
 10
-1162.42856618856
 20
777.0955829971266
 30
0.0
  0
VERTEX
  5
2D8
  8
0
  6
CONTINUOUS
 62
     9
 10
-1162.229583742318
 20
776.4378822954143
 30
0.0
  0
VERTEX
  5
2D9
  8
0
  6
CONTINUOUS
 62
     9
 10
-1161.906388695627
 20
775.8317935668789
 30
0.0
  0
VERTEX
  5
2DA
  8
0
  6
CONTINUOUS
 62
     9
 10
-1161.471394054743
 20
775.3005949627687
 30
0.0
  0
VERTEX
  5
2DB
  8
0
  6
CONTINUOUS
 62
     9
 10
-1160.941306731652
 20
774.8646883167875
 30
0.0
  0
VERTEX
  5
2DC
  8
0
  6
CONTINUOUS
 62
     9
 10
-1160.3364858789
 20
774.5408155684524
 30
0.0
  0
VERTEX
  5
2DD
  8
0
  6
CONTINUOUS
 62
     9
 10
-1159.68016095222
 20
774.3414157526212
 30
0.0
  0
VERTEX
  5
2DE
  8
0
  6
CONTINUOUS
 62
     9
 10
-1158.99753953293
 20
774.2741472513969
 30
0.0
  0
SEQEND
  5
656
  8
0
  6
CONTINUOUS
 62
     9
  0
POLYLINE
  5
A8
  8
0
  6
CONTINUOUS
 62
     9
 66
     1
 10
0.0
 20
0.0
 30
0.0
  0
VERTEX
  5
2DF
  8
0
  6
CONTINUOUS
 62
     9
 10
-916.0024604670695
 20
774.2741472513969
 30
0.0
  0
VERTEX
  5
2E0
  8
0
  6
CONTINUOUS
 62
     9
 10
-915.3198390477796
 20
774.3414157526212
 30
0.0
  0
VERTEX
  5
2E1
  8
0
  6
CONTINUOUS
 62
     9
 10
-914.6635141210995
 20
774.5408155684524
 30
0.0
  0
VERTEX
  5
2E2
  8
0
  6
CONTINUOUS
 62
     9
 10
-914.0586932683484
 20
774.8646883167875
 30
0.0
  0
VERTEX
  5
2E3
  8
0
  6
CONTINUOUS
 62
     9
 10
-913.528605945257
 20
775.3005949627687
 30
0.0
  0
VERTEX
  5
2E4
  8
0
  6
CONTINUOUS
 62
     9
 10
-913.0936113043733
 20
775.8317935668789
 30
0.0
  0
VERTEX
  5
2E5
  8
0
  6
CONTINUOUS
 62
     9
 10
-912.7704162576819
 20
776.4378822954143
 30
0.0
  0
VERTEX
  5
2E6
  8
0
  6
CONTINUOUS
 62
     9
 10
-912.5714338114396
 20
777.0955829971266
 30
0.0
  0
VERTEX
  5
2E7
  8
0
  6
CONTINUOUS
 62
     9
 10
-912.5043063177666
 20
777.7796352510748
 30
0.0
  0
SEQEND
  5
657
  8
0
  6
CONTINUOUS
 62
     9
  0
LINE
  5
A9
  8
0
  6
CONTINUOUS
 62
     9
 10
-916.0024604670696
 20
774.2741472513969
 30
0.0
 11
-918.0303143450016
 21
774.2741472513969
 31
0.0
  0
POLYLINE
  5
AA
  8
0
  6
CONTINUOUS
 62
     9
 66
     1
 10
0.0
 20
0.0
 30
0.0
  0
VERTEX
  5
2E8
  8
0
  6
CONTINUOUS
 62
     9
 10
-1158.99753953293
 20
876.2258527486027
 30
0.0
  0
VERTEX
  5
2E9
  8
0
  6
CONTINUOUS
 62
     9
 10
-1159.68016095222
 20
876.1585842473785
 30
0.0
  0
VERTEX
  5
2EA
  8
0
  6
CONTINUOUS
 62
     9
 10
-1160.3364858789
 20
875.9591844315472
 30
0.0
  0
VERTEX
  5
2EB
  8
0
  6
CONTINUOUS
 62
     9
 10
-1160.941306731652
 20
875.6353116832122
 30
0.0
  0
VERTEX
  5
2EC
  8
0
  6
CONTINUOUS
 62
     9
 10
-1161.471394054743
 20
875.1994050372309
 30
0.0
  0
VERTEX
  5
2ED
  8
0
  6
CONTINUOUS
 62
     9
 10
-1161.906388695627
 20
874.6682064331208
 30
0.0
  0
VERTEX
  5
2EE
  8
0
  6
CONTINUOUS
 62
     9
 10
-1162.229583742318
 20
874.0621177045854
 30
0.0
  0
VERTEX
  5
2EF
  8
0
  6
CONTINUOUS
 62
     9
 10
-1162.42856618856
 20
873.4044170028731
 30
0.0
  0
VERTEX
  5
2F0
  8
0
  6
CONTINUOUS
 62
     9
 10
-1162.495693682233
 20
872.7203647489249
 30
0.0
  0
SEQEND
  5
658
  8
0
  6
CONTINUOUS
 62
     9
  0
POLYLINE
  5
AB
  8
0
  6
CONTINUOUS
 62
     9
 66
     1
 10
0.0
 20
0.0
 30
0.0
  0
VERTEX
  5
2F1
  8
0
  6
CONTINUOUS
 62
     9
 10
-912.5043063177666
 20
872.7203647489249
 30
0.0
  0
VERTEX
  5
2F2
  8
0
  6
CONTINUOUS
 62
     9
 10
-912.5714338114396
 20
873.4044170028731
 30
0.0
  0
VERTEX
  5
2F3
  8
0
  6
CONTINUOUS
 62
     9
 10
-912.7704162576819
 20
874.0621177045854
 30
0.0
  0
VERTEX
  5
2F4
  8
0
  6
CONTINUOUS
 62
     9
 10
-913.0936113043733
 20
874.6682064331208
 30
0.0
  0
VERTEX
  5
2F5
  8
0
  6
CONTINUOUS
 62
     9
 10
-913.528605945257
 20
875.1994050372309
 30
0.0
  0
VERTEX
  5
2F6
  8
0
  6
CONTINUOUS
 62
     9
 10
-914.0586932683484
 20
875.6353116832122
 30
0.0
  0
VERTEX
  5
2F7
  8
0
  6
CONTINUOUS
 62
     9
 10
-914.6635141210995
 20
875.9591844315472
 30
0.0
  0
VERTEX
  5
2F8
  8
0
  6
CONTINUOUS
 62
     9
 10
-915.3198390477797
 20
876.1585842473785
 30
0.0
  0
VERTEX
  5
2F9
  8
0
  6
CONTINUOUS
 62
     9
 10
-916.0024604670696
 20
876.2258527486027
 30
0.0
  0
SEQEND
  5
659
  8
0
  6
CONTINUOUS
 62
     9
  0
POLYLINE
  5
AC
  8
0
  6
CONTINUOUS
 62
     9
 66
     1
 10
0.0
 20
0.0
 30
0.0
  0
VERTEX
  5
2FA
  8
0
  6
CONTINUOUS
 62
     9
 10
-927.5241472513972
 20
880.7196856549983
 30
0.0
  0
VERTEX
  5
2FB
  8
0
  6
CONTINUOUS
 62
     9
 10
-927.4373828899835
 20
879.8428074774878
 30
0.0
  0
VERTEX
  5
2FC
  8
0
  6
CONTINUOUS
 62
     9
 10
-927.1814779579832
 20
878.9998778296236
 30
0.0
  0
VERTEX
  5
2FD
  8
0
  6
CONTINUOUS
 62
     9
 10
-926.7662325812939
 20
878.2231775143093
 30
0.0
  0
VERTEX
  5
2FE
  8
0
  6
CONTINUOUS
 62
     9
 10
-926.2075489816439
 20
877.5424510183561
 30
0.0
  0
VERTEX
  5
2FF
  8
0
  6
CONTINUOUS
 62
     9
 10
-925.5268224856907
 20
876.9837674187061
 30
0.0
  0
VERTEX
  5
300
  8
0
  6
CONTINUOUS
 62
     9
 10
-924.7501221703765
 20
876.5685220420169
 30
0.0
  0
VERTEX
  5
301
  8
0
  6
CONTINUOUS
 62
     9
 10
-923.9071925225123
 20
876.3126171100166
 30
0.0
  0
VERTEX
  5
302
  8
0
  6
CONTINUOUS
 62
     9
 10
-923.0303143450017
 20
876.2258527486028
 30
0.0
  0
SEQEND
  5
65A
  8
0
  6
CONTINUOUS
 62
     9
  0
POLYLINE
  5
AD
  8
0
  6
CONTINUOUS
 62
     9
 66
     1
 10
0.0
 20
0.0
 30
0.0
  0
VERTEX
  5
303
  8
0
  6
CONTINUOUS
 62
     9
 10
-1151.969685654999
 20
876.2258527486028
 30
0.0
  0
VERTEX
  5
304
  8
0
  6
CONTINUOUS
 62
     9
 10
-1151.092807477488
 20
876.3126171100165
 30
0.0
  0
VERTEX
  5
305
  8
0
  6
CONTINUOUS
 62
     9
 10
-1150.249877829624
 20
876.5685220420168
 30
0.0
  0
VERTEX
  5
306
  8
0
  6
CONTINUOUS
 62
     9
 10
-1149.47317751431
 20
876.9837674187061
 30
0.0
  0
VERTEX
  5
307
  8
0
  6
CONTINUOUS
 62
     9
 10
-1148.792451018356
 20
877.5424510183561
 30
0.0
  0
VERTEX
  5
308
  8
0
  6
CONTINUOUS
 62
     9
 10
-1148.233767418706
 20
878.2231775143093
 30
0.0
  0
VERTEX
  5
309
  8
0
  6
CONTINUOUS
 62
     9
 10
-1147.818522042017
 20
878.9998778296235
 30
0.0
  0
VERTEX
  5
30A
  8
0
  6
CONTINUOUS
 62
     9
 10
-1147.562617110017
 20
879.8428074774877
 30
0.0
  0
VERTEX
  5
30B
  8
0
  6
CONTINUOUS
 62
     9
 10
-1147.475852748603
 20
880.7196856549983
 30
0.0
  0
SEQEND
  5
65B
  8
0
  6
CONTINUOUS
 62
     9
  0
LINE
  5
AE
  8
0
  6
CONTINUOUS
 62
     9
 10
-1147.475852748603
 20
887.7475395329303
 30
0.0
 11
-1147.475852748603
 21
880.7196856549983
 31
0.0
  0
LINE
  5
AF
  8
0
  6
CONTINUOUS
 62
     9
 10
-927.5241472513972
 20
887.7475395329303
 30
0.0
 11
-927.5241472513972
 21
880.7196856549983
 31
0.0
  0
LINE
  5
B0
  8
0
  6
CONTINUOUS
 62
     9
 10
-923.0303143450016
 20
876.2258527486027
 30
0.0
 11
-916.0024604670697
 21
876.2258527486027
 31
0.0
  0
LINE
  5
B1
  8
0
  6
CONTINUOUS
 62
     9
 10
-1151.969685654999
 20
876.2258527486027
 30
0.0
 11
-1158.997539532931
 21
876.2258527486027
 31
0.0
  0
POLYLINE
  5
B2
  8
0
  6
CONTINUOUS
 62
     9
 66
     1
 10
0.0
 20
0.0
 30
0.0
  0
VERTEX
  5
30C
  8
0
  6
CONTINUOUS
 62
     9
 10
-1033.969685654999
 20
881.2258527486027
 30
0.0
  0
VERTEX
  5
30D
  8
0
  6
CONTINUOUS
 62
     9
 10
-1033.092807477488
 20
881.3126171100166
 30
0.0
  0
VERTEX
  5
30E
  8
0
  6
CONTINUOUS
 62
     9
 10
-1032.249877829624
 20
881.5685220420169
 30
0.0
  0
VERTEX
  5
30F
  8
0
  6
CONTINUOUS
 62
     9
 10
-1031.47317751431
 20
881.9837674187061
 30
0.0
  0
VERTEX
  5
310
  8
0
  6
CONTINUOUS
 62
     9
 10
-1030.792451018356
 20
882.5424510183561
 30
0.0
  0
VERTEX
  5
311
  8
0
  6
CONTINUOUS
 62
     9
 10
-1030.233767418706
 20
883.2231775143094
 30
0.0
  0
VERTEX
  5
312
  8
0
  6
CONTINUOUS
 62
     9
 10
-1029.818522042017
 20
883.9998778296236
 30
0.0
  0
VERTEX
  5
313
  8
0
  6
CONTINUOUS
 62
     9
 10
-1029.562617110017
 20
884.8428074774878
 30
0.0
  0
VERTEX
  5
314
  8
0
  6
CONTINUOUS
 62
     9
 10
-1029.475852748603
 20
885.7196856549984
 30
0.0
  0
SEQEND
  5
65C
  8
0
  6
CONTINUOUS
 62
     9
  0
POLYLINE
  5
B3
  8
0
  6
CONTINUOUS
 62
     9
 66
     1
 10
0.0
 20
0.0
 30
0.0
  0
VERTEX
  5
315
  8
0
  6
CONTINUOUS
 62
     9
 10
-1045.524147251397
 20
885.7196856549984
 30
0.0
  0
VERTEX
  5
316
  8
0
  6
CONTINUOUS
 62
     9
 10
-1045.437382889984
 20
884.8428074774878
 30
0.0
  0
VERTEX
  5
317
  8
0
  6
CONTINUOUS
 62
     9
 10
-1045.181477957983
 20
883.9998778296236
 30
0.0
  0
VERTEX
  5
318
  8
0
  6
CONTINUOUS
 62
     9
 10
-1044.766232581294
 20
883.2231775143094
 30
0.0
  0
VERTEX
  5
319
  8
0
  6
CONTINUOUS
 62
     9
 10
-1044.207548981644
 20
882.5424510183561
 30
0.0
  0
VERTEX
  5
31A
  8
0
  6
CONTINUOUS
 62
     9
 10
-1043.52682248569
 20
881.9837674187061
 30
0.0
  0
VERTEX
  5
31B
  8
0
  6
CONTINUOUS
 62
     9
 10
-1042.750122170376
 20
881.5685220420169
 30
0.0
  0
VERTEX
  5
31C
  8
0
  6
CONTINUOUS
 62
     9
 10
-1041.907192522512
 20
881.3126171100166
 30
0.0
  0
VERTEX
  5
31D
  8
0
  6
CONTINUOUS
 62
     9
 10
-1041.030314345002
 20
881.2258527486027
 30
0.0
  0
SEQEND
  5
65D
  8
0
  6
CONTINUOUS
 62
     9
  0
POLYLINE
  5
B4
  8
0
  6
CONTINUOUS
 62
     9
 66
     1
 10
0.0
 20
0.0
 30
0.0
  0
VERTEX
  5
31E
  8
0
  6
CONTINUOUS
 62
     9
 10
-1045.524147251397
 20
887.7475395329303
 30
0.0
  0
VERTEX
  5
31F
  8
0
  6
CONTINUOUS
 62
     9
 10
-1045.591415752621
 20
888.4301609522203
 30
0.0
  0
VERTEX
  5
320
  8
0
  6
CONTINUOUS
 62
     9
 10
-1045.790815568453
 20
889.0864858789004
 30
0.0
  0
VERTEX
  5
321
  8
0
  6
CONTINUOUS
 62
     9
 10
-1046.114688316788
 20
889.6913067316515
 30
0.0
  0
VERTEX
  5
322
  8
0
  6
CONTINUOUS
 62
     9
 10
-1046.550594962769
 20
890.2213940547427
 30
0.0
  0
VERTEX
  5
323
  8
0
  6
CONTINUOUS
 62
     9
 10
-1047.081793566879
 20
890.6563886956267
 30
0.0
  0
VERTEX
  5
324
  8
0
  6
CONTINUOUS
 62
     9
 10
-1047.687882295415
 20
890.979583742318
 30
0.0
  0
VERTEX
  5
325
  8
0
  6
CONTINUOUS
 62
     9
 10
-1048.345582997127
 20
891.1785661885602
 30
0.0
  0
VERTEX
  5
326
  8
0
  6
CONTINUOUS
 62
     9
 10
-1049.029635251075
 20
891.2456936822333
 30
0.0
  0
SEQEND
  5
65E
  8
0
  6
CONTINUOUS
 62
     9
  0
POLYLINE
  5
B5
  8
0
  6
CONTINUOUS
 62
     9
 66
     1
 10
0.0
 20
0.0
 30
0.0
  0
VERTEX
  5
327
  8
0
  6
CONTINUOUS
 62
     9
 10
-1025.970364748925
 20
891.2456936822333
 30
0.0
  0
VERTEX
  5
328
  8
0
  6
CONTINUOUS
 62
     9
 10
-1026.654417002874
 20
891.1785661885602
 30
0.0
  0
VERTEX
  5
329
  8
0
  6
CONTINUOUS
 62
     9
 10
-1027.312117704586
 20
890.979583742318
 30
0.0
  0
VERTEX
  5
32A
  8
0
  6
CONTINUOUS
 62
     9
 10
-1027.918206433121
 20
890.6563886956267
 30
0.0
  0
VERTEX
  5
32B
  8
0
  6
CONTINUOUS
 62
     9
 10
-1028.449405037231
 20
890.2213940547427
 30
0.0
  0
VERTEX
  5
32C
  8
0
  6
CONTINUOUS
 62
     9
 10
-1028.885311683213
 20
889.6913067316515
 30
0.0
  0
VERTEX
  5
32D
  8
0
  6
CONTINUOUS
 62
     9
 10
-1029.209184431548
 20
889.0864858789004
 30
0.0
  0
VERTEX
  5
32E
  8
0
  6
CONTINUOUS
 62
     9
 10
-1029.408584247379
 20
888.4301609522203
 30
0.0
  0
VERTEX
  5
32F
  8
0
  6
CONTINUOUS
 62
     9
 10
-1029.475852748603
 20
887.7475395329303
 30
0.0
  0
SEQEND
  5
65F
  8
0
  6
CONTINUOUS
 62
     9
  0
LINE
  5
B6
  8
0
  6
CONTINUOUS
 62
     9
 10
-1041.030314345002
 20
881.2258527486027
 30
0.0
 11
-1033.969685654999
 21
881.2258527486027
 31
0.0
  0
LINE
  5
B7
  8
0
  6
CONTINUOUS
 62
     9
 10
-1045.524147251397
 20
885.7196856549983
 30
0.0
 11
-1045.524147251397
 21
887.7475395329303
 31
0.0
  0
LINE
  5
B8
  8
0
  6
CONTINUOUS
 62
     9
 10
-1029.475852748603
 20
885.7196856549983
 30
0.0
 11
-1029.475852748603
 21
887.7475395329303
 31
0.0
  0
POLYLINE
  5
B9
  8
0
  6
CONTINUOUS
 62
     9
 66
     1
 10
0.0
 20
0.0
 30
0.0
  0
VERTEX
  5
330
  8
0
  6
CONTINUOUS
 62
     9
 10
-927.5241472513973
 20
887.7475395329303
 30
0.0
  0
VERTEX
  5
331
  8
0
  6
CONTINUOUS
 62
     9
 10
-927.5914157526214
 20
888.4301609522203
 30
0.0
  0
VERTEX
  5
332
  8
0
  6
CONTINUOUS
 62
     9
 10
-927.7908155684527
 20
889.0864858789004
 30
0.0
  0
VERTEX
  5
333
  8
0
  6
CONTINUOUS
 62
     9
 10
-928.1146883167877
 20
889.6913067316515
 30
0.0
  0
VERTEX
  5
334
  8
0
  6
CONTINUOUS
 62
     9
 10
-928.5505949627689
 20
890.2213940547427
 30
0.0
  0
VERTEX
  5
335
  8
0
  6
CONTINUOUS
 62
     9
 10
-929.0817935668791
 20
890.6563886956266
 30
0.0
  0
VERTEX
  5
336
  8
0
  6
CONTINUOUS
 62
     9
 10
-929.6878822954145
 20
890.979583742318
 30
0.0
  0
VERTEX
  5
337
  8
0
  6
CONTINUOUS
 62
     9
 10
-930.3455829971269
 20
891.1785661885602
 30
0.0
  0
VERTEX
  5
338
  8
0
  6
CONTINUOUS
 62
     9
 10
-931.0296352510749
 20
891.2456936822333
 30
0.0
  0
SEQEND
  5
660
  8
0
  6
CONTINUOUS
 62
     9
  0
POLYLINE
  5
BA
  8
0
  6
CONTINUOUS
 62
     9
 66
     1
 10
0.0
 20
0.0
 30
0.0
  0
VERTEX
  5
339
  8
0
  6
CONTINUOUS
 62
     9
 10
-1143.970364748925
 20
891.2456936822332
 30
0.0
  0
VERTEX
  5
33A
  8
0
  6
CONTINUOUS
 62
     9
 10
-1144.654417002873
 20
891.1785661885601
 30
0.0
  0
VERTEX
  5
33B
  8
0
  6
CONTINUOUS
 62
     9
 10
-1145.312117704585
 20
890.9795837423179
 30
0.0
  0
VERTEX
  5
33C
  8
0
  6
CONTINUOUS
 62
     9
 10
-1145.918206433121
 20
890.6563886956264
 30
0.0
  0
VERTEX
  5
33D
  8
0
  6
CONTINUOUS
 62
     9
 10
-1146.449405037231
 20
890.2213940547426
 30
0.0
  0
VERTEX
  5
33E
  8
0
  6
CONTINUOUS
 62
     9
 10
-1146.885311683212
 20
889.6913067316514
 30
0.0
  0
VERTEX
  5
33F
  8
0
  6
CONTINUOUS
 62
     9
 10
-1147.209184431547
 20
889.0864858789002
 30
0.0
  0
VERTEX
  5
340
  8
0
  6
CONTINUOUS
 62
     9
 10
-1147.408584247379
 20
888.4301609522201
 30
0.0
  0
VERTEX
  5
341
  8
0
  6
CONTINUOUS
 62
     9
 10
-1147.475852748603
 20
887.7475395329302
 30
0.0
  0
SEQEND
  5
661
  8
0
  6
CONTINUOUS
 62
     9
  0
LINE
  5
BB
  8
0
  6
CONTINUOUS
 62
     9
 10
-1025.970364748925
 20
891.2456936822332
 30
0.0
 11
-931.029635251075
 21
891.2456936822332
 31
0.0
  0
LINE
  5
BC
  8
0
  6
CONTINUOUS
 62
     9
 10
-1049.029635251075
 20
891.2456936822332
 30
0.0
 11
-1143.970364748925
 21
891.2456936822332
 31
0.0
  0
LINE
  5
BD
  8
0
  6
CONTINUOUS
 62
     9
 10
-1152.484230363326
 20
762.4478555608496
 30
0.0
 11
-1152.397250793351
 21
762.641083699746
 31
0.0
  0
LINE
  5
BE
  8
0
  6
CONTINUOUS
 62
     9
 10
-922.515769636674
 20
762.4478555608497
 30
0.0
 11
-922.6027492066494
 21
762.6410836997461
 31
0.0
  0
LINE
  5
BF
  8
0
  6
CONTINUOUS
 62
     9
 10
-922.515769636674
 20
770.0521444391501
 30
0.0
 11
-922.6027492066494
 21
769.8589163002537
 31
0.0
  0
LINE
  5
C0
  8
0
  6
CONTINUOUS
 62
     9
 10
-1152.484230363326
 20
770.0521444391501
 30
0.0
 11
-1152.397250793351
 21
769.8589163002536
 31
0.0
  0
POLYLINE
  5
C1
  8
0
  6
CONTINUOUS
 62
     9
 66
     1
 10
0.0
 20
0.0
 30
0.0
  0
VERTEX
  5
342
  8
0
  6
CONTINUOUS
 62
     9
 10
-1046.346813948157
 20
656.5906468545525
 30
0.0
  0
VERTEX
  5
343
  8
0
  6
CONTINUOUS
 62
     9
 10
-1047.227773778226
 20
656.5079641456969
 30
0.0
  0
VERTEX
  5
344
  8
0
  6
CONTINUOUS
 62
     9
 10
-1048.073735939741
 20
656.2550917273475
 30
0.0
  0
VERTEX
  5
345
  8
0
  6
CONTINUOUS
 62
     9
 10
-1048.852303496767
 20
655.8417135923706
 30
0.0
  0
VERTEX
  5
346
  8
0
  6
CONTINUOUS
 62
     9
 10
-1049.533660454674
 20
655.283660454674
 30
0.0
  0
VERTEX
  5
347
  8
0
  6
CONTINUOUS
 62
     9
 10
-1050.091713592371
 20
654.6023034967674
 30
0.0
  0
VERTEX
  5
348
  8
0
  6
CONTINUOUS
 62
     9
 10
-1050.505091727348
 20
653.8237359397407
 30
0.0
  0
VERTEX
  5
349
  8
0
  6
CONTINUOUS
 62
     9
 10
-1050.757964145697
 20
652.9777737782256
 30
0.0
  0
VERTEX
  5
34A
  8
0
  6
CONTINUOUS
 62
     9
 10
-1050.840646854553
 20
652.096813948157
 30
0.0
  0
SEQEND
  5
662
  8
0
  6
CONTINUOUS
 62
     9
  0
POLYLINE
  5
C2
  8
0
  6
CONTINUOUS
 62
     9
 66
     1
 10
0.0
 20
0.0
 30
0.0
  0
VERTEX
  5
34B
  8
0
  6
CONTINUOUS
 62
     9
 10
-1024.159353145447
 20
652.0968139481571
 30
0.0
  0
VERTEX
  5
34C
  8
0
  6
CONTINUOUS
 62
     9
 10
-1024.242035854303
 20
652.9777737782259
 30
0.0
  0
VERTEX
  5
34D
  8
0
  6
CONTINUOUS
 62
     9
 10
-1024.494908272652
 20
653.8237359397409
 30
0.0
  0
VERTEX
  5
34E
  8
0
  6
CONTINUOUS
 62
     9
 10
-1024.908286407629
 20
654.6023034967675
 30
0.0
  0
VERTEX
  5
34F
  8
0
  6
CONTINUOUS
 62
     9
 10
-1025.466339545326
 20
655.2836604546741
 30
0.0
  0
VERTEX
  5
350
  8
0
  6
CONTINUOUS
 62
     9
 10
-1026.147696503233
 20
655.8417135923708
 30
0.0
  0
VERTEX
  5
351
  8
0
  6
CONTINUOUS
 62
     9
 10
-1026.926264060259
 20
656.2550917273477
 30
0.0
  0
VERTEX
  5
352
  8
0
  6
CONTINUOUS
 62
     9
 10
-1027.772226221774
 20
656.507964145697
 30
0.0
  0
VERTEX
  5
353
  8
0
  6
CONTINUOUS
 62
     9
 10
-1028.653186051843
 20
656.5906468545526
 30
0.0
  0
SEQEND
  5
663
  8
0
  6
CONTINUOUS
 62
     9
  0
POLYLINE
  5
C3
  8
0
  6
CONTINUOUS
 62
     9
 66
     1
 10
0.0
 20
0.0
 30
0.0
  0
VERTEX
  5
354
  8
0
  6
CONTINUOUS
 62
     9
 10
-928.3468139481571
 20
661.5906468545526
 30
0.0
  0
VERTEX
  5
355
  8
0
  6
CONTINUOUS
 62
     9
 10
-929.2277737782259
 20
661.507964145697
 30
0.0
  0
VERTEX
  5
356
  8
0
  6
CONTINUOUS
 62
     9
 10
-930.0737359397409
 20
661.2550917273476
 30
0.0
  0
VERTEX
  5
357
  8
0
  6
CONTINUOUS
 62
     9
 10
-930.8523034967675
 20
660.8417135923708
 30
0.0
  0
VERTEX
  5
358
  8
0
  6
CONTINUOUS
 62
     9
 10
-931.5336604546741
 20
660.2836604546741
 30
0.0
  0
VERTEX
  5
359
  8
0
  6
CONTINUOUS
 62
     9
 10
-932.0917135923708
 20
659.6023034967675
 30
0.0
  0
VERTEX
  5
35A
  8
0
  6
CONTINUOUS
 62
     9
 10
-932.5050917273477
 20
658.8237359397408
 30
0.0
  0
VERTEX
  5
35B
  8
0
  6
CONTINUOUS
 62
     9
 10
-932.757964145697
 20
657.9777737782257
 30
0.0
  0
VERTEX
  5
35C
  8
0
  6
CONTINUOUS
 62
     9
 10
-932.8406468545526
 20
657.0968139481571
 30
0.0
  0
SEQEND
  5
664
  8
0
  6
CONTINUOUS
 62
     9
  0
POLYLINE
  5
C4
  8
0
  6
CONTINUOUS
 62
     9
 66
     1
 10
0.0
 20
0.0
 30
0.0
  0
VERTEX
  5
35D
  8
0
  6
CONTINUOUS
 62
     9
 10
-1142.159353145447
 20
657.096813948157
 30
0.0
  0
VERTEX
  5
35E
  8
0
  6
CONTINUOUS
 62
     9
 10
-1142.242035854303
 20
657.9777737782258
 30
0.0
  0
VERTEX
  5
35F
  8
0
  6
CONTINUOUS
 62
     9
 10
-1142.494908272653
 20
658.8237359397408
 30
0.0
  0
VERTEX
  5
360
  8
0
  6
CONTINUOUS
 62
     9
 10
-1142.908286407629
 20
659.6023034967674
 30
0.0
  0
VERTEX
  5
361
  8
0
  6
CONTINUOUS
 62
     9
 10
-1143.466339545326
 20
660.283660454674
 30
0.0
  0
VERTEX
  5
362
  8
0
  6
CONTINUOUS
 62
     9
 10
-1144.147696503233
 20
660.8417135923706
 30
0.0
  0
VERTEX
  5
363
  8
0
  6
CONTINUOUS
 62
     9
 10
-1144.926264060259
 20
661.2550917273476
 30
0.0
  0
VERTEX
  5
364
  8
0
  6
CONTINUOUS
 62
     9
 10
-1145.772226221774
 20
661.5079641456969
 30
0.0
  0
VERTEX
  5
365
  8
0
  6
CONTINUOUS
 62
     9
 10
-1146.653186051843
 20
661.5906468545525
 30
0.0
  0
SEQEND
  5
665
  8
0
  6
CONTINUOUS
 62
     9
  0
POLYLINE
  5
C5
  8
0
  6
CONTINUOUS
 62
     9
 66
     1
 10
0.0
 20
0.0
 30
0.0
  0
VERTEX
  5
366
  8
0
  6
CONTINUOUS
 62
     9
 10
-927.8406468545528
 20
757.4031860518426
 30
0.0
  0
VERTEX
  5
367
  8
0
  6
CONTINUOUS
 62
     9
 10
-927.7579641456971
 20
756.5222262217738
 30
0.0
  0
VERTEX
  5
368
  8
0
  6
CONTINUOUS
 62
     9
 10
-927.5050917273477
 20
755.6762640602587
 30
0.0
  0
VERTEX
  5
369
  8
0
  6
CONTINUOUS
 62
     9
 10
-927.0917135923709
 20
754.8976965032323
 30
0.0
  0
VERTEX
  5
36A
  8
0
  6
CONTINUOUS
 62
     9
 10
-926.5336604546742
 20
754.2163395453257
 30
0.0
  0
VERTEX
  5
36B
  8
0
  6
CONTINUOUS
 62
     9
 10
-925.8523034967676
 20
753.658286407629
 30
0.0
  0
VERTEX
  5
36C
  8
0
  6
CONTINUOUS
 62
     9
 10
-925.0737359397411
 20
753.2449082726521
 30
0.0
  0
VERTEX
  5
36D
  8
0
  6
CONTINUOUS
 62
     9
 10
-924.227773778226
 20
752.9920358543028
 30
0.0
  0
VERTEX
  5
36E
  8
0
  6
CONTINUOUS
 62
     9
 10
-923.3468139481573
 20
752.9093531454471
 30
0.0
  0
SEQEND
  5
666
  8
0
  6
CONTINUOUS
 62
     9
  0
POLYLINE
  5
C6
  8
0
  6
CONTINUOUS
 62
     9
 66
     1
 10
0.0
 20
0.0
 30
0.0
  0
VERTEX
  5
36F
  8
0
  6
CONTINUOUS
 62
     9
 10
-1151.653186051843
 20
752.9093531454471
 30
0.0
  0
VERTEX
  5
370
  8
0
  6
CONTINUOUS
 62
     9
 10
-1150.772226221774
 20
752.9920358543028
 30
0.0
  0
VERTEX
  5
371
  8
0
  6
CONTINUOUS
 62
     9
 10
-1149.926264060259
 20
753.2449082726521
 30
0.0
  0
VERTEX
  5
372
  8
0
  6
CONTINUOUS
 62
     9
 10
-1149.147696503233
 20
753.658286407629
 30
0.0
  0
VERTEX
  5
373
  8
0
  6
CONTINUOUS
 62
     9
 10
-1148.466339545326
 20
754.2163395453257
 30
0.0
  0
VERTEX
  5
374
  8
0
  6
CONTINUOUS
 62
     9
 10
-1147.908286407629
 20
754.8976965032323
 30
0.0
  0
VERTEX
  5
375
  8
0
  6
CONTINUOUS
 62
     9
 10
-1147.494908272652
 20
755.6762640602587
 30
0.0
  0
VERTEX
  5
376
  8
0
  6
CONTINUOUS
 62
     9
 10
-1147.242035854303
 20
756.5222262217738
 30
0.0
  0
VERTEX
  5
377
  8
0
  6
CONTINUOUS
 62
     9
 10
-1147.159353145447
 20
757.4031860518426
 30
0.0
  0
SEQEND
  5
667
  8
0
  6
CONTINUOUS
 62
     9
  0
POLYLINE
  5
C7
  8
0
  6
CONTINUOUS
 62
     9
 66
     1
 10
0.0
 20
0.0
 30
0.0
  0
VERTEX
  5
378
  8
0
  6
CONTINUOUS
 62
     9
 10
-923.3468139481573
 20
779.5906468545527
 30
0.0
  0
VERTEX
  5
379
  8
0
  6
CONTINUOUS
 62
     9
 10
-924.227773778226
 20
779.507964145697
 30
0.0
  0
VERTEX
  5
37A
  8
0
  6
CONTINUOUS
 62
     9
 10
-925.073735939741
 20
779.2550917273477
 30
0.0
  0
VERTEX
  5
37B
  8
0
  6
CONTINUOUS
 62
     9
 10
-925.8523034967676
 20
778.8417135923708
 30
0.0
  0
VERTEX
  5
37C
  8
0
  6
CONTINUOUS
 62
     9
 10
-926.5336604546742
 20
778.2836604546741
 30
0.0
  0
VERTEX
  5
37D
  8
0
  6
CONTINUOUS
 62
     9
 10
-927.0917135923709
 20
777.6023034967675
 30
0.0
  0
VERTEX
  5
37E
  8
0
  6
CONTINUOUS
 62
     9
 10
-927.5050917273478
 20
776.823735939741
 30
0.0
  0
VERTEX
  5
37F
  8
0
  6
CONTINUOUS
 62
     9
 10
-927.7579641456971
 20
775.9777737782259
 30
0.0
  0
VERTEX
  5
380
  8
0
  6
CONTINUOUS
 62
     9
 10
-927.8406468545528
 20
775.0968139481572
 30
0.0
  0
SEQEND
  5
668
  8
0
  6
CONTINUOUS
 62
     9
  0
POLYLINE
  5
C8
  8
0
  6
CONTINUOUS
 62
     9
 66
     1
 10
0.0
 20
0.0
 30
0.0
  0
VERTEX
  5
381
  8
0
  6
CONTINUOUS
 62
     9
 10
-1147.159353145447
 20
775.0968139481572
 30
0.0
  0
VERTEX
  5
382
  8
0
  6
CONTINUOUS
 62
     9
 10
-1147.242035854303
 20
775.9777737782259
 30
0.0
  0
VERTEX
  5
383
  8
0
  6
CONTINUOUS
 62
     9
 10
-1147.494908272652
 20
776.823735939741
 30
0.0
  0
VERTEX
  5
384
  8
0
  6
CONTINUOUS
 62
     9
 10
-1147.908286407629
 20
777.6023034967675
 30
0.0
  0
VERTEX
  5
385
  8
0
  6
CONTINUOUS
 62
     9
 10
-1148.466339545326
 20
778.2836604546741
 30
0.0
  0
VERTEX
  5
386
  8
0
  6
CONTINUOUS
 62
     9
 10
-1149.147696503233
 20
778.8417135923708
 30
0.0
  0
VERTEX
  5
387
  8
0
  6
CONTINUOUS
 62
     9
 10
-1149.926264060259
 20
779.2550917273477
 30
0.0
  0
VERTEX
  5
388
  8
0
  6
CONTINUOUS
 62
     9
 10
-1150.772226221774
 20
779.507964145697
 30
0.0
  0
VERTEX
  5
389
  8
0
  6
CONTINUOUS
 62
     9
 10
-1151.653186051843
 20
779.5906468545527
 30
0.0
  0
SEQEND
  5
669
  8
0
  6
CONTINUOUS
 62
     9
  0
POLYLINE
  5
C9
  8
0
  6
CONTINUOUS
 62
     9
 66
     1
 10
0.0
 20
0.0
 30
0.0
  0
VERTEX
  5
38A
  8
0
  6
CONTINUOUS
 62
     9
 10
-1028.653186051843
 20
875.9093531454472
 30
0.0
  0
VERTEX
  5
38B
  8
0
  6
CONTINUOUS
 62
     9
 10
-1027.772226221774
 20
875.9920358543028
 30
0.0
  0
VERTEX
  5
38C
  8
0
  6
CONTINUOUS
 62
     9
 10
-1026.926264060259
 20
876.2449082726522
 30
0.0
  0
VERTEX
  5
38D
  8
0
  6
CONTINUOUS
 62
     9
 10
-1026.147696503233
 20
876.658286407629
 30
0.0
  0
VERTEX
  5
38E
  8
0
  6
CONTINUOUS
 62
     9
 10
-1025.466339545326
 20
877.2163395453257
 30
0.0
  0
VERTEX
  5
38F
  8
0
  6
CONTINUOUS
 62
     9
 10
-1024.908286407629
 20
877.8976965032323
 30
0.0
  0
VERTEX
  5
390
  8
0
  6
CONTINUOUS
 62
     9
 10
-1024.494908272652
 20
878.676264060259
 30
0.0
  0
VERTEX
  5
391
  8
0
  6
CONTINUOUS
 62
     9
 10
-1024.242035854303
 20
879.5222262217741
 30
0.0
  0
VERTEX
  5
392
  8
0
  6
CONTINUOUS
 62
     9
 10
-1024.159353145447
 20
880.4031860518427
 30
0.0
  0
SEQEND
  5
66A
  8
0
  6
CONTINUOUS
 62
     9
  0
POLYLINE
  5
CA
  8
0
  6
CONTINUOUS
 62
     9
 66
     1
 10
0.0
 20
0.0
 30
0.0
  0
VERTEX
  5
393
  8
0
  6
CONTINUOUS
 62
     9
 10
-1050.840646854553
 20
880.4031860518427
 30
0.0
  0
VERTEX
  5
394
  8
0
  6
CONTINUOUS
 62
     9
 10
-1050.757964145697
 20
879.5222262217738
 30
0.0
  0
VERTEX
  5
395
  8
0
  6
CONTINUOUS
 62
     9
 10
-1050.505091727348
 20
878.6762640602589
 30
0.0
  0
VERTEX
  5
396
  8
0
  6
CONTINUOUS
 62
     9
 10
-1050.091713592371
 20
877.8976965032323
 30
0.0
  0
VERTEX
  5
397
  8
0
  6
CONTINUOUS
 62
     9
 10
-1049.533660454674
 20
877.2163395453257
 30
0.0
  0
VERTEX
  5
398
  8
0
  6
CONTINUOUS
 62
     9
 10
-1048.852303496767
 20
876.658286407629
 30
0.0
  0
VERTEX
  5
399
  8
0
  6
CONTINUOUS
 62
     9
 10
-1048.073735939741
 20
876.2449082726521
 30
0.0
  0
VERTEX
  5
39A
  8
0
  6
CONTINUOUS
 62
     9
 10
-1047.227773778226
 20
875.9920358543028
 30
0.0
  0
VERTEX
  5
39B
  8
0
  6
CONTINUOUS
 62
     9
 10
-1046.346813948157
 20
875.9093531454472
 30
0.0
  0
SEQEND
  5
66B
  8
0
  6
CONTINUOUS
 62
     9
  0
POLYLINE
  5
CB
  8
0
  6
CONTINUOUS
 62
     9
 66
     1
 10
0.0
 20
0.0
 30
0.0
  0
VERTEX
  5
39C
  8
0
  6
CONTINUOUS
 62
     9
 10
-932.8406468545527
 20
875.4031860518428
 30
0.0
  0
VERTEX
  5
39D
  8
0
  6
CONTINUOUS
 62
     9
 10
-932.7579641456971
 20
874.522226221774
 30
0.0
  0
VERTEX
  5
39E
  8
0
  6
CONTINUOUS
 62
     9
 10
-932.5050917273477
 20
873.676264060259
 30
0.0
  0
VERTEX
  5
39F
  8
0
  6
CONTINUOUS
 62
     9
 10
-932.0917135923709
 20
872.8976965032324
 30
0.0
  0
VERTEX
  5
3A0
  8
0
  6
CONTINUOUS
 62
     9
 10
-931.5336604546742
 20
872.2163395453258
 30
0.0
  0
VERTEX
  5
3A1
  8
0
  6
CONTINUOUS
 62
     9
 10
-930.8523034967676
 20
871.6582864076291
 30
0.0
  0
VERTEX
  5
3A2
  8
0
  6
CONTINUOUS
 62
     9
 10
-930.0737359397409
 20
871.2449082726522
 30
0.0
  0
VERTEX
  5
3A3
  8
0
  6
CONTINUOUS
 62
     9
 10
-929.2277737782258
 20
870.9920358543029
 30
0.0
  0
VERTEX
  5
3A4
  8
0
  6
CONTINUOUS
 62
     9
 10
-928.3468139481572
 20
870.9093531454473
 30
0.0
  0
SEQEND
  5
66C
  8
0
  6
CONTINUOUS
 62
     9
  0
POLYLINE
  5
CC
  8
0
  6
CONTINUOUS
 62
     9
 66
     1
 10
0.0
 20
0.0
 30
0.0
  0
VERTEX
  5
3A5
  8
0
  6
CONTINUOUS
 62
     9
 10
-1146.653186051843
 20
870.9093531454472
 30
0.0
  0
VERTEX
  5
3A6
  8
0
  6
CONTINUOUS
 62
     9
 10
-1145.772226221774
 20
870.9920358543028
 30
0.0
  0
VERTEX
  5
3A7
  8
0
  6
CONTINUOUS
 62
     9
 10
-1144.926264060259
 20
871.2449082726522
 30
0.0
  0
VERTEX
  5
3A8
  8
0
  6
CONTINUOUS
 62
     9
 10
-1144.147696503233
 20
871.658286407629
 30
0.0
  0
VERTEX
  5
3A9
  8
0
  6
CONTINUOUS
 62
     9
 10
-1143.466339545326
 20
872.2163395453257
 30
0.0
  0
VERTEX
  5
3AA
  8
0
  6
CONTINUOUS
 62
     9
 10
-1142.908286407629
 20
872.8976965032323
 30
0.0
  0
VERTEX
  5
3AB
  8
0
  6
CONTINUOUS
 62
     9
 10
-1142.494908272653
 20
873.676264060259
 30
0.0
  0
VERTEX
  5
3AC
  8
0
  6
CONTINUOUS
 62
     9
 10
-1142.242035854303
 20
874.5222262217741
 30
0.0
  0
VERTEX
  5
3AD
  8
0
  6
CONTINUOUS
 62
     9
 10
-1142.159353145447
 20
875.4031860518427
 30
0.0
  0
SEQEND
  5
66D
  8
0
  6
CONTINUOUS
 62
     9
  0
LINE
  5
CD
  8
0
  6
CONTINUOUS
 62
     7
 10
-1050.313282763548
 20
641.4680574494599
 30
0.0
 11
-1050.305294545975
 21
641.4680683870267
 31
0.0
  0
LINE
  5
CE
  8
0
  6
CONTINUOUS
 62
     7
 10
-912.7180683870271
 20
779.0552945459749
 30
0.0
 11
-912.7180574494602
 21
779.0632827635476
 31
0.0
  0
LINE
  5
CF
  8
0
  6
CONTINUOUS
 62
     9
 10
-1028.653186051843
 20
656.5906468545526
 30
0.0
 11
-1046.346813948157
 21
656.5906468545526
 31
0.0
  0
LINE
  5
D0
  8
0
  6
CONTINUOUS
 62
     9
 10
-1028.653186051843
 20
875.9093531454471
 30
0.0
 11
-1046.346813948157
 21
875.9093531454471
 31
0.0
  0
LINE
  5
D1
  8
0
  6
CONTINUOUS
 62
     9
 10
-932.8406468545528
 20
657.096813948157
 30
0.0
 11
-932.8406468545528
 21
648.9938274388866
 31
0.0
  0
LINE
  5
D2
  8
0
  6
CONTINUOUS
 62
     9
 10
-1142.159353145447
 20
657.096813948157
 30
0.0
 11
-1142.159353145447
 21
648.9938274388866
 31
0.0
  0
LINE
  5
D3
  8
0
  6
CONTINUOUS
 62
     9
 10
-923.3468139481572
 20
752.9093531454472
 30
0.0
 11
-920.2438274388868
 21
752.9093531454472
 31
0.0
  0
LINE
  5
D4
  8
0
  6
CONTINUOUS
 62
     9
 10
-1151.653186051843
 20
752.9093531454471
 30
0.0
 11
-1154.756172561114
 21
752.9093531454471
 31
0.0
  0
LINE
  5
D5
  8
0
  6
CONTINUOUS
 62
     9
 10
-923.3468139481572
 20
779.5906468545526
 30
0.0
 11
-920.2438274388868
 21
779.5906468545526
 31
0.0
  0
LINE
  5
D6
  8
0
  6
CONTINUOUS
 62
     9
 10
-1151.653186051843
 20
779.5906468545526
 30
0.0
 11
-1154.756172561114
 21
779.5906468545526
 31
0.0
  0
LINE
  5
D7
  8
0
  6
CONTINUOUS
 62
     9
 10
-1142.159353145447
 20
875.4031860518427
 30
0.0
 11
-1142.159353145447
 21
883.5061725611132
 31
0.0
  0
LINE
  5
D8
  8
0
  6
CONTINUOUS
 62
     9
 10
-932.8406468545528
 20
875.4031860518427
 30
0.0
 11
-932.8406468545528
 21
883.5061725611132
 31
0.0
  0
LINE
  5
D9
  8
0
  6
CONTINUOUS
 62
     9
 10
-1050.840646854553
 20
648.9938274388866
 30
0.0
 11
-1050.840646854553
 21
652.096813948157
 31
0.0
  0
LINE
  5
DA
  8
0
  6
CONTINUOUS
 62
     9
 10
-1024.159353145447
 20
648.9938274388866
 30
0.0
 11
-1024.159353145447
 21
652.096813948157
 31
0.0
  0
LINE
  5
DB
  8
0
  6
CONTINUOUS
 62
     9
 10
-920.2438274388868
 20
661.5906468545526
 30
0.0
 11
-928.3468139481572
 21
661.5906468545526
 31
0.0
  0
LINE
  5
DC
  8
0
  6
CONTINUOUS
 62
     9
 10
-1154.756172561113
 20
661.5906468545526
 30
0.0
 11
-1146.653186051843
 21
661.5906468545526
 31
0.0
  0
LINE
  5
DD
  8
0
  6
CONTINUOUS
 62
     9
 10
-1154.756172561114
 20
870.9093531454471
 30
0.0
 11
-1146.653186051843
 21
870.9093531454471
 31
0.0
  0
LINE
  5
DE
  8
0
  6
CONTINUOUS
 62
     9
 10
-920.2438274388868
 20
870.9093531454471
 30
0.0
 11
-928.3468139481572
 21
870.9093531454471
 31
0.0
  0
LINE
  5
DF
  8
0
  6
CONTINUOUS
 62
     9
 10
-1024.159353145447
 20
883.5061725611132
 30
0.0
 11
-1024.159353145447
 21
880.4031860518428
 31
0.0
  0
LINE
  5
E0
  8
0
  6
CONTINUOUS
 62
     9
 10
-1050.840646854553
 20
883.5061725611132
 30
0.0
 11
-1050.840646854553
 21
880.4031860518428
 31
0.0
  0
LINE
  5
E1
  8
0
  6
CONTINUOUS
 62
     9
 10
-1152.397250793351
 20
762.6410836997462
 30
0.0
 11
-1152.291830071196
 21
762.8199424177167
 31
0.0
  0
LINE
  5
E2
  8
0
  6
CONTINUOUS
 62
     9
 10
-922.7081699288041
 20
762.8199424177167
 30
0.0
 11
-922.6027492066494
 21
762.6410836997462
 31
0.0
  0
LINE
  5
E3
  8
0
  6
CONTINUOUS
 62
     9
 10
-1152.291830071196
 20
769.6800575822832
 30
0.0
 11
-1152.397250793351
 21
769.8589163002537
 31
0.0
  0
LINE
  5
E4
  8
0
  6
CONTINUOUS
 62
     9
 10
-922.6027492066493
 20
769.8589163002537
 30
0.0
 11
-922.708169928804
 21
769.6800575822832
 31
0.0
  0
LINE
  5
E5
  8
0
  6
CONTINUOUS
 62
     9
 10
-1152.291830071196
 20
769.6800575822832
 30
0.0
 11
-1152.05476123061
 21
769.601098846357
 31
0.0
  0
LINE
  5
E6
  8
0
  6
CONTINUOUS
 62
     9
 10
-1147.159353145447
 20
757.4031860518427
 30
0.0
 11
-1147.159353145447
 21
775.0968139481571
 31
0.0
  0
LINE
  5
E7
  8
0
  6
CONTINUOUS
 62
     9
 10
-1152.291830071196
 20
762.8199424177166
 30
0.0
 11
-1152.05476123061
 21
762.8989011536428
 31
0.0
  0
LINE
  5
E8
  8
0
  6
CONTINUOUS
 62
     9
 10
-1152.05476123061
 20
762.8989011536428
 30
0.0
 11
-1151.951774955773
 21
764.8985965439555
 31
0.0
  0
LINE
  5
E9
  8
0
  6
CONTINUOUS
 62
     9
 10
-1151.951774955773
 20
767.6014034560441
 30
0.0
 11
-1151.951774955773
 21
764.8985965439555
 31
0.0
  0
LINE
  5
EA
  8
0
  6
CONTINUOUS
 62
     9
 10
-1152.05476123061
 20
769.601098846357
 30
0.0
 11
-1151.951774955773
 21
767.6014034560441
 31
0.0
  0
LINE
  5
EB
  8
0
  6
CONTINUOUS
 62
     9
 10
-923.0482250442277
 20
767.6014034560442
 30
0.0
 11
-923.0482250442277
 21
764.8985965439556
 31
0.0
  0
LINE
  5
EC
  8
0
  6
CONTINUOUS
 62
     9
 10
-922.9452387693906
 20
762.8989011536428
 30
0.0
 11
-923.0482250442276
 21
764.8985965439556
 31
0.0
  0
LINE
  5
ED
  8
0
  6
CONTINUOUS
 62
     9
 10
-922.7081699288041
 20
762.8199424177166
 30
0.0
 11
-922.9452387693906
 21
762.8989011536428
 31
0.0
  0
LINE
  5
EE
  8
0
  6
CONTINUOUS
 62
     9
 10
-927.8406468545528
 20
757.4031860518427
 30
0.0
 11
-927.8406468545528
 21
775.0968139481571
 31
0.0
  0
LINE
  5
EF
  8
0
  6
CONTINUOUS
 62
     9
 10
-922.7081699288041
 20
769.6800575822832
 30
0.0
 11
-922.9452387693906
 21
769.601098846357
 31
0.0
  0
LINE
  5
F0
  8
0
  6
CONTINUOUS
 62
     9
 10
-922.9452387693906
 20
769.601098846357
 30
0.0
 11
-923.0482250442276
 21
767.6014034560442
 31
0.0
  0
LINE
  5
F1
  8
0
  6
CONTINUOUS
 62
     9
 10
-916.7486240672457
 20
721.1776942320085
 30
0.0
 11
-916.7486240672457
 21
691.3223057679912
 31
0.0
  0
LINE
  5
F2
  8
0
  6
CONTINUOUS
 62
     9
 10
-916.7486240672457
 20
681.1776942320085
 30
0.0
 11
-916.7486240672457
 21
665.0858502261935
 31
0.0
  0
LINE
  5
F3
  8
0
  6
CONTINUOUS
 62
     9
 10
-1158.251375932754
 20
749.414149773806
 30
0.0
 11
-1158.251375932754
 21
731.3223057679911
 31
0.0
  0
LINE
  5
F4
  8
0
  6
CONTINUOUS
 62
     9
 10
-1158.251375932754
 20
721.1776942320085
 30
0.0
 11
-1158.251375932754
 21
691.3223057679912
 31
0.0
  0
LINE
  5
F5
  8
0
  6
CONTINUOUS
 62
     9
 10
-916.7486240672457
 20
783.0858502261937
 30
0.0
 11
-916.7486240672457
 21
801.1776942320084
 31
0.0
  0
LINE
  5
F6
  8
0
  6
CONTINUOUS
 62
     9
 10
-916.7486240672457
 20
811.3223057679911
 30
0.0
 11
-916.7486240672457
 21
841.1776942320084
 31
0.0
  0
LINE
  5
F7
  8
0
  6
CONTINUOUS
 62
     9
 10
-1158.251375932754
 20
783.0858502261935
 30
0.0
 11
-1158.251375932754
 21
801.1776942320084
 31
0.0
  0
LINE
  5
F8
  8
0
  6
CONTINUOUS
 62
     9
 10
-1158.251375932754
 20
811.3223057679911
 30
0.0
 11
-1158.251375932754
 21
841.1776942320084
 31
0.0
  0
LINE
  5
F9
  8
0
  6
CONTINUOUS
 62
     9
 10
-962.5734877114008
 20
645.4986240672456
 30
0.0
 11
-992.4265122885992
 21
645.4986240672456
 31
0.0
  0
LINE
  5
FA
  8
0
  6
CONTINUOUS
 62
     9
 10
-1002.573487711401
 20
645.4986240672456
 30
0.0
 11
-1020.664149773806
 21
645.4986240672456
 31
0.0
  0
LINE
  5
FB
  8
0
  6
CONTINUOUS
 62
     9
 10
-1138.664149773806
 20
645.4986240672456
 30
0.0
 11
-1122.573487711401
 21
645.4986240672456
 31
0.0
  0
LINE
  5
FC
  8
0
  6
CONTINUOUS
 62
     9
 10
-1112.426512288599
 20
645.4986240672456
 30
0.0
 11
-1082.573487711401
 21
645.4986240672456
 31
0.0
  0
LINE
  5
FD
  8
0
  6
CONTINUOUS
 62
     9
 10
-936.3358502261938
 20
887.0013759327542
 30
0.0
 11
-952.4265122885992
 21
887.0013759327542
 31
0.0
  0
LINE
  5
FE
  8
0
  6
CONTINUOUS
 62
     9
 10
-962.5734877114008
 20
887.0013759327542
 30
0.0
 11
-992.4265122885993
 21
887.0013759327542
 31
0.0
  0
LINE
  5
FF
  8
0
  6
CONTINUOUS
 62
     9
 10
-1112.426512288599
 20
887.0013759327542
 30
0.0
 11
-1082.573487711401
 21
887.0013759327542
 31
0.0
  0
LINE
  5
100
  8
0
  6
CONTINUOUS
 62
     9
 10
-1072.426512288599
 20
887.0013759327542
 30
0.0
 11
-1054.335850226194
 21
887.0013759327542
 31
0.0
  0
POLYLINE
  5
101
  8
0
  6
CONTINUOUS
 62
     9
 66
     1
 10
0.0
 20
0.0
 30
0.0
  0
VERTEX
  5
3AE
  8
0
  6
CONTINUOUS
 62
     9
 10
-920.2438274388867
 20
661.5906468545526
 30
0.0
  0
VERTEX
  5
3AF
  8
0
  6
CONTINUOUS
 62
     9
 10
-919.5631182745179
 20
661.6594374426805
 30
0.0
  0
VERTEX
  5
3B0
  8
0
  6
CONTINUOUS
 62
     9
 10
-918.9084775233616
 20
661.8594458091965
 30
0.0
  0
VERTEX
  5
3B1
  8
0
  6
CONTINUOUS
 62
     9
 10
-918.304975283633
 20
662.183012441026
 30
0.0
  0
VERTEX
  5
3B2
  8
0
  6
CONTINUOUS
 62
     9
 10
-917.7757232549877
 20
662.6177460422946
 30
0.0
  0
VERTEX
  5
3B3
  8
0
  6
CONTINUOUS
 62
     9
 10
-917.3409896537192
 20
663.1469980709397
 30
0.0
  0
VERTEX
  5
3B4
  8
0
  6
CONTINUOUS
 62
     9
 10
-917.0174230218897
 20
663.7505003106684
 30
0.0
  0
VERTEX
  5
3B5
  8
0
  6
CONTINUOUS
 62
     9
 10
-916.8174146553738
 20
664.4051410618248
 30
0.0
  0
VERTEX
  5
3B6
  8
0
  6
CONTINUOUS
 62
     9
 10
-916.7486240672458
 20
665.0858502261934
 30
0.0
  0
SEQEND
  5
66E
  8
0
  6
CONTINUOUS
 62
     9
  0
POLYLINE
  5
102
  8
0
  6
CONTINUOUS
 62
     9
 66
     1
 10
0.0
 20
0.0
 30
0.0
  0
VERTEX
  5
3B7
  8
0
  6
CONTINUOUS
 62
     9
 10
-1158.251375932754
 20
665.0858502261935
 30
0.0
  0
VERTEX
  5
3B8
  8
0
  6
CONTINUOUS
 62
     9
 10
-1158.182585344626
 20
664.4051410618248
 30
0.0
  0
VERTEX
  5
3B9
  8
0
  6
CONTINUOUS
 62
     9
 10
-1157.98257697811
 20
663.7505003106684
 30
0.0
  0
VERTEX
  5
3BA
  8
0
  6
CONTINUOUS
 62
     9
 10
-1157.659010346281
 20
663.1469980709397
 30
0.0
  0
VERTEX
  5
3BB
  8
0
  6
CONTINUOUS
 62
     9
 10
-1157.224276745012
 20
662.6177460422946
 30
0.0
  0
VERTEX
  5
3BC
  8
0
  6
CONTINUOUS
 62
     9
 10
-1156.695024716367
 20
662.1830124410261
 30
0.0
  0
VERTEX
  5
3BD
  8
0
  6
CONTINUOUS
 62
     9
 10
-1156.091522476638
 20
661.8594458091966
 30
0.0
  0
VERTEX
  5
3BE
  8
0
  6
CONTINUOUS
 62
     9
 10
-1155.436881725482
 20
661.6594374426807
 30
0.0
  0
VERTEX
  5
3BF
  8
0
  6
CONTINUOUS
 62
     9
 10
-1154.756172561113
 20
661.5906468545527
 30
0.0
  0
SEQEND
  5
66F
  8
0
  6
CONTINUOUS
 62
     9
  0
POLYLINE
  5
103
  8
0
  6
CONTINUOUS
 62
     9
 66
     1
 10
0.0
 20
0.0
 30
0.0
  0
VERTEX
  5
3C0
  8
0
  6
CONTINUOUS
 62
     9
 10
-1154.756172561114
 20
870.9093531454472
 30
0.0
  0
VERTEX
  5
3C1
  8
0
  6
CONTINUOUS
 62
     9
 10
-1155.436881725482
 20
870.8405625573191
 30
0.0
  0
VERTEX
  5
3C2
  8
0
  6
CONTINUOUS
 62
     9
 10
-1156.091522476639
 20
870.6405541908032
 30
0.0
  0
VERTEX
  5
3C3
  8
0
  6
CONTINUOUS
 62
     9
 10
-1156.695024716368
 20
870.3169875589736
 30
0.0
  0
VERTEX
  5
3C4
  8
0
  6
CONTINUOUS
 62
     9
 10
-1157.224276745013
 20
869.8822539577051
 30
0.0
  0
VERTEX
  5
3C5
  8
0
  6
CONTINUOUS
 62
     9
 10
-1157.659010346281
 20
869.3530019290598
 30
0.0
  0
VERTEX
  5
3C6
  8
0
  6
CONTINUOUS
 62
     9
 10
-1157.982576978111
 20
868.7494996893311
 30
0.0
  0
VERTEX
  5
3C7
  8
0
  6
CONTINUOUS
 62
     9
 10
-1158.182585344626
 20
868.0948589381748
 30
0.0
  0
VERTEX
  5
3C8
  8
0
  6
CONTINUOUS
 62
     9
 10
-1158.251375932755
 20
867.414149773806
 30
0.0
  0
SEQEND
  5
670
  8
0
  6
CONTINUOUS
 62
     9
  0
POLYLINE
  5
104
  8
0
  6
CONTINUOUS
 62
     9
 66
     1
 10
0.0
 20
0.0
 30
0.0
  0
VERTEX
  5
3C9
  8
0
  6
CONTINUOUS
 62
     9
 10
-916.7486240672458
 20
867.4141497738062
 30
0.0
  0
VERTEX
  5
3CA
  8
0
  6
CONTINUOUS
 62
     9
 10
-916.8174146553738
 20
868.0948589381749
 30
0.0
  0
VERTEX
  5
3CB
  8
0
  6
CONTINUOUS
 62
     9
 10
-917.0174230218897
 20
868.7494996893313
 30
0.0
  0
VERTEX
  5
3CC
  8
0
  6
CONTINUOUS
 62
     9
 10
-917.3409896537192
 20
869.3530019290599
 30
0.0
  0
VERTEX
  5
3CD
  8
0
  6
CONTINUOUS
 62
     9
 10
-917.7757232549877
 20
869.8822539577051
 30
0.0
  0
VERTEX
  5
3CE
  8
0
  6
CONTINUOUS
 62
     9
 10
-918.3049752836329
 20
870.3169875589736
 30
0.0
  0
VERTEX
  5
3CF
  8
0
  6
CONTINUOUS
 62
     9
 10
-918.9084775233615
 20
870.6405541908032
 30
0.0
  0
VERTEX
  5
3D0
  8
0
  6
CONTINUOUS
 62
     9
 10
-919.5631182745179
 20
870.840562557319
 30
0.0
  0
VERTEX
  5
3D1
  8
0
  6
CONTINUOUS
 62
     9
 10
-920.2438274388867
 20
870.9093531454471
 30
0.0
  0
SEQEND
  5
671
  8
0
  6
CONTINUOUS
 62
     9
  0
POLYLINE
  5
105
  8
0
  6
CONTINUOUS
 62
     9
 66
     1
 10
0.0
 20
0.0
 30
0.0
  0
VERTEX
  5
3D2
  8
0
  6
CONTINUOUS
 62
     9
 10
-1142.159353145447
 20
648.9938274388867
 30
0.0
  0
VERTEX
  5
3D3
  8
0
  6
CONTINUOUS
 62
     9
 10
-1142.09056255732
 20
648.3131182745179
 30
0.0
  0
VERTEX
  5
3D4
  8
0
  6
CONTINUOUS
 62
     9
 10
-1141.890554190803
 20
647.6584775233615
 30
0.0
  0
VERTEX
  5
3D5
  8
0
  6
CONTINUOUS
 62
     9
 10
-1141.566987558974
 20
647.0549752836328
 30
0.0
  0
VERTEX
  5
3D6
  8
0
  6
CONTINUOUS
 62
     9
 10
-1141.132253957706
 20
646.5257232549875
 30
0.0
  0
VERTEX
  5
3D7
  8
0
  6
CONTINUOUS
 62
     9
 10
-1140.60300192906
 20
646.0909896537189
 30
0.0
  0
VERTEX
  5
3D8
  8
0
  6
CONTINUOUS
 62
     9
 10
-1139.999499689332
 20
645.7674230218894
 30
0.0
  0
VERTEX
  5
3D9
  8
0
  6
CONTINUOUS
 62
     9
 10
-1139.344858938175
 20
645.5674146553736
 30
0.0
  0
VERTEX
  5
3DA
  8
0
  6
CONTINUOUS
 62
     9
 10
-1138.664149773806
 20
645.4986240672455
 30
0.0
  0
SEQEND
  5
672
  8
0
  6
CONTINUOUS
 62
     9
  0
POLYLINE
  5
106
  8
0
  6
CONTINUOUS
 62
     9
 66
     1
 10
0.0
 20
0.0
 30
0.0
  0
VERTEX
  5
3DB
  8
0
  6
CONTINUOUS
 62
     9
 10
-1024.159353145447
 20
648.9938274388865
 30
0.0
  0
VERTEX
  5
3DC
  8
0
  6
CONTINUOUS
 62
     9
 10
-1024.090562557319
 20
648.3131182745178
 30
0.0
  0
VERTEX
  5
3DD
  8
0
  6
CONTINUOUS
 62
     9
 10
-1023.890554190803
 20
647.6584775233614
 30
0.0
  0
VERTEX
  5
3DE
  8
0
  6
CONTINUOUS
 62
     9
 10
-1023.566987558974
 20
647.0549752836328
 30
0.0
  0
VERTEX
  5
3DF
  8
0
  6
CONTINUOUS
 62
     9
 10
-1023.132253957705
 20
646.5257232549875
 30
0.0
  0
VERTEX
  5
3E0
  8
0
  6
CONTINUOUS
 62
     9
 10
-1022.60300192906
 20
646.090989653719
 30
0.0
  0
VERTEX
  5
3E1
  8
0
  6
CONTINUOUS
 62
     9
 10
-1021.999499689331
 20
645.7674230218895
 30
0.0
  0
VERTEX
  5
3E2
  8
0
  6
CONTINUOUS
 62
     9
 10
-1021.344858938175
 20
645.5674146553737
 30
0.0
  0
VERTEX
  5
3E3
  8
0
  6
CONTINUOUS
 62
     9
 10
-1020.664149773806
 20
645.4986240672456
 30
0.0
  0
SEQEND
  5
673
  8
0
  6
CONTINUOUS
 62
     9
  0
POLYLINE
  5
107
  8
0
  6
CONTINUOUS
 62
     9
 66
     1
 10
0.0
 20
0.0
 30
0.0
  0
VERTEX
  5
3E4
  8
0
  6
CONTINUOUS
 62
     9
 10
-1054.335850226194
 20
645.4986240672455
 30
0.0
  0
VERTEX
  5
3E5
  8
0
  6
CONTINUOUS
 62
     9
 10
-1053.655141061825
 20
645.5674146553736
 30
0.0
  0
VERTEX
  5
3E6
  8
0
  6
CONTINUOUS
 62
     9
 10
-1053.000500310669
 20
645.7674230218895
 30
0.0
  0
VERTEX
  5
3E7
  8
0
  6
CONTINUOUS
 62
     9
 10
-1052.39699807094
 20
646.090989653719
 30
0.0
  0
VERTEX
  5
3E8
  8
0
  6
CONTINUOUS
 62
     9
 10
-1051.867746042295
 20
646.5257232549875
 30
0.0
  0
VERTEX
  5
3E9
  8
0
  6
CONTINUOUS
 62
     9
 10
-1051.433012441026
 20
647.0549752836328
 30
0.0
  0
VERTEX
  5
3EA
  8
0
  6
CONTINUOUS
 62
     9
 10
-1051.109445809197
 20
647.6584775233616
 30
0.0
  0
VERTEX
  5
3EB
  8
0
  6
CONTINUOUS
 62
     9
 10
-1050.909437442681
 20
648.3131182745179
 30
0.0
  0
VERTEX
  5
3EC
  8
0
  6
CONTINUOUS
 62
     9
 10
-1050.840646854553
 20
648.9938274388867
 30
0.0
  0
SEQEND
  5
674
  8
0
  6
CONTINUOUS
 62
     9
  0
POLYLINE
  5
108
  8
0
  6
CONTINUOUS
 62
     9
 66
     1
 10
0.0
 20
0.0
 30
0.0
  0
VERTEX
  5
3ED
  8
0
  6
CONTINUOUS
 62
     9
 10
-936.3358502261937
 20
645.4986240672456
 30
0.0
  0
VERTEX
  5
3EE
  8
0
  6
CONTINUOUS
 62
     9
 10
-935.6551410618249
 20
645.5674146553736
 30
0.0
  0
VERTEX
  5
3EF
  8
0
  6
CONTINUOUS
 62
     9
 10
-935.0005003106686
 20
645.7674230218895
 30
0.0
  0
VERTEX
  5
3F0
  8
0
  6
CONTINUOUS
 62
     9
 10
-934.3969980709398
 20
646.090989653719
 30
0.0
  0
VERTEX
  5
3F1
  8
0
  6
CONTINUOUS
 62
     9
 10
-933.8677460422946
 20
646.5257232549875
 30
0.0
  0
VERTEX
  5
3F2
  8
0
  6
CONTINUOUS
 62
     9
 10
-933.4330124410261
 20
647.0549752836328
 30
0.0
  0
VERTEX
  5
3F3
  8
0
  6
CONTINUOUS
 62
     9
 10
-933.1094458091966
 20
647.6584775233615
 30
0.0
  0
VERTEX
  5
3F4
  8
0
  6
CONTINUOUS
 62
     9
 10
-932.9094374426808
 20
648.3131182745178
 30
0.0
  0
VERTEX
  5
3F5
  8
0
  6
CONTINUOUS
 62
     9
 10
-932.8406468545527
 20
648.9938274388866
 30
0.0
  0
SEQEND
  5
675
  8
0
  6
CONTINUOUS
 62
     9
  0
POLYLINE
  5
109
  8
0
  6
CONTINUOUS
 62
     9
 66
     1
 10
0.0
 20
0.0
 30
0.0
  0
VERTEX
  5
3F6
  8
0
  6
CONTINUOUS
 62
     9
 10
-1138.664149773806
 20
887.0013759327542
 30
0.0
  0
VERTEX
  5
3F7
  8
0
  6
CONTINUOUS
 62
     9
 10
-1139.344858938175
 20
886.9325853446262
 30
0.0
  0
VERTEX
  5
3F8
  8
0
  6
CONTINUOUS
 62
     9
 10
-1139.999499689331
 20
886.7325769781103
 30
0.0
  0
VERTEX
  5
3F9
  8
0
  6
CONTINUOUS
 62
     9
 10
-1140.60300192906
 20
886.4090103462806
 30
0.0
  0
VERTEX
  5
3FA
  8
0
  6
CONTINUOUS
 62
     9
 10
-1141.132253957705
 20
885.9742767450123
 30
0.0
  0
VERTEX
  5
3FB
  8
0
  6
CONTINUOUS
 62
     9
 10
-1141.566987558974
 20
885.4450247163671
 30
0.0
  0
VERTEX
  5
3FC
  8
0
  6
CONTINUOUS
 62
     9
 10
-1141.890554190803
 20
884.8415224766384
 30
0.0
  0
VERTEX
  5
3FD
  8
0
  6
CONTINUOUS
 62
     9
 10
-1142.090562557319
 20
884.186881725482
 30
0.0
  0
VERTEX
  5
3FE
  8
0
  6
CONTINUOUS
 62
     9
 10
-1142.159353145447
 20
883.5061725611133
 30
0.0
  0
SEQEND
  5
676
  8
0
  6
CONTINUOUS
 62
     9
  0
POLYLINE
  5
10A
  8
0
  6
CONTINUOUS
 62
     9
 66
     1
 10
0.0
 20
0.0
 30
0.0
  0
VERTEX
  5
3FF
  8
0
  6
CONTINUOUS
 62
     9
 10
-1050.840646854553
 20
883.5061725611133
 30
0.0
  0
VERTEX
  5
400
  8
0
  6
CONTINUOUS
 62
     9
 10
-1050.909437442681
 20
884.1868817254821
 30
0.0
  0
VERTEX
  5
401
  8
0
  6
CONTINUOUS
 62
     9
 10
-1051.109445809197
 20
884.8415224766384
 30
0.0
  0
VERTEX
  5
402
  8
0
  6
CONTINUOUS
 62
     9
 10
-1051.433012441027
 20
885.445024716367
 30
0.0
  0
VERTEX
  5
403
  8
0
  6
CONTINUOUS
 62
     9
 10
-1051.867746042295
 20
885.9742767450123
 30
0.0
  0
VERTEX
  5
404
  8
0
  6
CONTINUOUS
 62
     9
 10
-1052.39699807094
 20
886.4090103462808
 30
0.0
  0
VERTEX
  5
405
  8
0
  6
CONTINUOUS
 62
     9
 10
-1053.000500310669
 20
886.7325769781103
 30
0.0
  0
VERTEX
  5
406
  8
0
  6
CONTINUOUS
 62
     9
 10
-1053.655141061825
 20
886.9325853446261
 30
0.0
  0
VERTEX
  5
407
  8
0
  6
CONTINUOUS
 62
     9
 10
-1054.335850226194
 20
887.0013759327542
 30
0.0
  0
SEQEND
  5
677
  8
0
  6
CONTINUOUS
 62
     9
  0
POLYLINE
  5
10B
  8
0
  6
CONTINUOUS
 62
     9
 66
     1
 10
0.0
 20
0.0
 30
0.0
  0
VERTEX
  5
408
  8
0
  6
CONTINUOUS
 62
     9
 10
-1020.664149773806
 20
887.0013759327543
 30
0.0
  0
VERTEX
  5
409
  8
0
  6
CONTINUOUS
 62
     9
 10
-1021.344858938175
 20
886.9325853446262
 30
0.0
  0
VERTEX
  5
40A
  8
0
  6
CONTINUOUS
 62
     9
 10
-1021.999499689332
 20
886.7325769781103
 30
0.0
  0
VERTEX
  5
40B
  8
0
  6
CONTINUOUS
 62
     9
 10
-1022.60300192906
 20
886.4090103462808
 30
0.0
  0
VERTEX
  5
40C
  8
0
  6
CONTINUOUS
 62
     9
 10
-1023.132253957705
 20
885.9742767450123
 30
0.0
  0
VERTEX
  5
40D
  8
0
  6
CONTINUOUS
 62
     9
 10
-1023.566987558974
 20
885.445024716367
 30
0.0
  0
VERTEX
  5
40E
  8
0
  6
CONTINUOUS
 62
     9
 10
-1023.890554190803
 20
884.8415224766383
 30
0.0
  0
VERTEX
  5
40F
  8
0
  6
CONTINUOUS
 62
     9
 10
-1024.090562557319
 20
884.1868817254818
 30
0.0
  0
VERTEX
  5
410
  8
0
  6
CONTINUOUS
 62
     9
 10
-1024.159353145447
 20
883.5061725611131
 30
0.0
  0
SEQEND
  5
678
  8
0
  6
CONTINUOUS
 62
     9
  0
POLYLINE
  5
10C
  8
0
  6
CONTINUOUS
 62
     9
 66
     1
 10
0.0
 20
0.0
 30
0.0
  0
VERTEX
  5
411
  8
0
  6
CONTINUOUS
 62
     9
 10
-932.8406468545527
 20
883.5061725611132
 30
0.0
  0
VERTEX
  5
412
  8
0
  6
CONTINUOUS
 62
     9
 10
-932.9094374426808
 20
884.186881725482
 30
0.0
  0
VERTEX
  5
413
  8
0
  6
CONTINUOUS
 62
     9
 10
-933.1094458091966
 20
884.8415224766384
 30
0.0
  0
VERTEX
  5
414
  8
0
  6
CONTINUOUS
 62
     9
 10
-933.4330124410262
 20
885.445024716367
 30
0.0
  0
VERTEX
  5
415
  8
0
  6
CONTINUOUS
 62
     9
 10
-933.8677460422946
 20
885.9742767450123
 30
0.0
  0
VERTEX
  5
416
  8
0
  6
CONTINUOUS
 62
     9
 10
-934.3969980709398
 20
886.4090103462808
 30
0.0
  0
VERTEX
  5
417
  8
0
  6
CONTINUOUS
 62
     9
 10
-935.0005003106686
 20
886.7325769781104
 30
0.0
  0
VERTEX
  5
418
  8
0
  6
CONTINUOUS
 62
     9
 10
-935.655141061825
 20
886.9325853446262
 30
0.0
  0
VERTEX
  5
419
  8
0
  6
CONTINUOUS
 62
     9
 10
-936.3358502261938
 20
887.0013759327543
 30
0.0
  0
SEQEND
  5
679
  8
0
  6
CONTINUOUS
 62
     9
  0
POLYLINE
  5
10D
  8
0
  6
CONTINUOUS
 62
     9
 66
     1
 10
0.0
 20
0.0
 30
0.0
  0
VERTEX
  5
41A
  8
0
  6
CONTINUOUS
 62
     9
 10
-1158.251375932755
 20
783.0858502261934
 30
0.0
  0
VERTEX
  5
41B
  8
0
  6
CONTINUOUS
 62
     9
 10
-1158.182585344627
 20
782.4051410618246
 30
0.0
  0
VERTEX
  5
41C
  8
0
  6
CONTINUOUS
 62
     9
 10
-1157.982576978111
 20
781.7505003106683
 30
0.0
  0
VERTEX
  5
41D
  8
0
  6
CONTINUOUS
 62
     9
 10
-1157.659010346281
 20
781.1469980709396
 30
0.0
  0
VERTEX
  5
41E
  8
0
  6
CONTINUOUS
 62
     9
 10
-1157.224276745013
 20
780.6177460422944
 30
0.0
  0
VERTEX
  5
41F
  8
0
  6
CONTINUOUS
 62
     9
 10
-1156.695024716367
 20
780.183012441026
 30
0.0
  0
VERTEX
  5
420
  8
0
  6
CONTINUOUS
 62
     9
 10
-1156.091522476639
 20
779.8594458091965
 30
0.0
  0
VERTEX
  5
421
  8
0
  6
CONTINUOUS
 62
     9
 10
-1155.436881725482
 20
779.6594374426805
 30
0.0
  0
VERTEX
  5
422
  8
0
  6
CONTINUOUS
 62
     9
 10
-1154.756172561114
 20
779.5906468545526
 30
0.0
  0
SEQEND
  5
67A
  8
0
  6
CONTINUOUS
 62
     9
  0
POLYLINE
  5
10E
  8
0
  6
CONTINUOUS
 62
     9
 66
     1
 10
0.0
 20
0.0
 30
0.0
  0
VERTEX
  5
423
  8
0
  6
CONTINUOUS
 62
     9
 10
-920.2438274388867
 20
779.5906468545527
 30
0.0
  0
VERTEX
  5
424
  8
0
  6
CONTINUOUS
 62
     9
 10
-919.563118274518
 20
779.6594374426807
 30
0.0
  0
VERTEX
  5
425
  8
0
  6
CONTINUOUS
 62
     9
 10
-918.9084775233617
 20
779.8594458091966
 30
0.0
  0
VERTEX
  5
426
  8
0
  6
CONTINUOUS
 62
     9
 10
-918.304975283633
 20
780.183012441026
 30
0.0
  0
VERTEX
  5
427
  8
0
  6
CONTINUOUS
 62
     9
 10
-917.7757232549877
 20
780.6177460422946
 30
0.0
  0
VERTEX
  5
428
  8
0
  6
CONTINUOUS
 62
     9
 10
-917.3409896537192
 20
781.1469980709398
 30
0.0
  0
VERTEX
  5
429
  8
0
  6
CONTINUOUS
 62
     9
 10
-917.0174230218897
 20
781.7505003106685
 30
0.0
  0
VERTEX
  5
42A
  8
0
  6
CONTINUOUS
 62
     9
 10
-916.8174146553738
 20
782.4051410618249
 30
0.0
  0
VERTEX
  5
42B
  8
0
  6
CONTINUOUS
 62
     9
 10
-916.7486240672458
 20
783.0858502261935
 30
0.0
  0
SEQEND
  5
67B
  8
0
  6
CONTINUOUS
 62
     9
  0
POLYLINE
  5
10F
  8
0
  6
CONTINUOUS
 62
     9
 66
     1
 10
0.0
 20
0.0
 30
0.0
  0
VERTEX
  5
42C
  8
0
  6
CONTINUOUS
 62
     9
 10
-1154.756172561114
 20
752.909353145447
 30
0.0
  0
VERTEX
  5
42D
  8
0
  6
CONTINUOUS
 62
     9
 10
-1155.436881725482
 20
752.8405625573189
 30
0.0
  0
VERTEX
  5
42E
  8
0
  6
CONTINUOUS
 62
     9
 10
-1156.091522476639
 20
752.6405541908031
 30
0.0
  0
VERTEX
  5
42F
  8
0
  6
CONTINUOUS
 62
     9
 10
-1156.695024716367
 20
752.3169875589734
 30
0.0
  0
VERTEX
  5
430
  8
0
  6
CONTINUOUS
 62
     9
 10
-1157.224276745013
 20
751.882253957705
 30
0.0
  0
VERTEX
  5
431
  8
0
  6
CONTINUOUS
 62
     9
 10
-1157.659010346281
 20
751.3530019290598
 30
0.0
  0
VERTEX
  5
432
  8
0
  6
CONTINUOUS
 62
     9
 10
-1157.982576978111
 20
750.7494996893312
 30
0.0
  0
VERTEX
  5
433
  8
0
  6
CONTINUOUS
 62
     9
 10
-1158.182585344626
 20
750.0948589381748
 30
0.0
  0
VERTEX
  5
434
  8
0
  6
CONTINUOUS
 62
     9
 10
-1158.251375932755
 20
749.414149773806
 30
0.0
  0
SEQEND
  5
67C
  8
0
  6
CONTINUOUS
 62
     9
  0
POLYLINE
  5
110
  8
0
  6
CONTINUOUS
 62
     9
 66
     1
 10
0.0
 20
0.0
 30
0.0
  0
VERTEX
  5
435
  8
0
  6
CONTINUOUS
 62
     9
 10
-916.7486240672458
 20
749.4141497738061
 30
0.0
  0
VERTEX
  5
436
  8
0
  6
CONTINUOUS
 62
     9
 10
-916.8174146553738
 20
750.0948589381748
 30
0.0
  0
VERTEX
  5
437
  8
0
  6
CONTINUOUS
 62
     9
 10
-917.0174230218897
 20
750.7494996893312
 30
0.0
  0
VERTEX
  5
438
  8
0
  6
CONTINUOUS
 62
     9
 10
-917.3409896537192
 20
751.3530019290598
 30
0.0
  0
VERTEX
  5
439
  8
0
  6
CONTINUOUS
 62
     9
 10
-917.7757232549877
 20
751.8822539577051
 30
0.0
  0
VERTEX
  5
43A
  8
0
  6
CONTINUOUS
 62
     9
 10
-918.304975283633
 20
752.3169875589737
 30
0.0
  0
VERTEX
  5
43B
  8
0
  6
CONTINUOUS
 62
     9
 10
-918.9084775233617
 20
752.6405541908031
 30
0.0
  0
VERTEX
  5
43C
  8
0
  6
CONTINUOUS
 62
     9
 10
-919.563118274518
 20
752.840562557319
 30
0.0
  0
VERTEX
  5
43D
  8
0
  6
CONTINUOUS
 62
     9
 10
-920.2438274388868
 20
752.909353145447
 30
0.0
  0
SEQEND
  5
67D
  8
0
  6
CONTINUOUS
 62
     9
  0
POLYLINE
  5
111
  8
0
  6
CONTINUOUS
 62
     9
 66
     1
 10
0.0
 20
0.0
 30
0.0
  0
VERTEX
  5
43E
  8
0
  6
CONTINUOUS
 62
     9
 10
-1134.009639025301
 20
827.8329069359509
 30
0.0
  0
VERTEX
  5
43F
  8
0
  6
CONTINUOUS
 62
     9
 10
-1135.189488138176
 20
826.3951784871828
 30
0.0
  0
VERTEX
  5
440
  8
0
  6
CONTINUOUS
 62
     9
 10
-1136.066126730753
 20
824.7550960121266
 30
0.0
  0
VERTEX
  5
441
  8
0
  6
CONTINUOUS
 62
     9
 10
-1136.605963077109
 20
822.975505478848
 30
0.0
  0
VERTEX
  5
442
  8
0
  6
CONTINUOUS
 62
     9
 10
-1136.788311304247
 20
821.1245986347287
 30
0.0
  0
SEQEND
  5
67E
  8
0
  6
CONTINUOUS
 62
     9
  0
POLYLINE
  5
112
  8
0
  6
CONTINUOUS
 62
     9
 66
     1
 10
0.0
 20
0.0
 30
0.0
  0
VERTEX
  5
443
  8
0
  6
CONTINUOUS
 62
     9
 10
-982.6254013652712
 20
666.9616886957526
 30
0.0
  0
VERTEX
  5
444
  8
0
  6
CONTINUOUS
 62
     9
 10
-980.7744945211518
 20
667.1440369228908
 30
0.0
  0
VERTEX
  5
445
  8
0
  6
CONTINUOUS
 62
     9
 10
-978.9949039878733
 20
667.683873269247
 30
0.0
  0
VERTEX
  5
446
  8
0
  6
CONTINUOUS
 62
     9
 10
-977.3548215128171
 20
668.5605118618241
 30
0.0
  0
VERTEX
  5
447
  8
0
  6
CONTINUOUS
 62
     9
 10
-975.917093064049
 20
669.7403609746989
 30
0.0
  0
SEQEND
  5
67F
  8
0
  6
CONTINUOUS
 62
     9
  0
POLYLINE
  5
113
  8
0
  6
CONTINUOUS
 62
     9
 66
     1
 10
0.0
 20
0.0
 30
0.0
  0
VERTEX
  5
448
  8
0
  6
CONTINUOUS
 62
     9
 10
-1092.374598634729
 20
865.538311304247
 30
0.0
  0
VERTEX
  5
449
  8
0
  6
CONTINUOUS
 62
     9
 10
-1094.225505478848
 20
865.3559630771089
 30
0.0
  0
VERTEX
  5
44A
  8
0
  6
CONTINUOUS
 62
     9
 10
-1096.005096012127
 20
864.8161267307527
 30
0.0
  0
VERTEX
  5
44B
  8
0
  6
CONTINUOUS
 62
     9
 10
-1097.645178487183
 20
863.9394881381755
 30
0.0
  0
VERTEX
  5
44C
  8
0
  6
CONTINUOUS
 62
     9
 10
-1099.082906935951
 20
862.7596390253008
 30
0.0
  0
SEQEND
  5
680
  8
0
  6
CONTINUOUS
 62
     9
  0
POLYLINE
  5
114
  8
0
  6
CONTINUOUS
 62
     9
 66
     1
 10
0.0
 20
0.0
 30
0.0
  0
VERTEX
  5
44D
  8
0
  6
CONTINUOUS
 62
     9
 10
-975.917093064049
 20
862.7596390253008
 30
0.0
  0
VERTEX
  5
44E
  8
0
  6
CONTINUOUS
 62
     9
 10
-977.3548215128171
 20
863.9394881381755
 30
0.0
  0
VERTEX
  5
44F
  8
0
  6
CONTINUOUS
 62
     9
 10
-978.9949039878733
 20
864.8161267307528
 30
0.0
  0
VERTEX
  5
450
  8
0
  6
CONTINUOUS
 62
     9
 10
-980.7744945211518
 20
865.355963077109
 30
0.0
  0
VERTEX
  5
451
  8
0
  6
CONTINUOUS
 62
     9
 10
-982.6254013652712
 20
865.5383113042471
 30
0.0
  0
SEQEND
  5
681
  8
0
  6
CONTINUOUS
 62
     9
  0
POLYLINE
  5
115
  8
0
  6
CONTINUOUS
 62
     9
 66
     1
 10
0.0
 20
0.0
 30
0.0
  0
VERTEX
  5
452
  8
0
  6
CONTINUOUS
 62
     9
 10
-940.9903609746991
 20
704.6670930640488
 30
0.0
  0
VERTEX
  5
453
  8
0
  6
CONTINUOUS
 62
     9
 10
-939.8105118618245
 20
706.1048215128169
 30
0.0
  0
VERTEX
  5
454
  8
0
  6
CONTINUOUS
 62
     9
 10
-938.9338732692472
 20
707.744903987873
 30
0.0
  0
VERTEX
  5
455
  8
0
  6
CONTINUOUS
 62
     9
 10
-938.394036922891
 20
709.5244945211516
 30
0.0
  0
VERTEX
  5
456
  8
0
  6
CONTINUOUS
 62
     9
 10
-938.2116886957529
 20
711.3754013652709
 30
0.0
  0
SEQEND
  5
682
  8
0
  6
CONTINUOUS
 62
     9
  0
POLYLINE
  5
116
  8
0
  6
CONTINUOUS
 62
     9
 66
     1
 10
0.0
 20
0.0
 30
0.0
  0
VERTEX
  5
457
  8
0
  6
CONTINUOUS
 62
     9
 10
-1136.788311304247
 20
711.375401365271
 30
0.0
  0
VERTEX
  5
458
  8
0
  6
CONTINUOUS
 62
     9
 10
-1136.605963077109
 20
709.5244945211516
 30
0.0
  0
VERTEX
  5
459
  8
0
  6
CONTINUOUS
 62
     9
 10
-1136.066126730753
 20
707.744903987873
 30
0.0
  0
VERTEX
  5
45A
  8
0
  6
CONTINUOUS
 62
     9
 10
-1135.189488138176
 20
706.1048215128169
 30
0.0
  0
VERTEX
  5
45B
  8
0
  6
CONTINUOUS
 62
     9
 10
-1134.009639025301
 20
704.6670930640488
 30
0.0
  0
SEQEND
  5
683
  8
0
  6
CONTINUOUS
 62
     9
  0
POLYLINE
  5
117
  8
0
  6
CONTINUOUS
 62
     9
 66
     1
 10
0.0
 20
0.0
 30
0.0
  0
VERTEX
  5
45C
  8
0
  6
CONTINUOUS
 62
     9
 10
-1099.082906935951
 20
669.7403609746989
 30
0.0
  0
VERTEX
  5
45D
  8
0
  6
CONTINUOUS
 62
     9
 10
-1097.645178487183
 20
668.5605118618241
 30
0.0
  0
VERTEX
  5
45E
  8
0
  6
CONTINUOUS
 62
     9
 10
-1096.005096012127
 20
667.6838732692469
 30
0.0
  0
VERTEX
  5
45F
  8
0
  6
CONTINUOUS
 62
     9
 10
-1094.225505478848
 20
667.1440369228907
 30
0.0
  0
VERTEX
  5
460
  8
0
  6
CONTINUOUS
 62
     9
 10
-1092.374598634729
 20
666.9616886957526
 30
0.0
  0
SEQEND
  5
684
  8
0
  6
CONTINUOUS
 62
     9
  0
POLYLINE
  5
118
  8
0
  6
CONTINUOUS
 62
     9
 66
     1
 10
0.0
 20
0.0
 30
0.0
  0
VERTEX
  5
461
  8
0
  6
CONTINUOUS
 62
     9
 10
-938.2116886957529
 20
821.1245986347286
 30
0.0
  0
VERTEX
  5
462
  8
0
  6
CONTINUOUS
 62
     9
 10
-938.3940369228909
 20
822.975505478848
 30
0.0
  0
VERTEX
  5
463
  8
0
  6
CONTINUOUS
 62
     9
 10
-938.9338732692471
 20
824.7550960121266
 30
0.0
  0
VERTEX
  5
464
  8
0
  6
CONTINUOUS
 62
     9
 10
-939.8105118618244
 20
826.3951784871828
 30
0.0
  0
VERTEX
  5
465
  8
0
  6
CONTINUOUS
 62
     9
 10
-940.9903609746991
 20
827.8329069359509
 30
0.0
  0
SEQEND
  5
685
  8
0
  6
CONTINUOUS
 62
     9
  0
LINE
  5
119
  8
0
  6
CONTINUOUS
 62
     9
 10
-982.6254013652712
 20
865.538311304247
 30
0.0
 11
-1092.374598634729
 21
865.538311304247
 31
0.0
  0
LINE
  5
11A
  8
0
  6
CONTINUOUS
 62
     9
 10
-982.6254013652712
 20
666.9616886957526
 30
0.0
 11
-1092.374598634729
 21
666.9616886957526
 31
0.0
  0
LINE
  5
11B
  8
0
  6
CONTINUOUS
 62
     9
 10
-940.9903609746991
 20
827.8329069359509
 30
0.0
 11
-975.917093064049
 21
862.7596390253008
 31
0.0
  0
LINE
  5
11C
  8
0
  6
CONTINUOUS
 62
     9
 10
-1134.009639025301
 20
827.8329069359509
 30
0.0
 11
-1099.082906935951
 21
862.7596390253008
 31
0.0
  0
LINE
  5
11D
  8
0
  6
CONTINUOUS
 62
     9
 10
-1136.788311304247
 20
711.3754013652709
 30
0.0
 11
-1136.788311304247
 21
821.1245986347287
 31
0.0
  0
LINE
  5
11E
  8
0
  6
CONTINUOUS
 62
     9
 10
-1134.009639025301
 20
704.6670930640487
 30
0.0
 11
-1099.082906935951
 21
669.7403609746989
 31
0.0
  0
LINE
  5
11F
  8
0
  6
CONTINUOUS
 62
     9
 10
-938.2116886957529
 20
711.3754013652709
 30
0.0
 11
-938.2116886957529
 21
821.1245986347287
 31
0.0
  0
LINE
  5
120
  8
0
  6
CONTINUOUS
 62
     9
 10
-940.9903609746991
 20
704.6670930640488
 30
0.0
 11
-975.917093064049
 21
669.7403609746989
 31
0.0
  0
LINE
  5
121
  8
0
  6
CONTINUOUS
 62
     9
 10
-1036.447594101469
 20
771.2989797354168
 30
0.0
 11
-1038.552405898531
 21
771.2989797354168
 31
0.0
  0
POLYLINE
  5
122
  8
0
  6
CONTINUOUS
 62
     9
 66
     1
 10
0.0
 20
0.0
 30
0.0
  0
VERTEX
  5
466
  8
0
  6
CONTINUOUS
 62
     9
 10
-1001.048979735417
 20
763.6975941014692
 30
0.0
  0
VERTEX
  5
467
  8
0
  6
CONTINUOUS
 62
     9
 10
-1001.000323795458
 20
763.2108930753586
 30
0.0
  0
VERTEX
  5
468
  8
0
  6
CONTINUOUS
 62
     9
 10
-1000.85781744283
 20
762.7429357725066
 30
0.0
  0
VERTEX
  5
469
  8
0
  6
CONTINUOUS
 62
     9
 10
-1000.62691809559
 20
762.3116430686333
 30
0.0
  0
VERTEX
  5
46A
  8
0
  6
CONTINUOUS
 62
     9
 10
-1000.316468266679
 20
761.9335317333208
 30
0.0
  0
VERTEX
  5
46B
  8
0
  6
CONTINUOUS
 62
     9
 10
-999.9383569313665
 20
761.6230819044093
 30
0.0
  0
VERTEX
  5
46C
  8
0
  6
CONTINUOUS
 62
     9
 10
-999.5070642274932
 20
761.3921825571695
 30
0.0
  0
VERTEX
  5
46D
  8
0
  6
CONTINUOUS
 62
     9
 10
-999.0391069246411
 20
761.2496762045414
 30
0.0
  0
VERTEX
  5
46E
  8
0
  6
CONTINUOUS
 62
     9
 10
-998.5524058985305
 20
761.2010202645828
 30
0.0
  0
SEQEND
  5
686
  8
0
  6
CONTINUOUS
 62
     9
  0
LINE
  5
123
  8
0
  6
CONTINUOUS
 62
     9
 10
-1034.94759410147
 20
722.7010202645828
 30
0.0
 11
-1040.05240589853
 21
722.7010202645828
 31
0.0
  0
POLYLINE
  5
124
  8
0
  6
CONTINUOUS
 62
     9
 66
     1
 10
0.0
 20
0.0
 30
0.0
  0
VERTEX
  5
46F
  8
0
  6
CONTINUOUS
 62
     9
 10
-1036.44759410147
 20
761.2010202645828
 30
0.0
  0
VERTEX
  5
470
  8
0
  6
CONTINUOUS
 62
     9
 10
-1035.960893075359
 20
761.2496762045414
 30
0.0
  0
VERTEX
  5
471
  8
0
  6
CONTINUOUS
 62
     9
 10
-1035.492935772507
 20
761.3921825571695
 30
0.0
  0
VERTEX
  5
472
  8
0
  6
CONTINUOUS
 62
     9
 10
-1035.061643068634
 20
761.6230819044093
 30
0.0
  0
VERTEX
  5
473
  8
0
  6
CONTINUOUS
 62
     9
 10
-1034.683531733321
 20
761.9335317333208
 30
0.0
  0
VERTEX
  5
474
  8
0
  6
CONTINUOUS
 62
     9
 10
-1034.373081904409
 20
762.3116430686333
 30
0.0
  0
VERTEX
  5
475
  8
0
  6
CONTINUOUS
 62
     9
 10
-1034.14218255717
 20
762.7429357725066
 30
0.0
  0
VERTEX
  5
476
  8
0
  6
CONTINUOUS
 62
     9
 10
-1033.999676204542
 20
763.2108930753586
 30
0.0
  0
VERTEX
  5
477
  8
0
  6
CONTINUOUS
 62
     9
 10
-1033.951020264583
 20
763.6975941014692
 30
0.0
  0
SEQEND
  5
687
  8
0
  6
CONTINUOUS
 62
     9
  0
LINE
  5
125
  8
0
  6
CONTINUOUS
 62
     9
 10
-1036.447594101469
 20
761.2010202645829
 30
0.0
 11
-1038.552405898531
 21
761.2010202645829
 31
0.0
  0
POLYLINE
  5
126
  8
0
  6
CONTINUOUS
 62
     9
 66
     1
 10
0.0
 20
0.0
 30
0.0
  0
VERTEX
  5
478
  8
0
  6
CONTINUOUS
 62
     9
 10
-1073.951020264583
 20
768.8024058985304
 30
0.0
  0
VERTEX
  5
479
  8
0
  6
CONTINUOUS
 62
     9
 10
-1073.999676204542
 20
769.289106924641
 30
0.0
  0
VERTEX
  5
47A
  8
0
  6
CONTINUOUS
 62
     9
 10
-1074.14218255717
 20
769.7570642274931
 30
0.0
  0
VERTEX
  5
47B
  8
0
  6
CONTINUOUS
 62
     9
 10
-1074.37308190441
 20
770.1883569313663
 30
0.0
  0
VERTEX
  5
47C
  8
0
  6
CONTINUOUS
 62
     9
 10
-1074.683531733321
 20
770.5664682666788
 30
0.0
  0
VERTEX
  5
47D
  8
0
  6
CONTINUOUS
 62
     9
 10
-1075.061643068634
 20
770.8769180955903
 30
0.0
  0
VERTEX
  5
47E
  8
0
  6
CONTINUOUS
 62
     9
 10
-1075.492935772507
 20
771.1078174428302
 30
0.0
  0
VERTEX
  5
47F
  8
0
  6
CONTINUOUS
 62
     9
 10
-1075.960893075359
 20
771.2503237954583
 30
0.0
  0
VERTEX
  5
480
  8
0
  6
CONTINUOUS
 62
     9
 10
-1076.44759410147
 20
771.2989797354169
 30
0.0
  0
SEQEND
  5
688
  8
0
  6
CONTINUOUS
 62
     9
  0
POLYLINE
  5
127
  8
0
  6
CONTINUOUS
 62
     9
 66
     1
 10
0.0
 20
0.0
 30
0.0
  0
VERTEX
  5
481
  8
0
  6
CONTINUOUS
 62
     9
 10
-996.4475941014695
 20
761.2010202645829
 30
0.0
  0
VERTEX
  5
482
  8
0
  6
CONTINUOUS
 62
     9
 10
-995.960893075359
 20
761.2496762045414
 30
0.0
  0
VERTEX
  5
483
  8
0
  6
CONTINUOUS
 62
     9
 10
-995.4929357725067
 20
761.3921825571695
 30
0.0
  0
VERTEX
  5
484
  8
0
  6
CONTINUOUS
 62
     9
 10
-995.0616430686335
 20
761.6230819044092
 30
0.0
  0
VERTEX
  5
485
  8
0
  6
CONTINUOUS
 62
     9
 10
-994.683531733321
 20
761.9335317333208
 30
0.0
  0
VERTEX
  5
486
  8
0
  6
CONTINUOUS
 62
     9
 10
-994.3730819044094
 20
762.3116430686333
 30
0.0
  0
VERTEX
  5
487
  8
0
  6
CONTINUOUS
 62
     9
 10
-994.1421825571696
 20
762.7429357725065
 30
0.0
  0
VERTEX
  5
488
  8
0
  6
CONTINUOUS
 62
     9
 10
-993.9996762045416
 20
763.2108930753586
 30
0.0
  0
VERTEX
  5
489
  8
0
  6
CONTINUOUS
 62
     9
 10
-993.9510202645831
 20
763.6975941014692
 30
0.0
  0
SEQEND
  5
689
  8
0
  6
CONTINUOUS
 62
     9
  0
POLYLINE
  5
128
  8
0
  6
CONTINUOUS
 62
     9
 66
     1
 10
0.0
 20
0.0
 30
0.0
  0
VERTEX
  5
48A
  8
0
  6
CONTINUOUS
 62
     9
 10
-1033.951020264583
 20
768.8024058985304
 30
0.0
  0
VERTEX
  5
48B
  8
0
  6
CONTINUOUS
 62
     9
 10
-1033.999676204542
 20
769.289106924641
 30
0.0
  0
VERTEX
  5
48C
  8
0
  6
CONTINUOUS
 62
     9
 10
-1034.14218255717
 20
769.7570642274931
 30
0.0
  0
VERTEX
  5
48D
  8
0
  6
CONTINUOUS
 62
     9
 10
-1034.373081904409
 20
770.1883569313663
 30
0.0
  0
VERTEX
  5
48E
  8
0
  6
CONTINUOUS
 62
     9
 10
-1034.683531733321
 20
770.5664682666788
 30
0.0
  0
VERTEX
  5
48F
  8
0
  6
CONTINUOUS
 62
     9
 10
-1035.061643068634
 20
770.8769180955903
 30
0.0
  0
VERTEX
  5
490
  8
0
  6
CONTINUOUS
 62
     9
 10
-1035.492935772507
 20
771.1078174428302
 30
0.0
  0
VERTEX
  5
491
  8
0
  6
CONTINUOUS
 62
     9
 10
-1035.960893075359
 20
771.2503237954583
 30
0.0
  0
VERTEX
  5
492
  8
0
  6
CONTINUOUS
 62
     9
 10
-1036.44759410147
 20
771.2989797354169
 30
0.0
  0
SEQEND
  5
68A
  8
0
  6
CONTINUOUS
 62
     9
  0
LINE
  5
129
  8
0
  6
CONTINUOUS
 62
     9
 10
-1033.951020264583
 20
763.6975941014693
 30
0.0
 11
-1033.951020264583
 21
768.8024058985304
 31
0.0
  0
LINE
  5
12A
  8
0
  6
CONTINUOUS
 62
     9
 10
-1042.548979735417
 20
805.1975941014692
 30
0.0
 11
-1042.548979735417
 21
807.3024058985304
 31
0.0
  0
LINE
  5
12B
  8
0
  6
CONTINUOUS
 62
     9
 10
-996.4475941014696
 20
761.2010202645829
 30
0.0
 11
-998.5524058985305
 21
761.2010202645829
 31
0.0
  0
LINE
  5
12C
  8
0
  6
CONTINUOUS
 62
     9
 10
-1073.951020264583
 20
768.8024058985304
 30
0.0
 11
-1073.951020264583
 21
763.6975941014693
 31
0.0
  0
LINE
  5
12D
  8
0
  6
CONTINUOUS
 62
     9
 10
-1041.048979735417
 20
763.6975941014693
 30
0.0
 11
-1041.048979735417
 21
768.8024058985304
 31
0.0
  0
POLYLINE
  5
12E
  8
0
  6
CONTINUOUS
 62
     9
 66
     1
 10
0.0
 20
0.0
 30
0.0
  0
VERTEX
  5
493
  8
0
  6
CONTINUOUS
 62
     9
 10
-1081.048979735417
 20
763.6975941014692
 30
0.0
  0
VERTEX
  5
494
  8
0
  6
CONTINUOUS
 62
     9
 10
-1081.000323795458
 20
763.2108930753586
 30
0.0
  0
VERTEX
  5
495
  8
0
  6
CONTINUOUS
 62
     9
 10
-1080.85781744283
 20
762.7429357725065
 30
0.0
  0
VERTEX
  5
496
  8
0
  6
CONTINUOUS
 62
     9
 10
-1080.626918095591
 20
762.3116430686333
 30
0.0
  0
VERTEX
  5
497
  8
0
  6
CONTINUOUS
 62
     9
 10
-1080.316468266679
 20
761.9335317333208
 30
0.0
  0
VERTEX
  5
498
  8
0
  6
CONTINUOUS
 62
     9
 10
-1079.938356931367
 20
761.6230819044092
 30
0.0
  0
VERTEX
  5
499
  8
0
  6
CONTINUOUS
 62
     9
 10
-1079.507064227493
 20
761.3921825571695
 30
0.0
  0
VERTEX
  5
49A
  8
0
  6
CONTINUOUS
 62
     9
 10
-1079.039106924641
 20
761.2496762045414
 30
0.0
  0
VERTEX
  5
49B
  8
0
  6
CONTINUOUS
 62
     9
 10
-1078.55240589853
 20
761.2010202645829
 30
0.0
  0
SEQEND
  5
68B
  8
0
  6
CONTINUOUS
 62
     9
  0
POLYLINE
  5
12F
  8
0
  6
CONTINUOUS
 62
     9
 66
     1
 10
0.0
 20
0.0
 30
0.0
  0
VERTEX
  5
49C
  8
0
  6
CONTINUOUS
 62
     9
 10
-1041.048979735417
 20
763.6975941014692
 30
0.0
  0
VERTEX
  5
49D
  8
0
  6
CONTINUOUS
 62
     9
 10
-1041.000323795458
 20
763.2108930753586
 30
0.0
  0
VERTEX
  5
49E
  8
0
  6
CONTINUOUS
 62
     9
 10
-1040.85781744283
 20
762.7429357725066
 30
0.0
  0
VERTEX
  5
49F
  8
0
  6
CONTINUOUS
 62
     9
 10
-1040.626918095591
 20
762.3116430686333
 30
0.0
  0
VERTEX
  5
4A0
  8
0
  6
CONTINUOUS
 62
     9
 10
-1040.316468266679
 20
761.9335317333208
 30
0.0
  0
VERTEX
  5
4A1
  8
0
  6
CONTINUOUS
 62
     9
 10
-1039.938356931366
 20
761.6230819044093
 30
0.0
  0
VERTEX
  5
4A2
  8
0
  6
CONTINUOUS
 62
     9
 10
-1039.507064227493
 20
761.3921825571695
 30
0.0
  0
VERTEX
  5
4A3
  8
0
  6
CONTINUOUS
 62
     9
 10
-1039.039106924641
 20
761.2496762045414
 30
0.0
  0
VERTEX
  5
4A4
  8
0
  6
CONTINUOUS
 62
     9
 10
-1038.55240589853
 20
761.2010202645828
 30
0.0
  0
SEQEND
  5
68C
  8
0
  6
CONTINUOUS
 62
     9
  0
LINE
  5
130
  8
0
  6
CONTINUOUS
 62
     9
 10
-1040.05240589853
 20
802.7010202645829
 30
0.0
 11
-1034.94759410147
 21
802.7010202645829
 31
0.0
  0
POLYLINE
  5
131
  8
0
  6
CONTINUOUS
 62
     9
 66
     1
 10
0.0
 20
0.0
 30
0.0
  0
VERTEX
  5
4A5
  8
0
  6
CONTINUOUS
 62
     9
 10
-1040.05240589853
 20
809.7989797354169
 30
0.0
  0
VERTEX
  5
4A6
  8
0
  6
CONTINUOUS
 62
     9
 10
-1040.539106924641
 20
809.7503237954583
 30
0.0
  0
VERTEX
  5
4A7
  8
0
  6
CONTINUOUS
 62
     9
 10
-1041.007064227493
 20
809.6078174428303
 30
0.0
  0
VERTEX
  5
4A8
  8
0
  6
CONTINUOUS
 62
     9
 10
-1041.438356931367
 20
809.3769180955904
 30
0.0
  0
VERTEX
  5
4A9
  8
0
  6
CONTINUOUS
 62
     9
 10
-1041.816468266679
 20
809.0664682666788
 30
0.0
  0
VERTEX
  5
4AA
  8
0
  6
CONTINUOUS
 62
     9
 10
-1042.126918095591
 20
808.6883569313663
 30
0.0
  0
VERTEX
  5
4AB
  8
0
  6
CONTINUOUS
 62
     9
 10
-1042.357817442831
 20
808.2570642274932
 30
0.0
  0
VERTEX
  5
4AC
  8
0
  6
CONTINUOUS
 62
     9
 10
-1042.500323795458
 20
807.7891069246409
 30
0.0
  0
VERTEX
  5
4AD
  8
0
  6
CONTINUOUS
 62
     9
 10
-1042.548979735417
 20
807.3024058985304
 30
0.0
  0
SEQEND
  5
68D
  8
0
  6
CONTINUOUS
 62
     9
  0
LINE
  5
132
  8
0
  6
CONTINUOUS
 62
     9
 10
-1032.451020264583
 20
805.1975941014692
 30
0.0
 11
-1032.451020264583
 21
807.3024058985304
 31
0.0
  0
POLYLINE
  5
133
  8
0
  6
CONTINUOUS
 62
     9
 66
     1
 10
0.0
 20
0.0
 30
0.0
  0
VERTEX
  5
4AE
  8
0
  6
CONTINUOUS
 62
     9
 10
-1034.94759410147
 20
722.7010202645829
 30
0.0
  0
VERTEX
  5
4AF
  8
0
  6
CONTINUOUS
 62
     9
 10
-1034.460893075359
 20
722.7496762045415
 30
0.0
  0
VERTEX
  5
4B0
  8
0
  6
CONTINUOUS
 62
     9
 10
-1033.992935772507
 20
722.8921825571695
 30
0.0
  0
VERTEX
  5
4B1
  8
0
  6
CONTINUOUS
 62
     9
 10
-1033.561643068633
 20
723.1230819044093
 30
0.0
  0
VERTEX
  5
4B2
  8
0
  6
CONTINUOUS
 62
     9
 10
-1033.183531733321
 20
723.4335317333209
 30
0.0
  0
VERTEX
  5
4B3
  8
0
  6
CONTINUOUS
 62
     9
 10
-1032.873081904409
 20
723.8116430686334
 30
0.0
  0
VERTEX
  5
4B4
  8
0
  6
CONTINUOUS
 62
     9
 10
-1032.642182557169
 20
724.2429357725066
 30
0.0
  0
VERTEX
  5
4B5
  8
0
  6
CONTINUOUS
 62
     9
 10
-1032.499676204542
 20
724.7108930753589
 30
0.0
  0
VERTEX
  5
4B6
  8
0
  6
CONTINUOUS
 62
     9
 10
-1032.451020264583
 20
725.1975941014693
 30
0.0
  0
SEQEND
  5
68E
  8
0
  6
CONTINUOUS
 62
     9
  0
POLYLINE
  5
134
  8
0
  6
CONTINUOUS
 62
     9
 66
     1
 10
0.0
 20
0.0
 30
0.0
  0
VERTEX
  5
4B7
  8
0
  6
CONTINUOUS
 62
     9
 10
-1032.451020264583
 20
807.3024058985304
 30
0.0
  0
VERTEX
  5
4B8
  8
0
  6
CONTINUOUS
 62
     9
 10
-1032.499676204542
 20
807.7891069246409
 30
0.0
  0
VERTEX
  5
4B9
  8
0
  6
CONTINUOUS
 62
     9
 10
-1032.642182557169
 20
808.2570642274932
 30
0.0
  0
VERTEX
  5
4BA
  8
0
  6
CONTINUOUS
 62
     9
 10
-1032.873081904409
 20
808.6883569313663
 30
0.0
  0
VERTEX
  5
4BB
  8
0
  6
CONTINUOUS
 62
     9
 10
-1033.183531733321
 20
809.0664682666788
 30
0.0
  0
VERTEX
  5
4BC
  8
0
  6
CONTINUOUS
 62
     9
 10
-1033.561643068633
 20
809.3769180955904
 30
0.0
  0
VERTEX
  5
4BD
  8
0
  6
CONTINUOUS
 62
     9
 10
-1033.992935772507
 20
809.6078174428303
 30
0.0
  0
VERTEX
  5
4BE
  8
0
  6
CONTINUOUS
 62
     9
 10
-1034.460893075359
 20
809.7503237954583
 30
0.0
  0
VERTEX
  5
4BF
  8
0
  6
CONTINUOUS
 62
     9
 10
-1034.94759410147
 20
809.7989797354169
 30
0.0
  0
SEQEND
  5
68F
  8
0
  6
CONTINUOUS
 62
     9
  0
LINE
  5
135
  8
0
  6
CONTINUOUS
 62
     9
 10
-1034.94759410147
 20
809.7989797354169
 30
0.0
 11
-1040.05240589853
 21
809.7989797354169
 31
0.0
  0
LINE
  5
136
  8
0
  6
CONTINUOUS
 62
     9
 10
-1001.048979735417
 20
768.8024058985304
 30
0.0
 11
-1001.048979735417
 21
763.6975941014693
 31
0.0
  0
LINE
  5
137
  8
0
  6
CONTINUOUS
 62
     9
 10
-1040.05240589853
 20
729.7989797354169
 30
0.0
 11
-1034.94759410147
 21
729.7989797354169
 31
0.0
  0
POLYLINE
  5
138
  8
0
  6
CONTINUOUS
 62
     9
 66
     1
 10
0.0
 20
0.0
 30
0.0
  0
VERTEX
  5
4C0
  8
0
  6
CONTINUOUS
 62
     9
 10
-1032.451020264583
 20
727.3024058985303
 30
0.0
  0
VERTEX
  5
4C1
  8
0
  6
CONTINUOUS
 62
     9
 10
-1032.499676204542
 20
727.7891069246409
 30
0.0
  0
VERTEX
  5
4C2
  8
0
  6
CONTINUOUS
 62
     9
 10
-1032.64218255717
 20
728.2570642274931
 30
0.0
  0
VERTEX
  5
4C3
  8
0
  6
CONTINUOUS
 62
     9
 10
-1032.873081904409
 20
728.6883569313662
 30
0.0
  0
VERTEX
  5
4C4
  8
0
  6
CONTINUOUS
 62
     9
 10
-1033.183531733321
 20
729.0664682666787
 30
0.0
  0
VERTEX
  5
4C5
  8
0
  6
CONTINUOUS
 62
     9
 10
-1033.561643068634
 20
729.3769180955902
 30
0.0
  0
VERTEX
  5
4C6
  8
0
  6
CONTINUOUS
 62
     9
 10
-1033.992935772507
 20
729.6078174428302
 30
0.0
  0
VERTEX
  5
4C7
  8
0
  6
CONTINUOUS
 62
     9
 10
-1034.460893075359
 20
729.7503237954581
 30
0.0
  0
VERTEX
  5
4C8
  8
0
  6
CONTINUOUS
 62
     9
 10
-1034.94759410147
 20
729.7989797354168
 30
0.0
  0
SEQEND
  5
690
  8
0
  6
CONTINUOUS
 62
     9
  0
LINE
  5
139
  8
0
  6
CONTINUOUS
 62
     9
 10
-1032.451020264583
 20
727.3024058985303
 30
0.0
 11
-1032.451020264583
 21
725.1975941014693
 31
0.0
  0
LINE
  5
13A
  8
0
  6
CONTINUOUS
 62
     9
 10
-993.951020264583
 20
763.6975941014693
 30
0.0
 11
-993.951020264583
 21
768.8024058985304
 31
0.0
  0
LINE
  5
13B
  8
0
  6
CONTINUOUS
 62
     9
 10
-1078.552405898531
 20
761.2010202645829
 30
0.0
 11
-1076.44759410147
 21
761.2010202645829
 31
0.0
  0
LINE
  5
13C
  8
0
  6
CONTINUOUS
 62
     9
 10
-1078.552405898531
 20
771.2989797354168
 30
0.0
 11
-1076.44759410147
 21
771.2989797354168
 31
0.0
  0
POLYLINE
  5
13D
  8
0
  6
CONTINUOUS
 62
     9
 66
     1
 10
0.0
 20
0.0
 30
0.0
  0
VERTEX
  5
4C9
  8
0
  6
CONTINUOUS
 62
     9
 10
-1078.55240589853
 20
771.2989797354168
 30
0.0
  0
VERTEX
  5
4CA
  8
0
  6
CONTINUOUS
 62
     9
 10
-1079.039106924641
 20
771.2503237954583
 30
0.0
  0
VERTEX
  5
4CB
  8
0
  6
CONTINUOUS
 62
     9
 10
-1079.507064227493
 20
771.1078174428302
 30
0.0
  0
VERTEX
  5
4CC
  8
0
  6
CONTINUOUS
 62
     9
 10
-1079.938356931367
 20
770.8769180955904
 30
0.0
  0
VERTEX
  5
4CD
  8
0
  6
CONTINUOUS
 62
     9
 10
-1080.316468266679
 20
770.5664682666788
 30
0.0
  0
VERTEX
  5
4CE
  8
0
  6
CONTINUOUS
 62
     9
 10
-1080.626918095591
 20
770.1883569313663
 30
0.0
  0
VERTEX
  5
4CF
  8
0
  6
CONTINUOUS
 62
     9
 10
-1080.85781744283
 20
769.7570642274932
 30
0.0
  0
VERTEX
  5
4D0
  8
0
  6
CONTINUOUS
 62
     9
 10
-1081.000323795458
 20
769.289106924641
 30
0.0
  0
VERTEX
  5
4D1
  8
0
  6
CONTINUOUS
 62
     9
 10
-1081.048979735417
 20
768.8024058985304
 30
0.0
  0
SEQEND
  5
691
  8
0
  6
CONTINUOUS
 62
     9
  0
LINE
  5
13E
  8
0
  6
CONTINUOUS
 62
     9
 10
-1081.048979735417
 20
763.6975941014693
 30
0.0
 11
-1081.048979735417
 21
768.8024058985304
 31
0.0
  0
POLYLINE
  5
13F
  8
0
  6
CONTINUOUS
 62
     9
 66
     1
 10
0.0
 20
0.0
 30
0.0
  0
VERTEX
  5
4D2
  8
0
  6
CONTINUOUS
 62
     9
 10
-1034.94759410147
 20
802.7010202645828
 30
0.0
  0
VERTEX
  5
4D3
  8
0
  6
CONTINUOUS
 62
     9
 10
-1034.460893075359
 20
802.7496762045414
 30
0.0
  0
VERTEX
  5
4D4
  8
0
  6
CONTINUOUS
 62
     9
 10
-1033.992935772507
 20
802.8921825571693
 30
0.0
  0
VERTEX
  5
4D5
  8
0
  6
CONTINUOUS
 62
     9
 10
-1033.561643068634
 20
803.1230819044093
 30
0.0
  0
VERTEX
  5
4D6
  8
0
  6
CONTINUOUS
 62
     9
 10
-1033.183531733321
 20
803.4335317333208
 30
0.0
  0
VERTEX
  5
4D7
  8
0
  6
CONTINUOUS
 62
     9
 10
-1032.873081904409
 20
803.8116430686333
 30
0.0
  0
VERTEX
  5
4D8
  8
0
  6
CONTINUOUS
 62
     9
 10
-1032.64218255717
 20
804.2429357725065
 30
0.0
  0
VERTEX
  5
4D9
  8
0
  6
CONTINUOUS
 62
     9
 10
-1032.499676204542
 20
804.7108930753586
 30
0.0
  0
VERTEX
  5
4DA
  8
0
  6
CONTINUOUS
 62
     9
 10
-1032.451020264583
 20
805.1975941014692
 30
0.0
  0
SEQEND
  5
692
  8
0
  6
CONTINUOUS
 62
     9
  0
POLYLINE
  5
140
  8
0
  6
CONTINUOUS
 62
     9
 66
     1
 10
0.0
 20
0.0
 30
0.0
  0
VERTEX
  5
4DB
  8
0
  6
CONTINUOUS
 62
     9
 10
-1076.44759410147
 20
761.2010202645828
 30
0.0
  0
VERTEX
  5
4DC
  8
0
  6
CONTINUOUS
 62
     9
 10
-1075.960893075359
 20
761.2496762045414
 30
0.0
  0
VERTEX
  5
4DD
  8
0
  6
CONTINUOUS
 62
     9
 10
-1075.492935772507
 20
761.3921825571695
 30
0.0
  0
VERTEX
  5
4DE
  8
0
  6
CONTINUOUS
 62
     9
 10
-1075.061643068634
 20
761.6230819044093
 30
0.0
  0
VERTEX
  5
4DF
  8
0
  6
CONTINUOUS
 62
     9
 10
-1074.683531733321
 20
761.9335317333208
 30
0.0
  0
VERTEX
  5
4E0
  8
0
  6
CONTINUOUS
 62
     9
 10
-1074.37308190441
 20
762.3116430686333
 30
0.0
  0
VERTEX
  5
4E1
  8
0
  6
CONTINUOUS
 62
     9
 10
-1074.14218255717
 20
762.7429357725066
 30
0.0
  0
VERTEX
  5
4E2
  8
0
  6
CONTINUOUS
 62
     9
 10
-1073.999676204542
 20
763.2108930753586
 30
0.0
  0
VERTEX
  5
4E3
  8
0
  6
CONTINUOUS
 62
     9
 10
-1073.951020264583
 20
763.6975941014692
 30
0.0
  0
SEQEND
  5
693
  8
0
  6
CONTINUOUS
 62
     9
  0
POLYLINE
  5
141
  8
0
  6
CONTINUOUS
 62
     9
 66
     1
 10
0.0
 20
0.0
 30
0.0
  0
VERTEX
  5
4E4
  8
0
  6
CONTINUOUS
 62
     9
 10
-1042.548979735417
 20
725.1975941014693
 30
0.0
  0
VERTEX
  5
4E5
  8
0
  6
CONTINUOUS
 62
     9
 10
-1042.500323795458
 20
724.7108930753589
 30
0.0
  0
VERTEX
  5
4E6
  8
0
  6
CONTINUOUS
 62
     9
 10
-1042.357817442831
 20
724.2429357725066
 30
0.0
  0
VERTEX
  5
4E7
  8
0
  6
CONTINUOUS
 62
     9
 10
-1042.126918095591
 20
723.8116430686334
 30
0.0
  0
VERTEX
  5
4E8
  8
0
  6
CONTINUOUS
 62
     9
 10
-1041.816468266679
 20
723.4335317333209
 30
0.0
  0
VERTEX
  5
4E9
  8
0
  6
CONTINUOUS
 62
     9
 10
-1041.438356931367
 20
723.1230819044093
 30
0.0
  0
VERTEX
  5
4EA
  8
0
  6
CONTINUOUS
 62
     9
 10
-1041.007064227493
 20
722.8921825571695
 30
0.0
  0
VERTEX
  5
4EB
  8
0
  6
CONTINUOUS
 62
     9
 10
-1040.539106924641
 20
722.7496762045415
 30
0.0
  0
VERTEX
  5
4EC
  8
0
  6
CONTINUOUS
 62
     9
 10
-1040.05240589853
 20
722.7010202645829
 30
0.0
  0
SEQEND
  5
694
  8
0
  6
CONTINUOUS
 62
     9
  0
POLYLINE
  5
142
  8
0
  6
CONTINUOUS
 62
     9
 66
     1
 10
0.0
 20
0.0
 30
0.0
  0
VERTEX
  5
4ED
  8
0
  6
CONTINUOUS
 62
     9
 10
-1040.05240589853
 20
729.7989797354168
 30
0.0
  0
VERTEX
  5
4EE
  8
0
  6
CONTINUOUS
 62
     9
 10
-1040.539106924641
 20
729.7503237954581
 30
0.0
  0
VERTEX
  5
4EF
  8
0
  6
CONTINUOUS
 62
     9
 10
-1041.007064227493
 20
729.6078174428302
 30
0.0
  0
VERTEX
  5
4F0
  8
0
  6
CONTINUOUS
 62
     9
 10
-1041.438356931366
 20
729.3769180955902
 30
0.0
  0
VERTEX
  5
4F1
  8
0
  6
CONTINUOUS
 62
     9
 10
-1041.816468266679
 20
729.0664682666787
 30
0.0
  0
VERTEX
  5
4F2
  8
0
  6
CONTINUOUS
 62
     9
 10
-1042.126918095591
 20
728.6883569313662
 30
0.0
  0
VERTEX
  5
4F3
  8
0
  6
CONTINUOUS
 62
     9
 10
-1042.35781744283
 20
728.2570642274931
 30
0.0
  0
VERTEX
  5
4F4
  8
0
  6
CONTINUOUS
 62
     9
 10
-1042.500323795458
 20
727.7891069246409
 30
0.0
  0
VERTEX
  5
4F5
  8
0
  6
CONTINUOUS
 62
     9
 10
-1042.548979735417
 20
727.3024058985303
 30
0.0
  0
SEQEND
  5
695
  8
0
  6
CONTINUOUS
 62
     9
  0
LINE
  5
143
  8
0
  6
CONTINUOUS
 62
     9
 10
-1042.548979735417
 20
727.3024058985303
 30
0.0
 11
-1042.548979735417
 21
725.1975941014693
 31
0.0
  0
POLYLINE
  5
144
  8
0
  6
CONTINUOUS
 62
     9
 66
     1
 10
0.0
 20
0.0
 30
0.0
  0
VERTEX
  5
4F6
  8
0
  6
CONTINUOUS
 62
     9
 10
-998.5524058985305
 20
771.2989797354169
 30
0.0
  0
VERTEX
  5
4F7
  8
0
  6
CONTINUOUS
 62
     9
 10
-999.0391069246411
 20
771.2503237954583
 30
0.0
  0
VERTEX
  5
4F8
  8
0
  6
CONTINUOUS
 62
     9
 10
-999.5070642274932
 20
771.1078174428302
 30
0.0
  0
VERTEX
  5
4F9
  8
0
  6
CONTINUOUS
 62
     9
 10
-999.9383569313665
 20
770.8769180955903
 30
0.0
  0
VERTEX
  5
4FA
  8
0
  6
CONTINUOUS
 62
     9
 10
-1000.316468266679
 20
770.5664682666788
 30
0.0
  0
VERTEX
  5
4FB
  8
0
  6
CONTINUOUS
 62
     9
 10
-1000.62691809559
 20
770.1883569313663
 30
0.0
  0
VERTEX
  5
4FC
  8
0
  6
CONTINUOUS
 62
     9
 10
-1000.85781744283
 20
769.7570642274931
 30
0.0
  0
VERTEX
  5
4FD
  8
0
  6
CONTINUOUS
 62
     9
 10
-1001.000323795458
 20
769.289106924641
 30
0.0
  0
VERTEX
  5
4FE
  8
0
  6
CONTINUOUS
 62
     9
 10
-1001.048979735417
 20
768.8024058985304
 30
0.0
  0
SEQEND
  5
696
  8
0
  6
CONTINUOUS
 62
     9
  0
POLYLINE
  5
145
  8
0
  6
CONTINUOUS
 62
     9
 66
     1
 10
0.0
 20
0.0
 30
0.0
  0
VERTEX
  5
4FF
  8
0
  6
CONTINUOUS
 62
     9
 10
-1038.55240589853
 20
771.2989797354169
 30
0.0
  0
VERTEX
  5
500
  8
0
  6
CONTINUOUS
 62
     9
 10
-1039.039106924641
 20
771.2503237954583
 30
0.0
  0
VERTEX
  5
501
  8
0
  6
CONTINUOUS
 62
     9
 10
-1039.507064227493
 20
771.1078174428302
 30
0.0
  0
VERTEX
  5
502
  8
0
  6
CONTINUOUS
 62
     9
 10
-1039.938356931366
 20
770.8769180955903
 30
0.0
  0
VERTEX
  5
503
  8
0
  6
CONTINUOUS
 62
     9
 10
-1040.316468266679
 20
770.5664682666788
 30
0.0
  0
VERTEX
  5
504
  8
0
  6
CONTINUOUS
 62
     9
 10
-1040.626918095591
 20
770.1883569313663
 30
0.0
  0
VERTEX
  5
505
  8
0
  6
CONTINUOUS
 62
     9
 10
-1040.85781744283
 20
769.7570642274931
 30
0.0
  0
VERTEX
  5
506
  8
0
  6
CONTINUOUS
 62
     9
 10
-1041.000323795458
 20
769.289106924641
 30
0.0
  0
VERTEX
  5
507
  8
0
  6
CONTINUOUS
 62
     9
 10
-1041.048979735417
 20
768.8024058985304
 30
0.0
  0
SEQEND
  5
697
  8
0
  6
CONTINUOUS
 62
     9
  0
POLYLINE
  5
146
  8
0
  6
CONTINUOUS
 62
     9
 66
     1
 10
0.0
 20
0.0
 30
0.0
  0
VERTEX
  5
508
  8
0
  6
CONTINUOUS
 62
     9
 10
-993.9510202645831
 20
768.8024058985304
 30
0.0
  0
VERTEX
  5
509
  8
0
  6
CONTINUOUS
 62
     9
 10
-993.9996762045416
 20
769.289106924641
 30
0.0
  0
VERTEX
  5
50A
  8
0
  6
CONTINUOUS
 62
     9
 10
-994.1421825571696
 20
769.7570642274932
 30
0.0
  0
VERTEX
  5
50B
  8
0
  6
CONTINUOUS
 62
     9
 10
-994.3730819044094
 20
770.1883569313663
 30
0.0
  0
VERTEX
  5
50C
  8
0
  6
CONTINUOUS
 62
     9
 10
-994.683531733321
 20
770.5664682666788
 30
0.0
  0
VERTEX
  5
50D
  8
0
  6
CONTINUOUS
 62
     9
 10
-995.0616430686335
 20
770.8769180955904
 30
0.0
  0
VERTEX
  5
50E
  8
0
  6
CONTINUOUS
 62
     9
 10
-995.4929357725067
 20
771.1078174428302
 30
0.0
  0
VERTEX
  5
50F
  8
0
  6
CONTINUOUS
 62
     9
 10
-995.960893075359
 20
771.2503237954583
 30
0.0
  0
VERTEX
  5
510
  8
0
  6
CONTINUOUS
 62
     9
 10
-996.4475941014695
 20
771.2989797354168
 30
0.0
  0
SEQEND
  5
698
  8
0
  6
CONTINUOUS
 62
     9
  0
LINE
  5
147
  8
0
  6
CONTINUOUS
 62
     9
 10
-996.4475941014696
 20
771.2989797354168
 30
0.0
 11
-998.5524058985305
 21
771.2989797354168
 31
0.0
  0
POLYLINE
  5
148
  8
0
  6
CONTINUOUS
 62
     9
 66
     1
 10
0.0
 20
0.0
 30
0.0
  0
VERTEX
  5
511
  8
0
  6
CONTINUOUS
 62
     9
 10
-1042.548979735417
 20
805.1975941014692
 30
0.0
  0
VERTEX
  5
512
  8
0
  6
CONTINUOUS
 62
     9
 10
-1042.500323795458
 20
804.7108930753586
 30
0.0
  0
VERTEX
  5
513
  8
0
  6
CONTINUOUS
 62
     9
 10
-1042.35781744283
 20
804.2429357725065
 30
0.0
  0
VERTEX
  5
514
  8
0
  6
CONTINUOUS
 62
     9
 10
-1042.126918095591
 20
803.8116430686333
 30
0.0
  0
VERTEX
  5
515
  8
0
  6
CONTINUOUS
 62
     9
 10
-1041.816468266679
 20
803.4335317333208
 30
0.0
  0
VERTEX
  5
516
  8
0
  6
CONTINUOUS
 62
     9
 10
-1041.438356931366
 20
803.1230819044093
 30
0.0
  0
VERTEX
  5
517
  8
0
  6
CONTINUOUS
 62
     9
 10
-1041.007064227493
 20
802.8921825571693
 30
0.0
  0
VERTEX
  5
518
  8
0
  6
CONTINUOUS
 62
     9
 10
-1040.539106924641
 20
802.7496762045414
 30
0.0
  0
VERTEX
  5
519
  8
0
  6
CONTINUOUS
 62
     9
 10
-1040.05240589853
 20
802.7010202645828
 30
0.0
  0
SEQEND
  5
699
  8
0
  6
CONTINUOUS
 62
     9
  0
CIRCLE
  5
149
  8
0
  6
CONTINUOUS
 62
     9
 10
-1037.5
 20
766.2499999999999
 30
0.0
 40
74.28831130424717
  0
CIRCLE
  5
14A
  8
0
  6
CONTINUOUS
 62
     9
 10
-1037.5
 20
806.2499999999999
 30
0.0
 40
10.52551771664256
  0
CIRCLE
  5
14B
  8
0
  6
CONTINUOUS
 62
     9
 10
-997.5
 20
766.2499999999999
 30
0.0
 40
10.52551771664256
  0
CIRCLE
  5
14C
  8
0
  6
CONTINUOUS
 62
     9
 10
-1077.5
 20
766.2499999999999
 30
0.0
 40
10.52551771664256
  0
CIRCLE
  5
14D
  8
0
  6
CONTINUOUS
 62
     9
 10
-1037.5
 20
766.2499999999999
 30
0.0
 40
10.52551771664256
  0
CIRCLE
  5
14E
  8
0
  6
CONTINUOUS
 62
     9
 10
-1037.5
 20
726.2499999999998
 30
0.0
 40
10.52551771664256
  0
LINE
  5
14F
  8
0
  6
CONTINUOUS
 62
     7
 10
-1158.918868107395
 20
841.1407645365836
 30
0.0
 11
-1158.89076465977
 21
841.1430969967579
 31
0.0
  0
ENDBLK
  8
0
  0
BLOCK
  8
0
  2
D_FRAME_VIEW_4144
 70
     0
 10
0.0
 20
0.0
 30
0.0
  0
LINE
  5
15C
  8
0
  6
CONTINUOUS
 62
     7
 10
-800.0000000000002
 20
620.7499999999999
 30
0.0
 11
-800.0000000000002
 21
766.2499999999999
 31
0.0
  0
LINE
  5
15D
  8
0
  6
CONTINUOUS
 62
     7
 10
-800.0000000000002
 20
766.2499999999999
 30
0.0
 11
-800.0000000000002
 21
911.7499999999999
 31
0.0
  0
LINE
  5
15E
  8
0
  6
CONTINUOUS
 62
     7
 10
-799.5000000000003
 20
620.7499999999999
 30
0.0
 11
-799.5000000000002
 21
911.7499999999999
 31
0.0
  0
LINE
  5
15F
  8
0
  6
CONTINUOUS
 62
     7
 10
-800.0000000000002
 20
600.7499999999999
 30
0.0
 11
-799.5000000000003
 21
600.7499999999999
 31
0.0
  0
LINE
  5
160
  8
0
  6
CONTINUOUS
 62
     7
 10
-800.0000000000002
 20
620.7499999999999
 30
0.0
 11
-800.0000000000002
 21
600.7499999999999
 31
0.0
  0
LINE
  5
161
  8
0
  6
CONTINUOUS
 62
     7
 10
-799.5000000000003
 20
600.7499999999999
 30
0.0
 11
-799.5000000000002
 21
620.7499999999999
 31
0.0
  0
LINE
  5
162
  8
0
  6
CONTINUOUS
 62
     7
 10
-800.0000000000002
 20
931.7499999999999
 30
0.0
 11
-799.5000000000002
 21
931.7499999999999
 31
0.0
  0
LINE
  5
163
  8
0
  6
CONTINUOUS
 62
     7
 10
-800.0000000000002
 20
911.7499999999999
 30
0.0
 11
-800.0000000000002
 21
931.7499999999999
 31
0.0
  0
LINE
  5
164
  8
0
  6
CONTINUOUS
 62
     7
 10
-799.5000000000002
 20
931.7499999999999
 30
0.0
 11
-799.5000000000002
 21
911.7499999999999
 31
0.0
  0
ARC
  5
165
  8
0
  6
CONTINUOUS
 62
     7
 10
-799.0000000000002
 20
759.2244822833572
 30
0.0
 40
0.4999999999999449
 50
180.0
 51
266.9999999999999
  0
ARC
  5
166
  8
0
  6
CONTINUOUS
 62
     7
 10
-799.0000000000002
 20
877.2244822833574
 30
0.0
 40
0.4999999999999449
 50
180.0
 51
266.9999999999997
  0
ARC
  5
167
  8
0
  6
CONTINUOUS
 62
     7
 10
-799.0000000000002
 20
773.2755177166425
 30
0.0
 40
0.4999999999999449
 50
92.99999999999999
 51
180.0
  0
ARC
  5
168
  8
0
  6
CONTINUOUS
 62
     7
 10
-799.0000000000002
 20
655.2755177166425
 30
0.0
 40
0.4999999999999449
 50
93.00000000000033
 51
180.0
  0
LINE
  5
169
  8
0
  6
CONTINUOUS
 62
     7
 10
-774.412839304144
 20
757.4352376194132
 30
0.0
 11
-799.0261679781217
 21
758.72516751598
 31
0.0
  0
LINE
  5
16A
  8
0
  6
CONTINUOUS
 62
     7
 10
-774.4128393041448
 20
757.4352376194133
 30
0.0
 11
-774.3895350949339
 21
757.3143929755302
 31
0.0
  0
ARC
  5
16B
  8
0
  6
CONTINUOUS
 62
     7
 10
-831.2271218568987
 20
756.9974963727472
 30
0.0
 40
56.83847017980633
 50
356.4168630264831
 51
0.3194479354005466
  0
ARC
  5
16C
  8
0
  6
CONTINUOUS
 62
     7
 10
-822.1069437293211
 20
874.6047881920489
 30
0.0
 40
47.71190968389321
 50
356.2030581721169
 51
0.973539991885275
  0
LINE
  5
16D
  8
0
  6
CONTINUOUS
 62
     7
 10
-774.4019213403988
 20
875.4154450592854
 30
0.0
 11
-774.4128393041439
 21
875.4352376194132
 31
0.0
  0
LINE
  5
16E
  8
0
  6
CONTINUOUS
 62
     7
 10
-774.4997614843325
 20
871.4452748788291
 30
0.0
 11
-774.5000000000002
 21
871.4361454873174
 31
0.0
  0
LINE
  5
16F
  8
0
  6
CONTINUOUS
 62
     7
 10
-799.0261679781217
 20
876.72516751598
 30
0.0
 11
-774.4128393041439
 21
875.4352376194132
 31
0.0
  0
LINE
  5
170
  8
0
  6
CONTINUOUS
 62
     7
 10
-774.5000000000002
 20
661.0638545126825
 30
0.0
 11
-774.4997614843325
 21
661.0547251211708
 31
0.0
  0
ARC
  5
171
  8
0
  6
CONTINUOUS
 62
     7
 10
-822.1069437292487
 20
657.895211807954
 30
0.0
 40
47.71190968382066
 50
359.0264600081095
 51
3.796941827885064
  0
LINE
  5
172
  8
0
  6
CONTINUOUS
 62
     7
 10
-774.4019213403989
 20
657.0845549407144
 30
0.0
 11
-774.4128393041439
 21
657.0647623805866
 31
0.0
  0
LINE
  5
173
  8
0
  6
CONTINUOUS
 62
     7
 10
-799.0261679781217
 20
655.7748324840197
 30
0.0
 11
-774.4128393041439
 21
657.0647623805866
 31
0.0
  0
LINE
  5
174
  8
0
  6
CONTINUOUS
 62
     7
 10
-774.5000000000005
 20
779.0638545126823
 30
0.0
 11
-774.4997614843326
 21
779.0547251211708
 31
0.0
  0
LINE
  5
175
  8
0
  6
CONTINUOUS
 62
     7
 10
-774.4128393041448
 20
775.0647623805866
 30
0.0
 11
-774.3895350949339
 21
775.1856070244696
 31
0.0
  0
ARC
  5
176
  8
0
  6
CONTINUOUS
 62
     7
 10
-831.227121856904
 20
775.5025036272526
 30
0.0
 40
56.83847017981156
 50
359.6805520645995
 51
3.583136973517015
  0
LINE
  5
177
  8
0
  6
CONTINUOUS
 62
     7
 10
-774.412839304144
 20
775.0647623805866
 30
0.0
 11
-799.0261679781217
 21
773.7748324840197
 31
0.0
  0
LINE
  5
178
  8
0
  6
CONTINUOUS
 62
     7
 10
-774.5000000000003
 20
753.4361454873175
 30
0.0
 11
-774.5000000000003
 21
661.0638545126825
 31
0.0
  0
LINE
  5
179
  8
0
  6
CONTINUOUS
 62
     7
 10
-774.5000000000003
 20
779.0638545126823
 30
0.0
 11
-774.5000000000003
 21
871.4361454873174
 31
0.0
  0
LINE
  5
17A
  8
0
  6
CONTINUOUS
 62
     7
 10
-697.5813123500567
 20
779.0913320871754
 30
0.0
 11
-774.412839304144
 21
775.0647623805866
 31
0.0
  0
LINE
  5
17B
  8
0
  6
CONTINUOUS
 62
     7
 10
-697.5813123500567
 20
753.4086679128244
 30
0.0
 11
-774.412839304144
 21
757.4352376194132
 31
0.0
  0
LINE
  5
17C
  8
0
  6
CONTINUOUS
 62
     7
 10
-774.4128393041439
 20
657.0647623805866
 30
0.0
 11
-697.5813123500567
 21
661.0913320871753
 31
0.0
  0
LINE
  5
17D
  8
0
  6
CONTINUOUS
 62
     7
 10
-774.4128393041439
 20
875.4352376194132
 30
0.0
 11
-697.5813123500567
 21
871.4086679128244
 31
0.0
  0
LINE
  5
17E
  8
0
  6
CONTINUOUS
 62
     7
 10
-789.5000000000002
 20
769.6014034560442
 30
0.0
 11
-789.5000000000002
 21
762.8985965439556
 31
0.0
  0
CIRCLE
  5
17F
  8
0
  6
CONTINUOUS
 62
     9
 10
-739.9820600034978
 20
726.2471674978641
 30
0.0
 40
11.02067912760044
  0
CIRCLE
  5
180
  8
0
  6
CONTINUOUS
 62
     9
 10
-739.9820600034978
 20
806.2528325021357
 30
0.0
 40
11.02067912760044
  0
CIRCLE
  5
181
  8
0
  6
CONTINUOUS
 62
     9
 10
-739.9820600034976
 20
686.2471674978618
 30
0.0
 40
11.02067912760033
  0
CIRCLE
  5
182
  8
0
  6
CONTINUOUS
 62
     9
 10
-739.9820600034976
 20
846.252832502138
 30
0.0
 40
11.02067912760033
  0
POLYLINE
  5
183
  8
0
  6
CONTINUOUS
 62
     9
 66
     1
 10
0.0
 20
0.0
 30
0.0
  0
VERTEX
  5
51C
  8
0
  6
CONTINUOUS
 62
     9
 10
-741.110728467795
 20
690.8575583698093
 30
0.0
  0
VERTEX
  5
51D
  8
0
  6
CONTINUOUS
 62
     9
 10
-741.5019721562859
 20
690.8203527279197
 30
0.0
  0
VERTEX
  5
51E
  8
0
  6
CONTINUOUS
 62
     9
 10
-741.8777603993179
 20
690.7080313851714
 30
0.0
  0
VERTEX
  5
51F
  8
0
  6
CONTINUOUS
 62
     9
 10
-742.2237519595893
 20
690.524880870109
 30
0.0
  0
VERTEX
  5
520
  8
0
  6
CONTINUOUS
 62
     9
 10
-742.5267427330278
 20
690.277890770744
 30
0.0
  0
VERTEX
  5
521
  8
0
  6
CONTINUOUS
 62
     9
 10
-742.7751696580888
 20
689.976486990339
 30
0.0
  0
VERTEX
  5
522
  8
0
  6
CONTINUOUS
 62
     9
 10
-742.9595519978132
 20
689.6321720258949
 30
0.0
  0
VERTEX
  5
523
  8
0
  6
CONTINUOUS
 62
     9
 10
-743.0728531539646
 20
689.2580859974207
 30
0.0
  0
VERTEX
  5
524
  8
0
  6
CONTINUOUS
 62
     9
 10
-743.1107492053004
 20
688.8685051804654
 30
0.0
  0
SEQEND
  5
69A
  8
0
  6
CONTINUOUS
 62
     9
  0
POLYLINE
  5
184
  8
0
  6
CONTINUOUS
 62
     9
 66
     1
 10
0.0
 20
0.0
 30
0.0
  0
VERTEX
  5
525
  8
0
  6
CONTINUOUS
 62
     9
 10
-741.110728467795
 20
730.8575583698093
 30
0.0
  0
VERTEX
  5
526
  8
0
  6
CONTINUOUS
 62
     9
 10
-741.5019721562859
 20
730.8203527279197
 30
0.0
  0
VERTEX
  5
527
  8
0
  6
CONTINUOUS
 62
     9
 10
-741.8777603993179
 20
730.7080313851714
 30
0.0
  0
VERTEX
  5
528
  8
0
  6
CONTINUOUS
 62
     9
 10
-742.2237519595893
 20
730.524880870109
 30
0.0
  0
VERTEX
  5
529
  8
0
  6
CONTINUOUS
 62
     9
 10
-742.5267427330278
 20
730.277890770744
 30
0.0
  0
VERTEX
  5
52A
  8
0
  6
CONTINUOUS
 62
     9
 10
-742.7751696580888
 20
729.976486990339
 30
0.0
  0
VERTEX
  5
52B
  8
0
  6
CONTINUOUS
 62
     9
 10
-742.9595519978132
 20
729.6321720258949
 30
0.0
  0
VERTEX
  5
52C
  8
0
  6
CONTINUOUS
 62
     9
 10
-743.0728531539646
 20
729.2580859974207
 30
0.0
  0
VERTEX
  5
52D
  8
0
  6
CONTINUOUS
 62
     9
 10
-743.1107492053004
 20
728.8685051804654
 30
0.0
  0
SEQEND
  5
69B
  8
0
  6
CONTINUOUS
 62
     9
  0
LINE
  5
185
  8
0
  6
CONTINUOUS
 62
     9
 10
-743.1107492053003
 20
683.6314948195345
 30
0.0
 11
-743.1107492053003
 21
688.8685051804653
 31
0.0
  0
POLYLINE
  5
186
  8
0
  6
CONTINUOUS
 62
     9
 66
     1
 10
0.0
 20
0.0
 30
0.0
  0
VERTEX
  5
52E
  8
0
  6
CONTINUOUS
 62
     9
 10
-743.1107492053004
 20
803.6314948195345
 30
0.0
  0
VERTEX
  5
52F
  8
0
  6
CONTINUOUS
 62
     9
 10
-743.0728531539646
 20
803.2419140025792
 30
0.0
  0
VERTEX
  5
530
  8
0
  6
CONTINUOUS
 62
     9
 10
-742.9595519978132
 20
802.867827974105
 30
0.0
  0
VERTEX
  5
531
  8
0
  6
CONTINUOUS
 62
     9
 10
-742.7751696580888
 20
802.5235130096609
 30
0.0
  0
VERTEX
  5
532
  8
0
  6
CONTINUOUS
 62
     9
 10
-742.5267427330278
 20
802.2221092292559
 30
0.0
  0
VERTEX
  5
533
  8
0
  6
CONTINUOUS
 62
     9
 10
-742.2237519595893
 20
801.9751191298909
 30
0.0
  0
VERTEX
  5
534
  8
0
  6
CONTINUOUS
 62
     9
 10
-741.8777603993179
 20
801.7919686148284
 30
0.0
  0
VERTEX
  5
535
  8
0
  6
CONTINUOUS
 62
     9
 10
-741.5019721562859
 20
801.6796472720802
 30
0.0
  0
VERTEX
  5
536
  8
0
  6
CONTINUOUS
 62
     9
 10
-741.110728467795
 20
801.6424416301905
 30
0.0
  0
SEQEND
  5
69C
  8
0
  6
CONTINUOUS
 62
     9
  0
LINE
  5
187
  8
0
  6
CONTINUOUS
 62
     9
 10
-743.1107492053003
 20
723.6314948195345
 30
0.0
 11
-743.1107492053003
 21
728.8685051804653
 31
0.0
  0
LINE
  5
188
  8
0
  6
CONTINUOUS
 62
     9
 10
-743.1107492053003
 20
808.8685051804653
 30
0.0
 11
-743.1107492053003
 21
803.6314948195344
 31
0.0
  0
POLYLINE
  5
189
  8
0
  6
CONTINUOUS
 62
     9
 66
     1
 10
0.0
 20
0.0
 30
0.0
  0
VERTEX
  5
537
  8
0
  6
CONTINUOUS
 62
     9
 10
-743.1107492053002
 20
683.6314948195346
 30
0.0
  0
VERTEX
  5
538
  8
0
  6
CONTINUOUS
 62
     9
 10
-743.0728531539645
 20
683.2419140025793
 30
0.0
  0
VERTEX
  5
539
  8
0
  6
CONTINUOUS
 62
     9
 10
-742.959551997813
 20
682.8678279741051
 30
0.0
  0
VERTEX
  5
53A
  8
0
  6
CONTINUOUS
 62
     9
 10
-742.7751696580885
 20
682.523513009661
 30
0.0
  0
VERTEX
  5
53B
  8
0
  6
CONTINUOUS
 62
     9
 10
-742.5267427330277
 20
682.222109229256
 30
0.0
  0
VERTEX
  5
53C
  8
0
  6
CONTINUOUS
 62
     9
 10
-742.2237519595891
 20
681.9751191298909
 30
0.0
  0
VERTEX
  5
53D
  8
0
  6
CONTINUOUS
 62
     9
 10
-741.8777603993178
 20
681.7919686148285
 30
0.0
  0
VERTEX
  5
53E
  8
0
  6
CONTINUOUS
 62
     9
 10
-741.5019721562858
 20
681.6796472720804
 30
0.0
  0
VERTEX
  5
53F
  8
0
  6
CONTINUOUS
 62
     9
 10
-741.1107284677948
 20
681.6424416301905
 30
0.0
  0
SEQEND
  5
69D
  8
0
  6
CONTINUOUS
 62
     9
  0
POLYLINE
  5
18A
  8
0
  6
CONTINUOUS
 62
     9
 66
     1
 10
0.0
 20
0.0
 30
0.0
  0
VERTEX
  5
540
  8
0
  6
CONTINUOUS
 62
     9
 10
-743.1107492053004
 20
843.6314948195344
 30
0.0
  0
VERTEX
  5
541
  8
0
  6
CONTINUOUS
 62
     9
 10
-743.0728531539646
 20
843.241914002579
 30
0.0
  0
VERTEX
  5
542
  8
0
  6
CONTINUOUS
 62
     9
 10
-742.9595519978132
 20
842.8678279741049
 30
0.0
  0
VERTEX
  5
543
  8
0
  6
CONTINUOUS
 62
     9
 10
-742.7751696580888
 20
842.5235130096607
 30
0.0
  0
VERTEX
  5
544
  8
0
  6
CONTINUOUS
 62
     9
 10
-742.5267427330278
 20
842.2221092292558
 30
0.0
  0
VERTEX
  5
545
  8
0
  6
CONTINUOUS
 62
     9
 10
-742.2237519595893
 20
841.9751191298908
 30
0.0
  0
VERTEX
  5
546
  8
0
  6
CONTINUOUS
 62
     9
 10
-741.8777603993179
 20
841.7919686148283
 30
0.0
  0
VERTEX
  5
547
  8
0
  6
CONTINUOUS
 62
     9
 10
-741.5019721562859
 20
841.67964727208
 30
0.0
  0
VERTEX
  5
548
  8
0
  6
CONTINUOUS
 62
     9
 10
-741.110728467795
 20
841.6424416301904
 30
0.0
  0
SEQEND
  5
69E
  8
0
  6
CONTINUOUS
 62
     9
  0
POLYLINE
  5
18B
  8
0
  6
CONTINUOUS
 62
     9
 66
     1
 10
0.0
 20
0.0
 30
0.0
  0
VERTEX
  5
549
  8
0
  6
CONTINUOUS
 62
     9
 10
-743.1107492053003
 20
723.6314948195345
 30
0.0
  0
VERTEX
  5
54A
  8
0
  6
CONTINUOUS
 62
     9
 10
-743.0728531539645
 20
723.2419140025792
 30
0.0
  0
VERTEX
  5
54B
  8
0
  6
CONTINUOUS
 62
     9
 10
-742.959551997813
 20
722.867827974105
 30
0.0
  0
VERTEX
  5
54C
  8
0
  6
CONTINUOUS
 62
     9
 10
-742.7751696580887
 20
722.5235130096609
 30
0.0
  0
VERTEX
  5
54D
  8
0
  6
CONTINUOUS
 62
     9
 10
-742.5267427330277
 20
722.2221092292559
 30
0.0
  0
VERTEX
  5
54E
  8
0
  6
CONTINUOUS
 62
     9
 10
-742.2237519595891
 20
721.9751191298909
 30
0.0
  0
VERTEX
  5
54F
  8
0
  6
CONTINUOUS
 62
     9
 10
-741.8777603993178
 20
721.7919686148285
 30
0.0
  0
VERTEX
  5
550
  8
0
  6
CONTINUOUS
 62
     9
 10
-741.5019721562858
 20
721.6796472720802
 30
0.0
  0
VERTEX
  5
551
  8
0
  6
CONTINUOUS
 62
     9
 10
-741.1107284677948
 20
721.6424416301905
 30
0.0
  0
SEQEND
  5
69F
  8
0
  6
CONTINUOUS
 62
     9
  0
LINE
  5
18C
  8
0
  6
CONTINUOUS
 62
     9
 10
-743.1107492053003
 20
848.8685051804651
 30
0.0
 11
-743.1107492053003
 21
843.6314948195345
 31
0.0
  0
POLYLINE
  5
18D
  8
0
  6
CONTINUOUS
 62
     9
 66
     1
 10
0.0
 20
0.0
 30
0.0
  0
VERTEX
  5
552
  8
0
  6
CONTINUOUS
 62
     9
 10
-741.1107284677947
 20
810.8575583698092
 30
0.0
  0
VERTEX
  5
553
  8
0
  6
CONTINUOUS
 62
     9
 10
-741.5019721562858
 20
810.8203527279196
 30
0.0
  0
VERTEX
  5
554
  8
0
  6
CONTINUOUS
 62
     9
 10
-741.8777603993178
 20
810.7080313851712
 30
0.0
  0
VERTEX
  5
555
  8
0
  6
CONTINUOUS
 62
     9
 10
-742.2237519595891
 20
810.5248808701089
 30
0.0
  0
VERTEX
  5
556
  8
0
  6
CONTINUOUS
 62
     9
 10
-742.5267427330277
 20
810.2778907707439
 30
0.0
  0
VERTEX
  5
557
  8
0
  6
CONTINUOUS
 62
     9
 10
-742.7751696580887
 20
809.9764869903389
 30
0.0
  0
VERTEX
  5
558
  8
0
  6
CONTINUOUS
 62
     9
 10
-742.959551997813
 20
809.6321720258948
 30
0.0
  0
VERTEX
  5
559
  8
0
  6
CONTINUOUS
 62
     9
 10
-743.0728531539645
 20
809.2580859974206
 30
0.0
  0
VERTEX
  5
55A
  8
0
  6
CONTINUOUS
 62
     9
 10
-743.1107492053003
 20
808.8685051804653
 30
0.0
  0
SEQEND
  5
6A0
  8
0
  6
CONTINUOUS
 62
     9
  0
POLYLINE
  5
18E
  8
0
  6
CONTINUOUS
 62
     9
 66
     1
 10
0.0
 20
0.0
 30
0.0
  0
VERTEX
  5
55B
  8
0
  6
CONTINUOUS
 62
     9
 10
-741.1107284677948
 20
850.8575583698093
 30
0.0
  0
VERTEX
  5
55C
  8
0
  6
CONTINUOUS
 62
     9
 10
-741.5019721562858
 20
850.8203527279195
 30
0.0
  0
VERTEX
  5
55D
  8
0
  6
CONTINUOUS
 62
     9
 10
-741.8777603993178
 20
850.7080313851714
 30
0.0
  0
VERTEX
  5
55E
  8
0
  6
CONTINUOUS
 62
     9
 10
-742.2237519595891
 20
850.5248808701089
 30
0.0
  0
VERTEX
  5
55F
  8
0
  6
CONTINUOUS
 62
     9
 10
-742.5267427330277
 20
850.2778907707439
 30
0.0
  0
VERTEX
  5
560
  8
0
  6
CONTINUOUS
 62
     9
 10
-742.7751696580885
 20
849.9764869903389
 30
0.0
  0
VERTEX
  5
561
  8
0
  6
CONTINUOUS
 62
     9
 10
-742.959551997813
 20
849.6321720258948
 30
0.0
  0
VERTEX
  5
562
  8
0
  6
CONTINUOUS
 62
     9
 10
-743.0728531539645
 20
849.2580859974206
 30
0.0
  0
VERTEX
  5
563
  8
0
  6
CONTINUOUS
 62
     9
 10
-743.1107492053002
 20
848.8685051804653
 30
0.0
  0
SEQEND
  5
6A1
  8
0
  6
CONTINUOUS
 62
     9
  0
LINE
  5
18F
  8
0
  6
CONTINUOUS
 62
     9
 10
-741.1107284677948
 20
690.8575583698093
 30
0.0
 11
-737.9551827920128
 21
690.8575583698093
 31
0.0
  0
LINE
  5
190
  8
0
  6
CONTINUOUS
 62
     9
 10
-741.1107284677948
 20
801.6424416301903
 30
0.0
 11
-737.9551827920128
 21
801.6424416301903
 31
0.0
  0
LINE
  5
191
  8
0
  6
CONTINUOUS
 62
     9
 10
-741.1107284677948
 20
730.8575583698093
 30
0.0
 11
-737.9551827920128
 21
730.8575583698093
 31
0.0
  0
LINE
  5
192
  8
0
  6
CONTINUOUS
 62
     9
 10
-741.1107284677948
 20
841.6424416301904
 30
0.0
 11
-737.9551827920128
 21
841.6424416301904
 31
0.0
  0
LINE
  5
193
  8
0
  6
CONTINUOUS
 62
     9
 10
-737.9551827920128
 20
681.6424416301904
 30
0.0
 11
-741.1107284677947
 21
681.6424416301904
 31
0.0
  0
LINE
  5
194
  8
0
  6
CONTINUOUS
 62
     9
 10
-737.9551827920128
 20
810.8575583698093
 30
0.0
 11
-741.1107284677947
 21
810.8575583698093
 31
0.0
  0
LINE
  5
195
  8
0
  6
CONTINUOUS
 62
     9
 10
-737.9551827920128
 20
721.6424416301905
 30
0.0
 11
-741.1107284677947
 21
721.6424416301905
 31
0.0
  0
LINE
  5
196
  8
0
  6
CONTINUOUS
 62
     9
 10
-737.9551827920128
 20
850.8575583698092
 30
0.0
 11
-741.1107284677947
 21
850.8575583698092
 31
0.0
  0
POLYLINE
  5
197
  8
0
  6
CONTINUOUS
 62
     9
 66
     1
 10
0.0
 20
0.0
 30
0.0
  0
VERTEX
  5
564
  8
0
  6
CONTINUOUS
 62
     9
 10
-737.9551827920128
 20
681.6424416301904
 30
0.0
  0
VERTEX
  5
565
  8
0
  6
CONTINUOUS
 62
     9
 10
-737.4543531845155
 20
681.6746911415926
 30
0.0
  0
VERTEX
  5
566
  8
0
  6
CONTINUOUS
 62
     9
 10
-736.9756021581322
 20
681.7802731071206
 30
0.0
  0
VERTEX
  5
567
  8
0
  6
CONTINUOUS
 62
     9
 10
-736.5367217824587
 20
681.9552637301136
 30
0.0
  0
VERTEX
  5
568
  8
0
  6
CONTINUOUS
 62
     9
 10
-736.1540223936781
 20
682.1931597444244
 30
0.0
  0
VERTEX
  5
569
  8
0
  6
CONTINUOUS
 62
     9
 10
-735.8417264451831
 20
682.4851200986294
 30
0.0
  0
VERTEX
  5
56A
  8
0
  6
CONTINUOUS
 62
     9
 10
-735.6114399512567
 20
682.8202945205518
 30
0.0
  0
VERTEX
  5
56B
  8
0
  6
CONTINUOUS
 62
     9
 10
-735.4717211668186
 20
683.186226751483
 30
0.0
  0
VERTEX
  5
56C
  8
0
  6
CONTINUOUS
 62
     9
 10
-735.4277625326148
 20
683.5693174645052
 30
0.0
  0
SEQEND
  5
6A2
  8
0
  6
CONTINUOUS
 62
     9
  0
POLYLINE
  5
198
  8
0
  6
CONTINUOUS
 62
     9
 66
     1
 10
0.0
 20
0.0
 30
0.0
  0
VERTEX
  5
56D
  8
0
  6
CONTINUOUS
 62
     9
 10
-735.4277625326148
 20
688.9306825354947
 30
0.0
  0
VERTEX
  5
56E
  8
0
  6
CONTINUOUS
 62
     9
 10
-735.4717211668186
 20
689.3137732485169
 30
0.0
  0
VERTEX
  5
56F
  8
0
  6
CONTINUOUS
 62
     9
 10
-735.6114399512566
 20
689.6797054794481
 30
0.0
  0
VERTEX
  5
570
  8
0
  6
CONTINUOUS
 62
     9
 10
-735.8417264451831
 20
690.0148799013705
 30
0.0
  0
VERTEX
  5
571
  8
0
  6
CONTINUOUS
 62
     9
 10
-736.1540223936781
 20
690.3068402555755
 30
0.0
  0
VERTEX
  5
572
  8
0
  6
CONTINUOUS
 62
     9
 10
-736.5367217824587
 20
690.5447362698862
 30
0.0
  0
VERTEX
  5
573
  8
0
  6
CONTINUOUS
 62
     9
 10
-736.9756021581321
 20
690.7197268928793
 30
0.0
  0
VERTEX
  5
574
  8
0
  6
CONTINUOUS
 62
     9
 10
-737.4543531845155
 20
690.8253088584073
 30
0.0
  0
VERTEX
  5
575
  8
0
  6
CONTINUOUS
 62
     9
 10
-737.9551827920128
 20
690.8575583698095
 30
0.0
  0
SEQEND
  5
6A3
  8
0
  6
CONTINUOUS
 62
     9
  0
POLYLINE
  5
199
  8
0
  6
CONTINUOUS
 62
     9
 66
     1
 10
0.0
 20
0.0
 30
0.0
  0
VERTEX
  5
576
  8
0
  6
CONTINUOUS
 62
     9
 10
-735.4277625326147
 20
808.9306825354946
 30
0.0
  0
VERTEX
  5
577
  8
0
  6
CONTINUOUS
 62
     9
 10
-735.4717211668185
 20
809.3137732485168
 30
0.0
  0
VERTEX
  5
578
  8
0
  6
CONTINUOUS
 62
     9
 10
-735.6114399512566
 20
809.679705479448
 30
0.0
  0
VERTEX
  5
579
  8
0
  6
CONTINUOUS
 62
     9
 10
-735.8417264451831
 20
810.0148799013704
 30
0.0
  0
VERTEX
  5
57A
  8
0
  6
CONTINUOUS
 62
     9
 10
-736.154022393678
 20
810.3068402555755
 30
0.0
  0
VERTEX
  5
57B
  8
0
  6
CONTINUOUS
 62
     9
 10
-736.5367217824586
 20
810.5447362698861
 30
0.0
  0
VERTEX
  5
57C
  8
0
  6
CONTINUOUS
 62
     9
 10
-736.9756021581321
 20
810.7197268928792
 30
0.0
  0
VERTEX
  5
57D
  8
0
  6
CONTINUOUS
 62
     9
 10
-737.4543531845154
 20
810.8253088584072
 30
0.0
  0
VERTEX
  5
57E
  8
0
  6
CONTINUOUS
 62
     9
 10
-737.9551827920127
 20
810.8575583698093
 30
0.0
  0
SEQEND
  5
6A4
  8
0
  6
CONTINUOUS
 62
     9
  0
POLYLINE
  5
19A
  8
0
  6
CONTINUOUS
 62
     9
 66
     1
 10
0.0
 20
0.0
 30
0.0
  0
VERTEX
  5
57F
  8
0
  6
CONTINUOUS
 62
     9
 10
-737.9551827920127
 20
721.6424416301904
 30
0.0
  0
VERTEX
  5
580
  8
0
  6
CONTINUOUS
 62
     9
 10
-737.4543531845154
 20
721.6746911415926
 30
0.0
  0
VERTEX
  5
581
  8
0
  6
CONTINUOUS
 62
     9
 10
-736.9756021581321
 20
721.7802731071206
 30
0.0
  0
VERTEX
  5
582
  8
0
  6
CONTINUOUS
 62
     9
 10
-736.5367217824586
 20
721.9552637301136
 30
0.0
  0
VERTEX
  5
583
  8
0
  6
CONTINUOUS
 62
     9
 10
-736.154022393678
 20
722.1931597444243
 30
0.0
  0
VERTEX
  5
584
  8
0
  6
CONTINUOUS
 62
     9
 10
-735.8417264451831
 20
722.4851200986294
 30
0.0
  0
VERTEX
  5
585
  8
0
  6
CONTINUOUS
 62
     9
 10
-735.6114399512566
 20
722.8202945205518
 30
0.0
  0
VERTEX
  5
586
  8
0
  6
CONTINUOUS
 62
     9
 10
-735.4717211668185
 20
723.186226751483
 30
0.0
  0
VERTEX
  5
587
  8
0
  6
CONTINUOUS
 62
     9
 10
-735.4277625326147
 20
723.5693174645052
 30
0.0
  0
SEQEND
  5
6A5
  8
0
  6
CONTINUOUS
 62
     9
  0
POLYLINE
  5
19B
  8
0
  6
CONTINUOUS
 62
     9
 66
     1
 10
0.0
 20
0.0
 30
0.0
  0
VERTEX
  5
588
  8
0
  6
CONTINUOUS
 62
     9
 10
-737.9551827920128
 20
801.6424416301904
 30
0.0
  0
VERTEX
  5
589
  8
0
  6
CONTINUOUS
 62
     9
 10
-737.4543531845155
 20
801.6746911415926
 30
0.0
  0
VERTEX
  5
58A
  8
0
  6
CONTINUOUS
 62
     9
 10
-736.9756021581321
 20
801.7802731071206
 30
0.0
  0
VERTEX
  5
58B
  8
0
  6
CONTINUOUS
 62
     9
 10
-736.5367217824587
 20
801.9552637301136
 30
0.0
  0
VERTEX
  5
58C
  8
0
  6
CONTINUOUS
 62
     9
 10
-736.1540223936781
 20
802.1931597444243
 30
0.0
  0
VERTEX
  5
58D
  8
0
  6
CONTINUOUS
 62
     9
 10
-735.8417264451831
 20
802.4851200986294
 30
0.0
  0
VERTEX
  5
58E
  8
0
  6
CONTINUOUS
 62
     9
 10
-735.6114399512566
 20
802.8202945205518
 30
0.0
  0
VERTEX
  5
58F
  8
0
  6
CONTINUOUS
 62
     9
 10
-735.4717211668186
 20
803.186226751483
 30
0.0
  0
VERTEX
  5
590
  8
0
  6
CONTINUOUS
 62
     9
 10
-735.4277625326148
 20
803.5693174645052
 30
0.0
  0
SEQEND
  5
6A6
  8
0
  6
CONTINUOUS
 62
     9
  0
POLYLINE
  5
19C
  8
0
  6
CONTINUOUS
 62
     9
 66
     1
 10
0.0
 20
0.0
 30
0.0
  0
VERTEX
  5
591
  8
0
  6
CONTINUOUS
 62
     9
 10
-735.4277625326148
 20
728.9306825354946
 30
0.0
  0
VERTEX
  5
592
  8
0
  6
CONTINUOUS
 62
     9
 10
-735.4717211668186
 20
729.3137732485168
 30
0.0
  0
VERTEX
  5
593
  8
0
  6
CONTINUOUS
 62
     9
 10
-735.6114399512566
 20
729.679705479448
 30
0.0
  0
VERTEX
  5
594
  8
0
  6
CONTINUOUS
 62
     9
 10
-735.8417264451831
 20
730.0148799013704
 30
0.0
  0
VERTEX
  5
595
  8
0
  6
CONTINUOUS
 62
     9
 10
-736.1540223936781
 20
730.3068402555755
 30
0.0
  0
VERTEX
  5
596
  8
0
  6
CONTINUOUS
 62
     9
 10
-736.5367217824587
 20
730.5447362698861
 30
0.0
  0
VERTEX
  5
597
  8
0
  6
CONTINUOUS
 62
     9
 10
-736.9756021581321
 20
730.7197268928792
 30
0.0
  0
VERTEX
  5
598
  8
0
  6
CONTINUOUS
 62
     9
 10
-737.4543531845155
 20
730.8253088584072
 30
0.0
  0
VERTEX
  5
599
  8
0
  6
CONTINUOUS
 62
     9
 10
-737.9551827920128
 20
730.8575583698093
 30
0.0
  0
SEQEND
  5
6A7
  8
0
  6
CONTINUOUS
 62
     9
  0
POLYLINE
  5
19D
  8
0
  6
CONTINUOUS
 62
     9
 66
     1
 10
0.0
 20
0.0
 30
0.0
  0
VERTEX
  5
59A
  8
0
  6
CONTINUOUS
 62
     9
 10
-735.4277625326147
 20
848.9306825354946
 30
0.0
  0
VERTEX
  5
59B
  8
0
  6
CONTINUOUS
 62
     9
 10
-735.4717211668185
 20
849.3137732485168
 30
0.0
  0
VERTEX
  5
59C
  8
0
  6
CONTINUOUS
 62
     9
 10
-735.6114399512566
 20
849.679705479448
 30
0.0
  0
VERTEX
  5
59D
  8
0
  6
CONTINUOUS
 62
     9
 10
-735.841726445183
 20
850.0148799013704
 30
0.0
  0
VERTEX
  5
59E
  8
0
  6
CONTINUOUS
 62
     9
 10
-736.154022393678
 20
850.3068402555754
 30
0.0
  0
VERTEX
  5
59F
  8
0
  6
CONTINUOUS
 62
     9
 10
-736.5367217824586
 20
850.5447362698861
 30
0.0
  0
VERTEX
  5
5A0
  8
0
  6
CONTINUOUS
 62
     9
 10
-736.9756021581321
 20
850.7197268928792
 30
0.0
  0
VERTEX
  5
5A1
  8
0
  6
CONTINUOUS
 62
     9
 10
-737.4543531845154
 20
850.8253088584072
 30
0.0
  0
VERTEX
  5
5A2
  8
0
  6
CONTINUOUS
 62
     9
 10
-737.9551827920127
 20
850.8575583698093
 30
0.0
  0
SEQEND
  5
6A8
  8
0
  6
CONTINUOUS
 62
     9
  0
POLYLINE
  5
19E
  8
0
  6
CONTINUOUS
 62
     9
 66
     1
 10
0.0
 20
0.0
 30
0.0
  0
VERTEX
  5
5A3
  8
0
  6
CONTINUOUS
 62
     9
 10
-737.9551827920128
 20
841.6424416301903
 30
0.0
  0
VERTEX
  5
5A4
  8
0
  6
CONTINUOUS
 62
     9
 10
-737.4543531845155
 20
841.6746911415925
 30
0.0
  0
VERTEX
  5
5A5
  8
0
  6
CONTINUOUS
 62
     9
 10
-736.9756021581321
 20
841.7802731071205
 30
0.0
  0
VERTEX
  5
5A6
  8
0
  6
CONTINUOUS
 62
     9
 10
-736.5367217824587
 20
841.9552637301135
 30
0.0
  0
VERTEX
  5
5A7
  8
0
  6
CONTINUOUS
 62
     9
 10
-736.1540223936781
 20
842.1931597444243
 30
0.0
  0
VERTEX
  5
5A8
  8
0
  6
CONTINUOUS
 62
     9
 10
-735.8417264451831
 20
842.4851200986293
 30
0.0
  0
VERTEX
  5
5A9
  8
0
  6
CONTINUOUS
 62
     9
 10
-735.6114399512566
 20
842.8202945205517
 30
0.0
  0
VERTEX
  5
5AA
  8
0
  6
CONTINUOUS
 62
     9
 10
-735.4717211668186
 20
843.1862267514829
 30
0.0
  0
VERTEX
  5
5AB
  8
0
  6
CONTINUOUS
 62
     9
 10
-735.4277625326148
 20
843.569317464505
 30
0.0
  0
SEQEND
  5
6A9
  8
0
  6
CONTINUOUS
 62
     9
  0
LINE
  5
19F
  8
0
  6
CONTINUOUS
 62
     9
 10
-735.4277625326148
 20
688.9306825354947
 30
0.0
 11
-735.4277625326148
 21
683.569317464505
 31
0.0
  0
LINE
  5
1A0
  8
0
  6
CONTINUOUS
 62
     9
 10
-735.4277625326148
 20
803.569317464505
 30
0.0
 11
-735.4277625326148
 21
808.9306825354947
 31
0.0
  0
LINE
  5
1A1
  8
0
  6
CONTINUOUS
 62
     9
 10
-735.4277625326148
 20
728.9306825354947
 30
0.0
 11
-735.4277625326148
 21
723.5693174645052
 31
0.0
  0
LINE
  5
1A2
  8
0
  6
CONTINUOUS
 62
     9
 10
-735.4277625326148
 20
843.569317464505
 30
0.0
 11
-735.4277625326148
 21
848.9306825354946
 31
0.0
  0
LINE
  5
1A3
  8
0
  6
CONTINUOUS
 62
     7
 10
-690.0000000000002
 20
669.0803683652119
 30
0.0
 11
-690.0000000000002
 21
745.4527567453522
 31
0.0
  0
LINE
  5
1A4
  8
0
  6
CONTINUOUS
 62
     9
 10
-690.2012382128551
 20
746.3111632645356
 30
0.0
 11
-690.0000000000002
 21
745.4527567453522
 31
0.0
  0
POLYLINE
  5
1A5
  8
0
  6
CONTINUOUS
 62
     9
 66
     1
 10
0.0
 20
0.0
 30
0.0
  0
VERTEX
  5
5AC
  8
0
  6
CONTINUOUS
 62
     9
 10
-690.2012382128551
 20
746.3111632645356
 30
0.0
  0
VERTEX
  5
5AD
  8
0
  6
CONTINUOUS
 62
     9
 10
-690.1518898026707
 20
746.7625704452773
 30
0.0
  0
VERTEX
  5
5AE
  8
0
  6
CONTINUOUS
 62
     9
 10
-690.2012382128551
 20
747.2026948942834
 30
0.0
  0
SEQEND
  5
6AA
  8
0
  6
CONTINUOUS
 62
     9
  0
ARC
  5
1A6
  8
0
  6
CONTINUOUS
 62
     7
 10
-698.0000000000002
 20
745.4196316347878
 30
0.0
 40
8.000000000000004
 50
12.87841666804889
 51
86.99999999999989
  0
POLYLINE
  5
1A7
  8
0
  6
CONTINUOUS
 62
     9
 66
     1
 10
0.0
 20
0.0
 30
0.0
  0
VERTEX
  5
5AF
  8
0
  6
CONTINUOUS
 62
     9
 10
-690.2012382128551
 20
785.2973051057163
 30
0.0
  0
VERTEX
  5
5B0
  8
0
  6
CONTINUOUS
 62
     9
 10
-690.1518898026707
 20
785.7374295547223
 30
0.0
  0
VERTEX
  5
5B1
  8
0
  6
CONTINUOUS
 62
     9
 10
-690.2012382128551
 20
786.1888367354641
 30
0.0
  0
SEQEND
  5
6AB
  8
0
  6
CONTINUOUS
 62
     9
  0
ARC
  5
1A8
  8
0
  6
CONTINUOUS
 62
     7
 10
-698.0000000000002
 20
787.0803683652118
 30
0.0
 40
8.000000000000004
 50
273.0000000000001
 51
347.1215833319511
  0
LINE
  5
1A9
  8
0
  6
CONTINUOUS
 62
     7
 10
-690.0000000000002
 20
863.4196316347878
 30
0.0
 11
-690.0000000000002
 21
787.0472432546476
 31
0.0
  0
LINE
  5
1AA
  8
0
  6
CONTINUOUS
 62
     9
 10
-690.2012382128551
 20
786.1888367354641
 30
0.0
 11
-690.0000000000002
 21
787.0472432546476
 31
0.0
  0
ARC
  5
1AB
  8
0
  6
CONTINUOUS
 62
     7
 10
-698.0000000000002
 20
669.0803683652119
 30
0.0
 40
8.000000000000009
 50
273.0000000000001
 51
0.0
  0
ARC
  5
1AC
  8
0
  6
CONTINUOUS
 62
     7
 10
-698.0000000000002
 20
863.4196316347878
 30
0.0
 40
8.000000000000009
 50
0.0
 51
86.99999999999989
  0
POLYLINE
  5
1AD
  8
0
  6
CONTINUOUS
 62
     9
 66
     1
 10
0.0
 20
0.0
 30
0.0
  0
VERTEX
  5
5B2
  8
0
  6
CONTINUOUS
 62
     9
 10
-741.1021928548374
 20
689.8010354332849
 30
0.0
  0
VERTEX
  5
5B3
  8
0
  6
CONTINUOUS
 62
     9
 10
-741.2973077074637
 20
689.7819277061177
 30
0.0
  0
VERTEX
  5
5B4
  8
0
  6
CONTINUOUS
 62
     9
 10
-741.4847667389532
 20
689.7253337343627
 30
0.0
  0
VERTEX
  5
5B5
  8
0
  6
CONTINUOUS
 62
     9
 10
-741.6574159350314
 20
689.63341331837
 30
0.0
  0
VERTEX
  5
5B6
  8
0
  6
CONTINUOUS
 62
     9
 10
-741.8086664703776
 20
689.5096744244557
 30
0.0
  0
VERTEX
  5
5B7
  8
0
  6
CONTINUOUS
 62
     9
 10
-741.932746158502
 20
689.3588393100986
 30
0.0
  0
VERTEX
  5
5B8
  8
0
  6
CONTINUOUS
 62
     9
 10
-742.0249197361693
 20
689.186664308043
 30
0.0
  0
VERTEX
  5
5B9
  8
0
  6
CONTINUOUS
 62
     9
 10
-742.0816695756332
 20
688.9997201469046
 30
0.0
  0
VERTEX
  5
5BA
  8
0
  6
CONTINUOUS
 62
     9
 10
-742.100829928152
 20
688.8051411919188
 30
0.0
  0
SEQEND
  5
6AC
  8
0
  6
CONTINUOUS
 62
     9
  0
POLYLINE
  5
1AE
  8
0
  6
CONTINUOUS
 62
     9
 66
     1
 10
0.0
 20
0.0
 30
0.0
  0
VERTEX
  5
5BB
  8
0
  6
CONTINUOUS
 62
     9
 10
-742.1008299281519
 20
683.694858808081
 30
0.0
  0
VERTEX
  5
5BC
  8
0
  6
CONTINUOUS
 62
     9
 10
-742.0816695756331
 20
683.5002798530952
 30
0.0
  0
VERTEX
  5
5BD
  8
0
  6
CONTINUOUS
 62
     9
 10
-742.0249197361691
 20
683.3133356919568
 30
0.0
  0
VERTEX
  5
5BE
  8
0
  6
CONTINUOUS
 62
     9
 10
-741.9327461585019
 20
683.1411606899012
 30
0.0
  0
VERTEX
  5
5BF
  8
0
  6
CONTINUOUS
 62
     9
 10
-741.8086664703774
 20
682.990325575544
 30
0.0
  0
VERTEX
  5
5C0
  8
0
  6
CONTINUOUS
 62
     9
 10
-741.6574159350313
 20
682.8665866816298
 30
0.0
  0
VERTEX
  5
5C1
  8
0
  6
CONTINUOUS
 62
     9
 10
-741.4847667389531
 20
682.7746662656369
 30
0.0
  0
VERTEX
  5
5C2
  8
0
  6
CONTINUOUS
 62
     9
 10
-741.2973077074636
 20
682.7180722938821
 30
0.0
  0
VERTEX
  5
5C3
  8
0
  6
CONTINUOUS
 62
     9
 10
-741.1021928548372
 20
682.6989645667147
 30
0.0
  0
SEQEND
  5
6AD
  8
0
  6
CONTINUOUS
 62
     9
  0
LINE
  5
1AF
  8
0
  6
CONTINUOUS
 62
     9
 10
-742.1008299281519
 20
688.8051411919188
 30
0.0
 11
-742.1008299281519
 21
683.694858808081
 31
0.0
  0
POLYLINE
  5
1B0
  8
0
  6
CONTINUOUS
 62
     9
 66
     1
 10
0.0
 20
0.0
 30
0.0
  0
VERTEX
  5
5C4
  8
0
  6
CONTINUOUS
 62
     9
 10
-741.1021928548374
 20
729.801035433285
 30
0.0
  0
VERTEX
  5
5C5
  8
0
  6
CONTINUOUS
 62
     9
 10
-741.2973077074637
 20
729.7819277061178
 30
0.0
  0
VERTEX
  5
5C6
  8
0
  6
CONTINUOUS
 62
     9
 10
-741.4847667389532
 20
729.7253337343628
 30
0.0
  0
VERTEX
  5
5C7
  8
0
  6
CONTINUOUS
 62
     9
 10
-741.6574159350314
 20
729.6334133183701
 30
0.0
  0
VERTEX
  5
5C8
  8
0
  6
CONTINUOUS
 62
     9
 10
-741.8086664703776
 20
729.5096744244559
 30
0.0
  0
VERTEX
  5
5C9
  8
0
  6
CONTINUOUS
 62
     9
 10
-741.932746158502
 20
729.3588393100987
 30
0.0
  0
VERTEX
  5
5CA
  8
0
  6
CONTINUOUS
 62
     9
 10
-742.0249197361693
 20
729.1866643080431
 30
0.0
  0
VERTEX
  5
5CB
  8
0
  6
CONTINUOUS
 62
     9
 10
-742.0816695756332
 20
728.9997201469047
 30
0.0
  0
VERTEX
  5
5CC
  8
0
  6
CONTINUOUS
 62
     9
 10
-742.100829928152
 20
728.8051411919189
 30
0.0
  0
SEQEND
  5
6AE
  8
0
  6
CONTINUOUS
 62
     9
  0
POLYLINE
  5
1B1
  8
0
  6
CONTINUOUS
 62
     9
 66
     1
 10
0.0
 20
0.0
 30
0.0
  0
VERTEX
  5
5CD
  8
0
  6
CONTINUOUS
 62
     9
 10
-742.1008299281519
 20
723.694858808081
 30
0.0
  0
VERTEX
  5
5CE
  8
0
  6
CONTINUOUS
 62
     9
 10
-742.0816695756331
 20
723.5002798530952
 30
0.0
  0
VERTEX
  5
5CF
  8
0
  6
CONTINUOUS
 62
     9
 10
-742.0249197361691
 20
723.3133356919568
 30
0.0
  0
VERTEX
  5
5D0
  8
0
  6
CONTINUOUS
 62
     9
 10
-741.9327461585019
 20
723.1411606899012
 30
0.0
  0
VERTEX
  5
5D1
  8
0
  6
CONTINUOUS
 62
     9
 10
-741.8086664703774
 20
722.990325575544
 30
0.0
  0
VERTEX
  5
5D2
  8
0
  6
CONTINUOUS
 62
     9
 10
-741.6574159350313
 20
722.8665866816298
 30
0.0
  0
VERTEX
  5
5D3
  8
0
  6
CONTINUOUS
 62
     9
 10
-741.4847667389531
 20
722.7746662656369
 30
0.0
  0
VERTEX
  5
5D4
  8
0
  6
CONTINUOUS
 62
     9
 10
-741.2973077074636
 20
722.7180722938821
 30
0.0
  0
VERTEX
  5
5D5
  8
0
  6
CONTINUOUS
 62
     9
 10
-741.1021928548372
 20
722.6989645667147
 30
0.0
  0
SEQEND
  5
6AF
  8
0
  6
CONTINUOUS
 62
     9
  0
POLYLINE
  5
1B2
  8
0
  6
CONTINUOUS
 62
     9
 66
     1
 10
0.0
 20
0.0
 30
0.0
  0
VERTEX
  5
5D6
  8
0
  6
CONTINUOUS
 62
     9
 10
-741.1021928548372
 20
809.8010354332849
 30
0.0
  0
VERTEX
  5
5D7
  8
0
  6
CONTINUOUS
 62
     9
 10
-741.2973077074636
 20
809.7819277061176
 30
0.0
  0
VERTEX
  5
5D8
  8
0
  6
CONTINUOUS
 62
     9
 10
-741.4847667389531
 20
809.7253337343627
 30
0.0
  0
VERTEX
  5
5D9
  8
0
  6
CONTINUOUS
 62
     9
 10
-741.6574159350313
 20
809.6334133183699
 30
0.0
  0
VERTEX
  5
5DA
  8
0
  6
CONTINUOUS
 62
     9
 10
-741.8086664703774
 20
809.5096744244556
 30
0.0
  0
VERTEX
  5
5DB
  8
0
  6
CONTINUOUS
 62
     9
 10
-741.9327461585019
 20
809.3588393100985
 30
0.0
  0
VERTEX
  5
5DC
  8
0
  6
CONTINUOUS
 62
     9
 10
-742.0249197361691
 20
809.1866643080429
 30
0.0
  0
VERTEX
  5
5DD
  8
0
  6
CONTINUOUS
 62
     9
 10
-742.0816695756331
 20
808.9997201469045
 30
0.0
  0
VERTEX
  5
5DE
  8
0
  6
CONTINUOUS
 62
     9
 10
-742.1008299281519
 20
808.8051411919187
 30
0.0
  0
SEQEND
  5
6B0
  8
0
  6
CONTINUOUS
 62
     9
  0
POLYLINE
  5
1B3
  8
0
  6
CONTINUOUS
 62
     9
 66
     1
 10
0.0
 20
0.0
 30
0.0
  0
VERTEX
  5
5DF
  8
0
  6
CONTINUOUS
 62
     9
 10
-742.100829928152
 20
803.6948588080809
 30
0.0
  0
VERTEX
  5
5E0
  8
0
  6
CONTINUOUS
 62
     9
 10
-742.0816695756332
 20
803.5002798530951
 30
0.0
  0
VERTEX
  5
5E1
  8
0
  6
CONTINUOUS
 62
     9
 10
-742.0249197361693
 20
803.3133356919567
 30
0.0
  0
VERTEX
  5
5E2
  8
0
  6
CONTINUOUS
 62
     9
 10
-741.932746158502
 20
803.1411606899011
 30
0.0
  0
VERTEX
  5
5E3
  8
0
  6
CONTINUOUS
 62
     9
 10
-741.8086664703776
 20
802.9903255755439
 30
0.0
  0
VERTEX
  5
5E4
  8
0
  6
CONTINUOUS
 62
     9
 10
-741.6574159350314
 20
802.8665866816297
 30
0.0
  0
VERTEX
  5
5E5
  8
0
  6
CONTINUOUS
 62
     9
 10
-741.4847667389532
 20
802.7746662656369
 30
0.0
  0
VERTEX
  5
5E6
  8
0
  6
CONTINUOUS
 62
     9
 10
-741.2973077074637
 20
802.718072293882
 30
0.0
  0
VERTEX
  5
5E7
  8
0
  6
CONTINUOUS
 62
     9
 10
-741.1021928548374
 20
802.6989645667147
 30
0.0
  0
SEQEND
  5
6B1
  8
0
  6
CONTINUOUS
 62
     9
  0
LINE
  5
1B4
  8
0
  6
CONTINUOUS
 62
     9
 10
-742.1008299281519
 20
803.6948588080809
 30
0.0
 11
-742.1008299281519
 21
808.8051411919187
 31
0.0
  0
LINE
  5
1B5
  8
0
  6
CONTINUOUS
 62
     9
 10
-742.1008299281519
 20
728.8051411919189
 30
0.0
 11
-742.1008299281519
 21
723.694858808081
 31
0.0
  0
LINE
  5
1B6
  8
0
  6
CONTINUOUS
 62
     9
 10
-742.1008299281519
 20
843.6948588080809
 30
0.0
 11
-742.1008299281518
 21
848.8051411919188
 31
0.0
  0
POLYLINE
  5
1B7
  8
0
  6
CONTINUOUS
 62
     9
 66
     1
 10
0.0
 20
0.0
 30
0.0
  0
VERTEX
  5
5E8
  8
0
  6
CONTINUOUS
 62
     9
 10
-741.1021928548372
 20
849.801035433285
 30
0.0
  0
VERTEX
  5
5E9
  8
0
  6
CONTINUOUS
 62
     9
 10
-741.2973077074636
 20
849.7819277061177
 30
0.0
  0
VERTEX
  5
5EA
  8
0
  6
CONTINUOUS
 62
     9
 10
-741.4847667389531
 20
849.7253337343628
 30
0.0
  0
VERTEX
  5
5EB
  8
0
  6
CONTINUOUS
 62
     9
 10
-741.6574159350313
 20
849.63341331837
 30
0.0
  0
VERTEX
  5
5EC
  8
0
  6
CONTINUOUS
 62
     9
 10
-741.8086664703774
 20
849.5096744244557
 30
0.0
  0
VERTEX
  5
5ED
  8
0
  6
CONTINUOUS
 62
     9
 10
-741.9327461585019
 20
849.3588393100986
 30
0.0
  0
VERTEX
  5
5EE
  8
0
  6
CONTINUOUS
 62
     9
 10
-742.0249197361691
 20
849.186664308043
 30
0.0
  0
VERTEX
  5
5EF
  8
0
  6
CONTINUOUS
 62
     9
 10
-742.0816695756331
 20
848.9997201469046
 30
0.0
  0
VERTEX
  5
5F0
  8
0
  6
CONTINUOUS
 62
     9
 10
-742.1008299281519
 20
848.8051411919188
 30
0.0
  0
SEQEND
  5
6B2
  8
0
  6
CONTINUOUS
 62
     9
  0
POLYLINE
  5
1B8
  8
0
  6
CONTINUOUS
 62
     9
 66
     1
 10
0.0
 20
0.0
 30
0.0
  0
VERTEX
  5
5F1
  8
0
  6
CONTINUOUS
 62
     9
 10
-742.100829928152
 20
843.6948588080809
 30
0.0
  0
VERTEX
  5
5F2
  8
0
  6
CONTINUOUS
 62
     9
 10
-742.0816695756332
 20
843.5002798530951
 30
0.0
  0
VERTEX
  5
5F3
  8
0
  6
CONTINUOUS
 62
     9
 10
-742.0249197361693
 20
843.3133356919567
 30
0.0
  0
VERTEX
  5
5F4
  8
0
  6
CONTINUOUS
 62
     9
 10
-741.932746158502
 20
843.1411606899011
 30
0.0
  0
VERTEX
  5
5F5
  8
0
  6
CONTINUOUS
 62
     9
 10
-741.8086664703776
 20
842.9903255755439
 30
0.0
  0
VERTEX
  5
5F6
  8
0
  6
CONTINUOUS
 62
     9
 10
-741.6574159350314
 20
842.8665866816297
 30
0.0
  0
VERTEX
  5
5F7
  8
0
  6
CONTINUOUS
 62
     9
 10
-741.4847667389532
 20
842.7746662656369
 30
0.0
  0
VERTEX
  5
5F8
  8
0
  6
CONTINUOUS
 62
     9
 10
-741.2973077074637
 20
842.718072293882
 30
0.0
  0
VERTEX
  5
5F9
  8
0
  6
CONTINUOUS
 62
     9
 10
-741.1021928548374
 20
842.6989645667147
 30
0.0
  0
SEQEND
  5
6B3
  8
0
  6
CONTINUOUS
 62
     9
  0
LINE
  5
1B9
  8
0
  6
CONTINUOUS
 62
     9
 10
-741.1021928548371
 20
682.6989645667147
 30
0.0
 11
-738.6995023239315
 21
682.6989645667148
 31
0.0
  0
LINE
  5
1BA
  8
0
  6
CONTINUOUS
 62
     9
 10
-738.6995023239315
 20
689.801035433285
 30
0.0
 11
-741.1021928548373
 21
689.801035433285
 31
0.0
  0
LINE
  5
1BB
  8
0
  6
CONTINUOUS
 62
     9
 10
-741.1021928548371
 20
809.8010354332849
 30
0.0
 11
-738.6995023239315
 21
809.8010354332849
 31
0.0
  0
LINE
  5
1BC
  8
0
  6
CONTINUOUS
 62
     9
 10
-741.1021928548371
 20
722.6989645667147
 30
0.0
 11
-738.6995023239315
 21
722.6989645667147
 31
0.0
  0
LINE
  5
1BD
  8
0
  6
CONTINUOUS
 62
     9
 10
-738.6995023239314
 20
802.6989645667147
 30
0.0
 11
-741.1021928548373
 21
802.6989645667147
 31
0.0
  0
LINE
  5
1BE
  8
0
  6
CONTINUOUS
 62
     9
 10
-738.6995023239314
 20
729.8010354332849
 30
0.0
 11
-741.1021928548373
 21
729.8010354332849
 31
0.0
  0
LINE
  5
1BF
  8
0
  6
CONTINUOUS
 62
     9
 10
-738.6995023239314
 20
842.6989645667146
 30
0.0
 11
-741.1021928548373
 21
842.6989645667146
 31
0.0
  0
LINE
  5
1C0
  8
0
  6
CONTINUOUS
 62
     9
 10
-741.1021928548371
 20
849.8010354332849
 30
0.0
 11
-738.6995023239315
 21
849.8010354332849
 31
0.0
  0
POLYLINE
  5
1C1
  8
0
  6
CONTINUOUS
 62
     9
 66
     1
 10
0.0
 20
0.0
 30
0.0
  0
VERTEX
  5
5FA
  8
0
  6
CONTINUOUS
 62
     9
 10
-738.6995023239315
 20
682.6989645667147
 30
0.0
  0
VERTEX
  5
5FB
  8
0
  6
CONTINUOUS
 62
     9
 10
-738.4788776094542
 20
682.7175718233989
 30
0.0
  0
VERTEX
  5
5FC
  8
0
  6
CONTINUOUS
 62
     9
 10
-738.2675734846041
 20
682.7727020824409
 30
0.0
  0
VERTEX
  5
5FD
  8
0
  6
CONTINUOUS
 62
     9
 10
-738.0734427527966
 20
682.862306509788
 30
0.0
  0
VERTEX
  5
5FE
  8
0
  6
CONTINUOUS
 62
     9
 10
-737.9036999938461
 20
682.983055090214
 30
0.0
  0
VERTEX
  5
5FF
  8
0
  6
CONTINUOUS
 62
     9
 10
-737.7646534448409
 20
683.1304603823804
 30
0.0
  0
VERTEX
  5
600
  8
0
  6
CONTINUOUS
 62
     9
 10
-737.6614705638972
 20
683.2990442879179
 30
0.0
  0
VERTEX
  5
601
  8
0
  6
CONTINUOUS
 62
     9
 10
-737.5979859892668
 20
683.482541636801
 30
0.0
  0
VERTEX
  5
602
  8
0
  6
CONTINUOUS
 62
     9
 10
-737.5765590307116
 20
683.6741330230712
 30
0.0
  0
SEQEND
  5
6B4
  8
0
  6
CONTINUOUS
 62
     9
  0
POLYLINE
  5
1C2
  8
0
  6
CONTINUOUS
 62
     9
 66
     1
 10
0.0
 20
0.0
 30
0.0
  0
VERTEX
  5
603
  8
0
  6
CONTINUOUS
 62
     9
 10
-737.5765590307116
 20
808.8258669769284
 30
0.0
  0
VERTEX
  5
604
  8
0
  6
CONTINUOUS
 62
     9
 10
-737.5979859892668
 20
809.0174583631987
 30
0.0
  0
VERTEX
  5
605
  8
0
  6
CONTINUOUS
 62
     9
 10
-737.6614705638972
 20
809.2009557120817
 30
0.0
  0
VERTEX
  5
606
  8
0
  6
CONTINUOUS
 62
     9
 10
-737.7646534448409
 20
809.3695396176192
 30
0.0
  0
VERTEX
  5
607
  8
0
  6
CONTINUOUS
 62
     9
 10
-737.9036999938461
 20
809.5169449097857
 30
0.0
  0
VERTEX
  5
608
  8
0
  6
CONTINUOUS
 62
     9
 10
-738.0734427527966
 20
809.6376934902116
 30
0.0
  0
VERTEX
  5
609
  8
0
  6
CONTINUOUS
 62
     9
 10
-738.2675734846041
 20
809.7272979175588
 30
0.0
  0
VERTEX
  5
60A
  8
0
  6
CONTINUOUS
 62
     9
 10
-738.4788776094542
 20
809.7824281766008
 30
0.0
  0
VERTEX
  5
60B
  8
0
  6
CONTINUOUS
 62
     9
 10
-738.6995023239315
 20
809.8010354332849
 30
0.0
  0
SEQEND
  5
6B5
  8
0
  6
CONTINUOUS
 62
     9
  0
POLYLINE
  5
1C3
  8
0
  6
CONTINUOUS
 62
     9
 66
     1
 10
0.0
 20
0.0
 30
0.0
  0
VERTEX
  5
60C
  8
0
  6
CONTINUOUS
 62
     9
 10
-738.6995023239315
 20
722.6989645667147
 30
0.0
  0
VERTEX
  5
60D
  8
0
  6
CONTINUOUS
 62
     9
 10
-738.4788776094542
 20
722.7175718233989
 30
0.0
  0
VERTEX
  5
60E
  8
0
  6
CONTINUOUS
 62
     9
 10
-738.2675734846041
 20
722.7727020824409
 30
0.0
  0
VERTEX
  5
60F
  8
0
  6
CONTINUOUS
 62
     9
 10
-738.0734427527966
 20
722.862306509788
 30
0.0
  0
VERTEX
  5
610
  8
0
  6
CONTINUOUS
 62
     9
 10
-737.9036999938461
 20
722.983055090214
 30
0.0
  0
VERTEX
  5
611
  8
0
  6
CONTINUOUS
 62
     9
 10
-737.7646534448409
 20
723.1304603823804
 30
0.0
  0
VERTEX
  5
612
  8
0
  6
CONTINUOUS
 62
     9
 10
-737.6614705638972
 20
723.2990442879179
 30
0.0
  0
VERTEX
  5
613
  8
0
  6
CONTINUOUS
 62
     9
 10
-737.5979859892668
 20
723.482541636801
 30
0.0
  0
VERTEX
  5
614
  8
0
  6
CONTINUOUS
 62
     9
 10
-737.5765590307116
 20
723.6741330230712
 30
0.0
  0
SEQEND
  5
6B6
  8
0
  6
CONTINUOUS
 62
     9
  0
POLYLINE
  5
1C4
  8
0
  6
CONTINUOUS
 62
     9
 66
     1
 10
0.0
 20
0.0
 30
0.0
  0
VERTEX
  5
615
  8
0
  6
CONTINUOUS
 62
     9
 10
-737.5765590307116
 20
688.8258669769285
 30
0.0
  0
VERTEX
  5
616
  8
0
  6
CONTINUOUS
 62
     9
 10
-737.5979859892668
 20
689.0174583631988
 30
0.0
  0
VERTEX
  5
617
  8
0
  6
CONTINUOUS
 62
     9
 10
-737.6614705638972
 20
689.2009557120818
 30
0.0
  0
VERTEX
  5
618
  8
0
  6
CONTINUOUS
 62
     9
 10
-737.7646534448409
 20
689.3695396176194
 30
0.0
  0
VERTEX
  5
619
  8
0
  6
CONTINUOUS
 62
     9
 10
-737.9036999938461
 20
689.5169449097857
 30
0.0
  0
VERTEX
  5
61A
  8
0
  6
CONTINUOUS
 62
     9
 10
-738.0734427527966
 20
689.6376934902116
 30
0.0
  0
VERTEX
  5
61B
  8
0
  6
CONTINUOUS
 62
     9
 10
-738.267573484604
 20
689.7272979175588
 30
0.0
  0
VERTEX
  5
61C
  8
0
  6
CONTINUOUS
 62
     9
 10
-738.4788776094541
 20
689.7824281766009
 30
0.0
  0
VERTEX
  5
61D
  8
0
  6
CONTINUOUS
 62
     9
 10
-738.6995023239315
 20
689.801035433285
 30
0.0
  0
SEQEND
  5
6B7
  8
0
  6
CONTINUOUS
 62
     9
  0
POLYLINE
  5
1C5
  8
0
  6
CONTINUOUS
 62
     9
 66
     1
 10
0.0
 20
0.0
 30
0.0
  0
VERTEX
  5
61E
  8
0
  6
CONTINUOUS
 62
     9
 10
-737.5765590307116
 20
848.8258669769285
 30
0.0
  0
VERTEX
  5
61F
  8
0
  6
CONTINUOUS
 62
     9
 10
-737.5979859892668
 20
849.0174583631988
 30
0.0
  0
VERTEX
  5
620
  8
0
  6
CONTINUOUS
 62
     9
 10
-737.6614705638972
 20
849.2009557120818
 30
0.0
  0
VERTEX
  5
621
  8
0
  6
CONTINUOUS
 62
     9
 10
-737.7646534448409
 20
849.3695396176194
 30
0.0
  0
VERTEX
  5
622
  8
0
  6
CONTINUOUS
 62
     9
 10
-737.9036999938461
 20
849.5169449097858
 30
0.0
  0
VERTEX
  5
623
  8
0
  6
CONTINUOUS
 62
     9
 10
-738.0734427527966
 20
849.6376934902117
 30
0.0
  0
VERTEX
  5
624
  8
0
  6
CONTINUOUS
 62
     9
 10
-738.2675734846041
 20
849.7272979175589
 30
0.0
  0
VERTEX
  5
625
  8
0
  6
CONTINUOUS
 62
     9
 10
-738.4788776094542
 20
849.7824281766009
 30
0.0
  0
VERTEX
  5
626
  8
0
  6
CONTINUOUS
 62
     9
 10
-738.6995023239315
 20
849.801035433285
 30
0.0
  0
SEQEND
  5
6B8
  8
0
  6
CONTINUOUS
 62
     9
  0
POLYLINE
  5
1C6
  8
0
  6
CONTINUOUS
 62
     9
 66
     1
 10
0.0
 20
0.0
 30
0.0
  0
VERTEX
  5
627
  8
0
  6
CONTINUOUS
 62
     9
 10
-738.6995023239315
 20
802.6989645667147
 30
0.0
  0
VERTEX
  5
628
  8
0
  6
CONTINUOUS
 62
     9
 10
-738.4788776094541
 20
802.7175718233989
 30
0.0
  0
VERTEX
  5
629
  8
0
  6
CONTINUOUS
 62
     9
 10
-738.267573484604
 20
802.772702082441
 30
0.0
  0
VERTEX
  5
62A
  8
0
  6
CONTINUOUS
 62
     9
 10
-738.0734427527966
 20
802.8623065097881
 30
0.0
  0
VERTEX
  5
62B
  8
0
  6
CONTINUOUS
 62
     9
 10
-737.9036999938461
 20
802.9830550902141
 30
0.0
  0
VERTEX
  5
62C
  8
0
  6
CONTINUOUS
 62
     9
 10
-737.7646534448409
 20
803.1304603823804
 30
0.0
  0
VERTEX
  5
62D
  8
0
  6
CONTINUOUS
 62
     9
 10
-737.6614705638972
 20
803.2990442879179
 30
0.0
  0
VERTEX
  5
62E
  8
0
  6
CONTINUOUS
 62
     9
 10
-737.5979859892668
 20
803.482541636801
 30
0.0
  0
VERTEX
  5
62F
  8
0
  6
CONTINUOUS
 62
     9
 10
-737.5765590307116
 20
803.6741330230712
 30
0.0
  0
SEQEND
  5
6B9
  8
0
  6
CONTINUOUS
 62
     9
  0
POLYLINE
  5
1C7
  8
0
  6
CONTINUOUS
 62
     9
 66
     1
 10
0.0
 20
0.0
 30
0.0
  0
VERTEX
  5
630
  8
0
  6
CONTINUOUS
 62
     9
 10
-737.5765590307116
 20
728.8258669769286
 30
0.0
  0
VERTEX
  5
631
  8
0
  6
CONTINUOUS
 62
     9
 10
-737.5979859892668
 20
729.0174583631989
 30
0.0
  0
VERTEX
  5
632
  8
0
  6
CONTINUOUS
 62
     9
 10
-737.6614705638972
 20
729.200955712082
 30
0.0
  0
VERTEX
  5
633
  8
0
  6
CONTINUOUS
 62
     9
 10
-737.7646534448409
 20
729.3695396176195
 30
0.0
  0
VERTEX
  5
634
  8
0
  6
CONTINUOUS
 62
     9
 10
-737.9036999938461
 20
729.5169449097858
 30
0.0
  0
VERTEX
  5
635
  8
0
  6
CONTINUOUS
 62
     9
 10
-738.0734427527966
 20
729.6376934902117
 30
0.0
  0
VERTEX
  5
636
  8
0
  6
CONTINUOUS
 62
     9
 10
-738.267573484604
 20
729.7272979175589
 30
0.0
  0
VERTEX
  5
637
  8
0
  6
CONTINUOUS
 62
     9
 10
-738.4788776094541
 20
729.782428176601
 30
0.0
  0
VERTEX
  5
638
  8
0
  6
CONTINUOUS
 62
     9
 10
-738.6995023239315
 20
729.8010354332852
 30
0.0
  0
SEQEND
  5
6BA
  8
0
  6
CONTINUOUS
 62
     9
  0
POLYLINE
  5
1C8
  8
0
  6
CONTINUOUS
 62
     9
 66
     1
 10
0.0
 20
0.0
 30
0.0
  0
VERTEX
  5
639
  8
0
  6
CONTINUOUS
 62
     9
 10
-738.6995023239315
 20
842.6989645667146
 30
0.0
  0
VERTEX
  5
63A
  8
0
  6
CONTINUOUS
 62
     9
 10
-738.4788776094541
 20
842.7175718233988
 30
0.0
  0
VERTEX
  5
63B
  8
0
  6
CONTINUOUS
 62
     9
 10
-738.267573484604
 20
842.7727020824409
 30
0.0
  0
VERTEX
  5
63C
  8
0
  6
CONTINUOUS
 62
     9
 10
-738.0734427527966
 20
842.862306509788
 30
0.0
  0
VERTEX
  5
63D
  8
0
  6
CONTINUOUS
 62
     9
 10
-737.9036999938461
 20
842.983055090214
 30
0.0
  0
VERTEX
  5
63E
  8
0
  6
CONTINUOUS
 62
     9
 10
-737.7646534448409
 20
843.1304603823803
 30
0.0
  0
VERTEX
  5
63F
  8
0
  6
CONTINUOUS
 62
     9
 10
-737.6614705638972
 20
843.2990442879178
 30
0.0
  0
VERTEX
  5
640
  8
0
  6
CONTINUOUS
 62
     9
 10
-737.5979859892668
 20
843.4825416368009
 30
0.0
  0
VERTEX
  5
641
  8
0
  6
CONTINUOUS
 62
     9
 10
-737.5765590307116
 20
843.6741330230711
 30
0.0
  0
SEQEND
  5
6BB
  8
0
  6
CONTINUOUS
 62
     9
  0
LINE
  5
1C9
  8
0
  6
CONTINUOUS
 62
     9
 10
-737.5765590307116
 20
683.6741330230712
 30
0.0
 11
-737.5765590307116
 21
688.8258669769286
 31
0.0
  0
LINE
  5
1CA
  8
0
  6
CONTINUOUS
 62
     9
 10
-737.5765590307116
 20
723.6741330230711
 30
0.0
 11
-737.5765590307115
 21
728.8258669769286
 31
0.0
  0
LINE
  5
1CB
  8
0
  6
CONTINUOUS
 62
     9
 10
-737.5765590307116
 20
808.8258669769286
 30
0.0
 11
-737.5765590307115
 21
803.6741330230711
 31
0.0
  0
LINE
  5
1CC
  8
0
  6
CONTINUOUS
 62
     9
 10
-737.5765590307115
 20
848.8258669769286
 30
0.0
 11
-737.5765590307115
 21
843.6741330230711
 31
0.0
  0
LINE
  5
1CD
  8
0
  6
CONTINUOUS
 62
     9
 10
-690.2012382128551
 20
747.2026948942835
 30
0.0
 11
-690.0000000000002
 21
745.4527567453522
 31
0.0
  0
LINE
  5
1CE
  8
0
  6
CONTINUOUS
 62
     9
 10
-690.2012382128551
 20
785.2973051057164
 30
0.0
 11
-690.0000000000002
 21
787.0472432546476
 31
0.0
  0
LINE
  5
1CF
  8
0
  6
CONTINUOUS
 62
     7
 10
-690.0000000000002
 20
775.0968139481571
 30
0.0
 11
-690.0000000000002
 21
787.0472432546476
 31
0.0
  0
LINE
  5
1D0
  8
0
  6
CONTINUOUS
 62
     7
 10
-690.0000000000002
 20
757.4031860518427
 30
0.0
 11
-690.0000000000002
 21
745.4527567453522
 31
0.0
  0
ARC
  5
1D1
  8
0
  6
CONTINUOUS
 62
     7
 10
-799.0000000000002
 20
640.2543443947023
 30
0.0
 40
0.500000000000056
 50
90.50000000000011
 51
180.0
  0
ARC
  5
1D2
  8
0
  6
CONTINUOUS
 62
     7
 10
-799.0000000000002
 20
892.2456556052973
 30
0.0
 40
0.4999999999999449
 50
180.0
 51
269.4999999999999
  0
LINE
  5
1D3
  8
0
  6
CONTINUOUS
 62
     7
 10
-774.4999999999999
 20
640.9681716947688
 30
0.0
 11
-774.499761484332
 21
640.9681841948453
 31
0.0
  0
LINE
  5
1D4
  8
0
  6
CONTINUOUS
 62
     7
 10
-799.0043632677495
 20
640.7543253562344
 30
0.0
 11
-774.5
 21
640.9681716947688
 31
0.0
  0
LINE
  5
1D5
  8
0
  6
CONTINUOUS
 62
     7
 10
-774.4999999999999
 20
891.5318283052309
 30
0.0
 11
-774.499761484332
 21
891.5318158051543
 31
0.0
  0
LINE
  5
1D6
  8
0
  6
CONTINUOUS
 62
     7
 10
-799.0043632677495
 20
891.7456746437653
 30
0.0
 11
-774.5
 21
891.5318283052309
 31
0.0
  0
LINE
  5
1D7
  8
0
  6
CONTINUOUS
 62
     7
 10
-690.0000000000002
 20
775.0968139481571
 30
0.0
 11
-690.0000000000002
 21
757.4031860518427
 31
0.0
  0
LINE
  5
1D8
  8
0
  6
CONTINUOUS
 62
     7
 10
-774.499761484332
 20
640.9681841948453
 30
0.0
 11
-697.5813123500567
 21
644.9993092998683
 31
0.0
  0
LINE
  5
1D9
  8
0
  6
CONTINUOUS
 62
     7
 10
-774.499761484332
 20
891.5318158051543
 30
0.0
 11
-697.5813123500567
 21
887.5006907001315
 31
0.0
  0
LINE
  5
1DA
  8
0
  6
CONTINUOUS
 62
     7
 10
-690.0000000000002
 20
669.0803683652119
 30
0.0
 11
-690.0000000000002
 21
657.096813948157
 31
0.0
  0
LINE
  5
1DB
  8
0
  6
CONTINUOUS
 62
     7
 10
-690.0000000000002
 20
863.4196316347878
 30
0.0
 11
-690.0000000000002
 21
875.4031860518427
 31
0.0
  0
LINE
  5
1DC
  8
0
  6
CONTINUOUS
 62
     7
 10
-690.0000000000002
 20
652.9883455779049
 30
0.0
 11
-690.0000000000002
 21
657.096813948157
 31
0.0
  0
ARC
  5
1DD
  8
0
  6
CONTINUOUS
 62
     7
 10
-698.0000000000002
 20
652.9883455779049
 30
0.0
 40
7.999999999999996
 50
273.0000000000001
 51
0.0
  0
LINE
  5
1DE
  8
0
  6
CONTINUOUS
 62
     7
 10
-690.0000000000002
 20
879.5116544220949
 30
0.0
 11
-690.0000000000002
 21
875.4031860518427
 31
0.0
  0
ARC
  5
1DF
  8
0
  6
CONTINUOUS
 62
     7
 10
-698.0000000000002
 20
879.5116544220949
 30
0.0
 40
7.999999999999996
 50
0.0
 51
86.99999999999989
  0
LINE
  5
1E0
  8
0
  6
CONTINUOUS
 62
     7
 10
-685.0000000000002
 20
705.0201619220079
 30
0.0
 11
-685.0000000000002
 21
711.3754013652709
 31
0.0
  0
LINE
  5
1E1
  8
0
  6
CONTINUOUS
 62
     7
 10
-685.0000000000002
 20
821.1245986347287
 30
0.0
 11
-685.0000000000002
 21
711.3754013652709
 31
0.0
  0
LINE
  5
1E2
  8
0
  6
CONTINUOUS
 62
     7
 10
-685.0000000000002
 20
827.479838077992
 30
0.0
 11
-685.0000000000002
 21
821.1245986347287
 31
0.0
  0
LINE
  5
1E3
  8
0
  6
CONTINUOUS
 62
     7
 10
-685.0000000000002
 20
670.093429832658
 30
0.0
 11
-685.0000000000002
 21
705.0201619220079
 31
0.0
  0
LINE
  5
1E4
  8
0
  6
CONTINUOUS
 62
     7
 10
-685.0000000000002
 20
862.4065701673418
 30
0.0
 11
-685.0000000000002
 21
827.4798380779919
 31
0.0
  0
LINE
  5
1E5
  8
0
  6
CONTINUOUS
 62
     7
 10
-680.0000000000002
 20
840.0389965368697
 30
0.0
 11
-680.0000000000002
 21
692.4610034631298
 31
0.0
  0
ARC
  5
1E6
  8
0
  6
CONTINUOUS
 62
     7
 10
-689.0000000000002
 20
665.3010354332849
 30
0.0
 40
1.000000000000001
 50
93.00000000000097
 51
180.0
  0
ARC
  5
1E7
  8
0
  6
CONTINUOUS
 62
     7
 10
-689.0000000000002
 20
867.1989645667147
 30
0.0
 40
1.000000000000001
 50
180.0
 51
266.999999999999
  0
LINE
  5
1E8
  8
0
  6
CONTINUOUS
 62
     7
 10
-689.0523359562433
 20
666.2996649680396
 30
0.0
 11
-685.9476640437573
 21
666.4623739283753
 31
0.0
  0
LINE
  5
1E9
  8
0
  6
CONTINUOUS
 62
     7
 10
-689.0523359562433
 20
866.2003350319601
 30
0.0
 11
-685.9476640437573
 21
866.0376260716243
 31
0.0
  0
ARC
  5
1EA
  8
0
  6
CONTINUOUS
 62
     7
 10
-686.0000000000002
 20
667.4610034631299
 30
0.0
 40
1.000000000000031
 50
273.0000000000001
 51
359.9999999999991
  0
LINE
  5
1EB
  8
0
  6
CONTINUOUS
 62
     7
 10
-685.0000000000002
 20
667.4610034631299
 30
0.0
 11
-685.0000000000002
 21
670.093429832658
 31
0.0
  0
ARC
  5
1EC
  8
0
  6
CONTINUOUS
 62
     7
 10
-686.0000000000002
 20
865.0389965368697
 30
0.0
 40
1.000000000000031
 50
0.0000000000007958
 51
86.99999999999989
  0
LINE
  5
1ED
  8
0
  6
CONTINUOUS
 62
     7
 10
-685.0000000000002
 20
865.0389965368697
 30
0.0
 11
-685.0000000000002
 21
862.4065701673418
 31
0.0
  0
LINE
  5
1EE
  8
0
  6
CONTINUOUS
 62
     7
 10
-774.499761484332
 20
640.9681841948453
 30
0.0
 11
-774.4999999999999
 21
640.9681716947688
 31
0.0
  0
LINE
  5
1EF
  8
0
  6
CONTINUOUS
 62
     7
 10
-774.499761484332
 20
891.5318158051543
 30
0.0
 11
-774.4999999999999
 21
891.5318283052309
 31
0.0
  0
ARC
  5
1F0
  8
0
  6
CONTINUOUS
 62
     7
 10
-799.0000000000002
 20
760.758651368442
 30
0.0
 40
0.4999999999999449
 50
91.00000000000477
 51
179.9999999999992
  0
ARC
  5
1F1
  8
0
  6
CONTINUOUS
 62
     7
 10
-799.0000000000002
 20
771.7413486315577
 30
0.0
 40
0.5000000000000481
 50
180.0000000000008
 51
268.9999999999952
  0
LINE
  5
1F2
  8
0
  6
CONTINUOUS
 62
     7
 10
-799.0087262032189
 20
761.2585752160203
 30
0.0
 11
-790.9738213903443
 21
761.398825001221
 31
0.0
  0
LINE
  5
1F3
  8
0
  6
CONTINUOUS
 62
     7
 10
-790.9738213903443
 20
771.1011749987787
 30
0.0
 11
-799.0087262032189
 21
771.2414247839795
 31
0.0
  0
ARC
  5
1F4
  8
0
  6
CONTINUOUS
 62
     7
 10
-791.0000000000002
 20
769.6014034560442
 30
0.0
 40
1.500000000000057
 50
359.9999999999998
 51
88.99999999999784
  0
ARC
  5
1F5
  8
0
  6
CONTINUOUS
 62
     7
 10
-791.0000000000002
 20
762.8985965439556
 30
0.0
 40
1.500000000000033
 50
271.0000000000022
 51
0.0000000000001137
  0
ARC
  5
1F6
  8
0
  6
CONTINUOUS
 62
     7
 10
-684.0000000000002
 20
690.301035433285
 30
0.0
 40
1.000000000000001
 50
93.00000000000011
 51
180.0
  0
ARC
  5
1F7
  8
0
  6
CONTINUOUS
 62
     7
 10
-684.0000000000002
 20
842.1989645667147
 30
0.0
 40
1.000000000000025
 50
180.0
 51
266.9999999999998
  0
LINE
  5
1F8
  8
0
  6
CONTINUOUS
 62
     7
 10
-684.0523359562432
 20
691.2996649680395
 30
0.0
 11
-680.9476640437573
 21
691.4623739283754
 31
0.0
  0
LINE
  5
1F9
  8
0
  6
CONTINUOUS
 62
     7
 10
-680.9476640437573
 20
841.0376260716243
 30
0.0
 11
-684.0523359562432
 21
841.2003350319601
 31
0.0
  0
ARC
  5
1FA
  8
0
  6
CONTINUOUS
 62
     7
 10
-681.0000000000002
 20
692.4610034631298
 30
0.0
 40
0.99999999999992
 50
273.0000000000017
 51
0.0
  0
ARC
  5
1FB
  8
0
  6
CONTINUOUS
 62
     7
 10
-681.0000000000002
 20
840.0389965368697
 30
0.0
 40
1.000000000000001
 50
0.0
 51
86.9999999999983
  0
ENDBLK
  8
0
  0
ENDSEC
  0
SECTION
  2
ENTITIES
  0
POINT
  5
6F
  8
0
 62
     1
 10
-1037.5
 20
766.2499999999999
 30
0.0
  0
INSERT
  5
150
  8
0
  6
CONTINUOUS
 62
     7
  2
D_FRAME_VIEW_1330
 10
0.0
 20
0.0
 30
0.0
  0
LINE
  5
151
  8
0
  6
CONTINUOUS
 62
     9
 10
-1138.66414977386
 20
645.4986240672456
 30
0.0
 11
-1054.335850226194
 21
645.4986240672456
 31
0.0
  0
LINE
  5
152
  8
0
  6
CONTINUOUS
 62
     9
 10
-1158.251375932754
 20
783.0858502261124
 30
0.0
 11
-1158.251375932754
 21
867.414149773806
 31
0.0
  0
LINE
  5
153
  8
0
  6
CONTINUOUS
 62
     9
 10
-916.7486240672457
 20
749.414149773806
 30
0.0
 11
-916.7486240672457
 21
665.0858502261904
 31
0.0
  0
LINE
  5
154
  8
0
  6
CONTINUOUS
 62
     9
 10
-916.7486240672457
 20
783.0858502261821
 30
0.0
 11
-916.7486240672457
 21
867.4141497738061
 31
0.0
  0
LINE
  5
155
  8
0
  6
CONTINUOUS
 62
     9
 10
-1138.664149773806
 20
887.0013759327542
 30
0.0
 11
-1054.335850226194
 21
887.0013759327542
 31
0.0
  0
LINE
  5
156
  8
0
  6
CONTINUOUS
 62
     9
 10
-936.3358502261533
 20
887.0013759327542
 30
0.0
 11
-1020.664149773806
 21
887.0013759327542
 31
0.0
  0
LINE
  5
157
  8
0
  6
CONTINUOUS
 62
     9
 10
-936.3358502261938
 20
645.4986240672456
 30
0.0
 11
-1020.664149773806
 21
645.4986240672456
 31
0.0
  0
LINE
  5
158
  8
0
  6
CONTINUOUS
 62
     9
 10
-1158.251375932754
 20
749.4141497738871
 30
0.0
 11
-1158.251375932754
 21
665.0858502261935
 31
0.0
  0
INSERT
  5
1FC
  8
0
  6
CONTINUOUS
 62
     7
  2
D_FRAME_VIEW_4144
 10
0.0
 20
0.0
 30
0.0
  0
LINE
  5
1FD
  8
0
  6
CENTER
 62
     1
 10
-799.780381287051
 20
766.2499999999999
 30
0.0
 11
-678.7563734269404
 21
766.2499999999999
 31
0.0
  0
LINE
  5
1FF
  8
0
  6
CENTER
 62
    10
 10
-865.0000000000001
 20
766.2499999999999
 30
0.0
 11
-1230.0
 21
766.2499999999999
 31
0.0
  0
LINE
  5
200
  8
0
  6
CENTER
 62
    10
 10
-1037.5
 20
593.7499999999999
 30
0.0
 11
-1037.5
 21
938.7499999999998
 31
0.0
  0
CIRCLE
  5
201
  8
0
  6
CENTER
 62
     1
 10
-1037.5
 20
766.2499999999999
 30
0.0
 40
40.0
  0
LINE
  5
202
  8
0
  6
CENTER
 62
     1
 10
-739.9820600034976
 20
673.2264883702616
 30
0.0
 11
-739.9820600034976
 21
699.2678466254621
 31
0.0
  0
LINE
  5
203
  8
0
  6
CENTER
 62
     1
 10
-753.0027391310982
 20
806.2528325021357
 30
0.0
 11
-726.9613808758975
 21
806.2528325021357
 31
0.0
  0
LINE
  5
204
  8
0
  6
CENTER
 62
     1
 10
-739.9820600034976
 20
833.2321533745377
 30
0.0
 11
-739.9820600034976
 21
859.2735116297383
 31
0.0
  0
LINE
  5
205
  8
0
  6
CENTER
 62
     1
 10
-753.0027391310979
 20
686.2471674978618
 30
0.0
 11
-726.9613808758974
 21
686.2471674978618
 31
0.0
  0
LINE
  5
206
  8
0
  6
CENTER
 62
     1
 10
-753.0027391310982
 20
726.2471674978641
 30
0.0
 11
-726.9613808758975
 21
726.2471674978641
 31
0.0
  0
LINE
  5
207
  8
0
  6
CENTER
 62
     1
 10
-753.0027391310979
 20
846.252832502138
 30
0.0
 11
-726.9613808758974
 21
846.252832502138
 31
0.0
  0
LINE
  5
208
  8
0
  6
CENTER
 62
     1
 10
-739.9820600034978
 20
793.2321533745352
 30
0.0
 11
-739.9820600034978
 21
819.273511629736
 31
0.0
  0
LINE
  5
209
  8
0
  6
CENTER
 62
     1
 10
-739.9820600034978
 20
713.2264883702637
 30
0.0
 11
-739.9820600034978
 21
739.2678466254645
 31
0.0
  0
TEXT
  5
20A
  8
0
  6
CONTINUOUS
 62
     7
 10
-978.5235869701138
 20
578.7159090909089
 30
0.0
 40
5.0
  1
ＤＬＣ－２５１２ＳＡ－Ｎ
  0
ENDSEC
  0
EOF
