  0
SECTION
  2
HEADER
  9
$ACADVER
  1
AC1006
  9
$DWGCODEPAGE
  3
ansi_932
  9
$INSBASE
 10
0.0
 20
0.0
 30
0.0
  9
$EXTMIN
 10
-1204.5
 20
559.2386363636361
  9
$EXTMAX
 10
-678.6763734269404
 20
938.9999999999997
  9
$LIMMIN
 10
0.0
 20
0.0
  9
$LIMMAX
 10
12.0
 20
9.0
  9
$ORTHOMODE
 70
     0
  9
$REGENMODE
 70
     1
  9
$FILLMODE
 70
     1
  9
$QTEXTMODE
 70
     0
  9
$MIRRTEXT
 70
     1
  9
$DRAGMODE
 70
     2
  9
$LTSCALE
 40
1.0
  9
$OSMODE
 70
    37
  9
$ATTMODE
 70
     1
  9
$TEXTSIZE
 40
0.2
  9
$TRACEWID
 40
0.05
  9
$TEXTSTYLE
  7
STANDARD
  9
$CLAYER
  8
0
  9
$CELTYPE
  6
BYLAYER
  9
$CECOLOR
 62
   256
  9
$DIMSCALE
 40
1.0
  9
$DIMASZ
 40
3.0
  9
$DIMEXO
 40
0.0625
  9
$DIMDLI
 40
0.38
  9
$DIMRND
 40
0.0
  9
$DIMDLE
 40
0.0
  9
$DIMEXE
 40
1.5
  9
$DIMTP
 40
0.0
  9
$DIMTM
 40
0.0
  9
$DIMTXT
 40
3.0
  9
$DIMCEN
 40
0.09
  9
$DIMTSZ
 40
0.0
  9
$DIMTOL
 70
     0
  9
$DIMLIM
 70
     0
  9
$DIMTIH
 70
     1
  9
$DIMTOH
 70
     1
  9
$DIMSE1
 70
     0
  9
$DIMSE2
 70
     0
  9
$DIMTAD
 70
     1
  9
$DIMZIN
 70
     0
  9
$DIMBLK
  1

  9
$DIMASO
 70
     1
  9
$DIMSHO
 70
     1
  9
$DIMPOST
  1

  9
$DIMAPOST
  1

  9
$DIMALT
 70
     0
  9
$DIMALTD
 70
     2
  9
$DIMALTF
 40
25.4
  9
$DIMLFAC
 40
1.0
  9
$DIMTOFL
 70
     0
  9
$DIMTVP
 40
0.0
  9
$DIMTIX
 70
     0
  9
$DIMSOXD
 70
     0
  9
$DIMSAH
 70
     0
  9
$DIMBLK1
  1

  9
$DIMBLK2
  1

  9
$LUNITS
 70
     2
  9
$LUPREC
 70
     4
  9
$SKETCHINC
 40
0.1
  9
$FILLETRAD
 40
0.5
  9
$AUNITS
 70
     0
  9
$AUPREC
 70
     0
  9
$MENU
  1
.
  9
$ELEVATION
 40
0.0
  9
$THICKNESS
 40
0.0
  9
$LIMCHECK
 70
     0
  9
$CHAMFERA
 40
0.0
  9
$CHAMFERB
 40
0.0
  9
$SKPOLY
 70
     0
  9
$TDCREATE
 40
2460455.384758241
  9
$TDUPDATE
 40
2460455.384758738
  9
$TDINDWG
 40
0.0000000116
  9
$TDUSRTIMER
 40
0.0000000116
  9
$USRTIMER
 70
     1
  9
$ANGBASE
 50
0.0
  9
$ANGDIR
 70
     0
  9
$PDMODE
 70
     0
  9
$PDSIZE
 40
0.0
  9
$PLINEWID
 40
0.0
  9
$COORDS
 70
     1
  9
$SPLFRAME
 70
     0
  9
$SPLINETYPE
 70
     6
  9
$SPLINESEGS
 70
     8
  9
$ATTDIA
 70
     0
  9
$ATTREQ
 70
     1
  9
$HANDLING
 70
     1
  9
$HANDSEED
  5
6DA
  9
$SURFTAB1
 70
     6
  9
$SURFTAB2
 70
     6
  9
$SURFTYPE
 70
     6
  9
$SURFU
 70
     6
  9
$SURFV
 70
     6
  9
$UCSNAME
  2

  9
$UCSORG
 10
0.0
 20
0.0
 30
0.0
  9
$UCSXDIR
 10
1.0
 20
0.0
 30
0.0
  9
$UCSYDIR
 10
0.0
 20
1.0
 30
0.0
  9
$USERI1
 70
     0
  9
$USERI2
 70
     0
  9
$USERI3
 70
     0
  9
$USERI4
 70
     0
  9
$USERI5
 70
     0
  9
$USERR1
 40
0.0
  9
$USERR2
 40
0.0
  9
$USERR3
 40
0.0
  9
$USERR4
 40
0.0
  9
$USERR5
 40
0.0
  9
$WORLDVIEW
 70
     1
  0
ENDSEC
  0
SECTION
  2
TABLES
  0
TABLE
  2
VPORT
 70
     1
  0
VPORT
  2
*ACTIVE
 70
     0
 10
0.0
 20
0.0
 11
1.0
 21
1.0
 12
-941.5881867134699
 22
749.1193181818179
 13
0.0
 23
0.0
 14
0.5
 24
0.5
 15
0.5
 25
0.5
 16
0.0
 26
0.0
 36
1.0
 17
0.0
 27
0.0
 37
0.0
 40
379.7613636363635
 41
1.6
 42
50.0
 43
0.0
 44
0.0
 50
0.0
 51
0.0
 71
     0
 72
   100
 73
     1
 74
     3
 75
     0
 76
     0
 77
     0
 78
     0
  0
ENDTAB
  0
TABLE
  2
LTYPE
 70
     2
  0
LTYPE
  2
CONTINUOUS
 70
     0
  3
Solid line
 72
    65
 73
     0
 40
0.0
  0
LTYPE
  2
CENTER
 70
     0
  3

 72
    65
 73
     0
 40
0.0
  0
ENDTAB
  0
TABLE
  2
LAYER
 70
     1
  0
LAYER
  2
0
 70
     0
 62
     7
  6
CONTINUOUS
  0
ENDTAB
  0
TABLE
  2
STYLE
 70
     2
  0
STYLE
  2
STANDARD
 70
     0
 40
0.0
 41
1.0
 50
0.0
 71
     0
 42
0.2
  3
txt
  4

  0
STYLE
  2
ＭＳ_ゴシック
 70
     0
 40
0.0
 41
1.0
 50
0.0
 71
     0
 42
0.2
  3
ＭＳ ゴシック.shx
  4

  0
ENDTAB
  0
TABLE
  2
VIEW
 70
     0
  0
ENDTAB
  0
TABLE
  2
UCS
 70
     0
  0
ENDTAB
  0
ENDSEC
  0
SECTION
  2
BLOCKS
  0
BLOCK
  8
0
  2
D_FRAME_VIEW_1330
 70
     0
 10
0.0
 20
0.0
 30
0.0
  0
ARC
  5
71
  8
0
  6
CONTINUOUS
 62
     7
 10
-1162.5
 20
933.9999999999997
 30
0.0
 40
4.999999999999893
 50
0.000000000000007
 51
90.0
  0
LINE
  5
72
  8
0
  6
CONTINUOUS
 62
     7
 10
-1157.5
 20
923.9999999999997
 30
0.0
 11
-1157.5
 21
933.9999999999997
 31
0.0
  0
ARC
  5
73
  8
0
  6
CONTINUOUS
 62
     7
 10
-1152.5
 20
923.9999999999997
 30
0.0
 40
4.999999999999893
 50
180.0
 51
270.0000000000052
  0
LINE
  5
74
  8
0
  6
CONTINUOUS
 62
     7
 10
-897.5
 20
918.9999999999998
 30
0.0
 11
-1152.499999999999
 21
918.9999999999998
 31
0.0
  0
ARC
  5
75
  8
0
  6
CONTINUOUS
 62
     7
 10
-897.5
 20
898.9999999999998
 30
0.0
 40
20.00000000000002
 50
359.9999999999997
 51
89.99999999999994
  0
LINE
  5
76
  8
0
  6
CONTINUOUS
 62
     7
 10
-877.4999999999999
 20
618.9999999999999
 30
0.0
 11
-877.4999999999999
 21
898.9999999999997
 31
0.0
  0
ARC
  5
77
  8
0
  6
CONTINUOUS
 62
     7
 10
-897.4999999999999
 20
618.9999999999999
 30
0.0
 40
20.00000000000002
 50
269.9999999999987
 51
0.0
  0
LINE
  5
78
  8
0
  6
CONTINUOUS
 62
     7
 10
-1177.5
 20
598.9999999999998
 30
0.0
 11
-897.5000000000002
 21
598.9999999999999
 31
0.0
  0
ARC
  5
79
  8
0
  6
CONTINUOUS
 62
     7
 10
-1177.5
 20
618.9999999999998
 30
0.0
 40
20.00000000000002
 50
179.9999999999997
 51
269.9999999999999
  0
LINE
  5
7A
  8
0
  6
CONTINUOUS
 62
     7
 10
-1197.5
 20
933.9999999999997
 30
0.0
 11
-1197.5
 21
619.0
 31
0.0
  0
ARC
  5
7B
  8
0
  6
CONTINUOUS
 62
     7
 10
-1192.5
 20
933.9999999999997
 30
0.0
 40
5.000000000000004
 50
89.99999999999936
 51
180.0
  0
LINE
  5
7C
  8
0
  6
CONTINUOUS
 62
     7
 10
-1162.5
 20
938.9999999999997
 30
0.0
 11
-1192.5
 21
938.9999999999997
 31
0.0
  0
ARC
  5
7D
  8
0
  6
CONTINUOUS
 62
     7
 10
-909.5000000000009
 20
886.9999999999991
 30
0.0
 40
2.000000000000002
 50
0.0
 51
90.0
  0
LINE
  5
7E
  8
0
  6
CONTINUOUS
 62
     7
 10
-909.5000000000009
 20
888.9999999999991
 30
0.0
 11
-1165.500000000002
 21
888.9999999999991
 31
0.0
  0
ARC
  5
7F
  8
0
  6
CONTINUOUS
 62
     7
 10
-1165.500000000002
 20
886.9999999999991
 30
0.0
 40
2.000000000000002
 50
90.0
 51
180.0
  0
LINE
  5
80
  8
0
  6
CONTINUOUS
 62
     7
 10
-1167.500000000002
 20
886.9999999999991
 30
0.0
 11
-1167.500000000002
 21
630.9999999999975
 31
0.0
  0
ARC
  5
81
  8
0
  6
CONTINUOUS
 62
     7
 10
-1165.500000000002
 20
630.9999999999975
 30
0.0
 40
2.000000000000002
 50
180.0
 51
270.0
  0
LINE
  5
82
  8
0
  6
CONTINUOUS
 62
     7
 10
-1165.500000000002
 20
628.9999999999975
 30
0.0
 11
-909.5000000000008
 21
628.9999999999975
 31
0.0
  0
ARC
  5
83
  8
0
  6
CONTINUOUS
 62
     7
 10
-909.5000000000008
 20
630.9999999999975
 30
0.0
 40
2.000000000000002
 50
270.0
 51
0.0
  0
LINE
  5
84
  8
0
  6
CONTINUOUS
 62
     7
 10
-907.5000000000008
 20
630.9999999999975
 30
0.0
 11
-907.5000000000009
 21
886.9999999999991
 31
0.0
  0
ARC
  5
85
  8
0
  6
CONTINUOUS
 62
     7
 10
-892.0000000000001
 20
904.5000000000001
 30
0.0
 40
20.00000000000002
 50
0.000000000000007
 51
90.0
  0
LINE
  5
86
  8
0
  6
CONTINUOUS
 62
     7
 10
-872.0000000000001
 20
759.0
 30
0.0
 11
-872.0000000000001
 21
904.5000000000001
 31
0.0
  0
LINE
  5
87
  8
0
  6
CONTINUOUS
 62
     9
 10
-872.0000000000001
 20
759.0
 30
0.0
 11
-877.4999999999999
 21
759.0
 31
0.0
  0
LINE
  5
88
  8
0
  6
CONTINUOUS
 62
     7
 10
-872.0000000000001
 20
613.5
 30
0.0
 11
-872.0000000000001
 21
759.0
 31
0.0
  0
ARC
  5
89
  8
0
  6
CONTINUOUS
 62
     7
 10
-892.0
 20
613.5
 30
0.0
 40
19.99999999999991
 50
270.0
 51
0.0
  0
LINE
  5
8A
  8
0
  6
CONTINUOUS
 62
     7
 10
-892.0
 20
593.5
 30
0.0
 11
-1037.5
 21
593.5
 31
0.0
  0
LINE
  5
8B
  8
0
  6
CONTINUOUS
 62
     9
 10
-1037.5
 20
593.5
 30
0.0
 11
-1037.5
 21
598.9999999999999
 31
0.0
  0
LINE
  5
8C
  8
0
  6
CONTINUOUS
 62
     7
 10
-1037.5
 20
593.5
 30
0.0
 11
-1183.0
 21
593.4999999999999
 31
0.0
  0
ARC
  5
8D
  8
0
  6
CONTINUOUS
 62
     7
 10
-1183.0
 20
613.4999999999999
 30
0.0
 40
20.00000000000002
 50
180.0
 51
270.0
  0
LINE
  5
8E
  8
0
  6
CONTINUOUS
 62
     7
 10
-1203.0
 20
613.4999999999999
 30
0.0
 11
-1203.0
 21
759.0
 31
0.0
  0
LINE
  5
8F
  8
0
  6
CONTINUOUS
 62
     9
 10
-1203.0
 20
759.0
 30
0.0
 11
-1197.5
 21
759.0
 31
0.0
  0
LINE
  5
90
  8
0
  6
CONTINUOUS
 62
     7
 10
-1203.0
 20
759.0
 30
0.0
 11
-1203.0
 21
904.5
 31
0.0
  0
ARC
  5
91
  8
0
  6
CONTINUOUS
 62
     7
 10
-1183.0
 20
904.5
 30
0.0
 40
20.00000000000002
 50
136.4688478326257
 51
180.0
  0
LINE
  5
92
  8
0
  6
CONTINUOUS
 62
     7
 10
-1037.5
 20
924.5
 30
0.0
 11
-1157.5
 21
924.5
 31
0.0
  0
LINE
  5
93
  8
0
  6
CONTINUOUS
 62
     9
 10
-1037.5
 20
924.5
 30
0.0
 11
-1037.5
 21
918.9999999999998
 31
0.0
  0
LINE
  5
94
  8
0
  6
CONTINUOUS
 62
     7
 10
-892.0000000000001
 20
924.5000000000001
 30
0.0
 11
-1037.5
 21
924.5
 31
0.0
  0
LINE
  5
95
  8
0
  6
CONTINUOUS
 62
     9
 10
-1025.970364748925
 20
634.0043063177667
 30
0.0
 11
-931.0296352510749
 21
634.0043063177667
 31
0.0
  0
POLYLINE
  5
96
  8
0
  6
CONTINUOUS
 62
     9
 66
     1
 10
0.0
 20
0.0
 30
0.0
  0
VERTEX
  5
230
  8
0
  6
CONTINUOUS
 62
     9
 10
-1029.475852748603
 20
637.5024604670697
 30
0.0
  0
VERTEX
  5
231
  8
0
  6
CONTINUOUS
 62
     9
 10
-1029.408584247379
 20
636.8198390477797
 30
0.0
  0
VERTEX
  5
232
  8
0
  6
CONTINUOUS
 62
     9
 10
-1029.209184431548
 20
636.1635141210996
 30
0.0
  0
VERTEX
  5
233
  8
0
  6
CONTINUOUS
 62
     9
 10
-1028.885311683213
 20
635.5586932683485
 30
0.0
  0
VERTEX
  5
234
  8
0
  6
CONTINUOUS
 62
     9
 10
-1028.449405037231
 20
635.0286059452573
 30
0.0
  0
VERTEX
  5
235
  8
0
  6
CONTINUOUS
 62
     9
 10
-1027.918206433121
 20
634.5936113043733
 30
0.0
  0
VERTEX
  5
236
  8
0
  6
CONTINUOUS
 62
     9
 10
-1027.312117704586
 20
634.270416257682
 30
0.0
  0
VERTEX
  5
237
  8
0
  6
CONTINUOUS
 62
     9
 10
-1026.654417002874
 20
634.0714338114398
 30
0.0
  0
VERTEX
  5
238
  8
0
  6
CONTINUOUS
 62
     9
 10
-1025.970364748925
 20
634.0043063177667
 30
0.0
  0
SEQEND
  5
660
  8
0
  6
CONTINUOUS
 62
     9
  0
POLYLINE
  5
97
  8
0
  6
CONTINUOUS
 62
     9
 66
     1
 10
0.0
 20
0.0
 30
0.0
  0
VERTEX
  5
239
  8
0
  6
CONTINUOUS
 62
     9
 10
-1049.029635251075
 20
634.0043063177667
 30
0.0
  0
VERTEX
  5
23A
  8
0
  6
CONTINUOUS
 62
     9
 10
-1048.345582997127
 20
634.0714338114398
 30
0.0
  0
VERTEX
  5
23B
  8
0
  6
CONTINUOUS
 62
     9
 10
-1047.687882295415
 20
634.270416257682
 30
0.0
  0
VERTEX
  5
23C
  8
0
  6
CONTINUOUS
 62
     9
 10
-1047.081793566879
 20
634.5936113043733
 30
0.0
  0
VERTEX
  5
23D
  8
0
  6
CONTINUOUS
 62
     9
 10
-1046.550594962769
 20
635.0286059452573
 30
0.0
  0
VERTEX
  5
23E
  8
0
  6
CONTINUOUS
 62
     9
 10
-1046.114688316788
 20
635.5586932683485
 30
0.0
  0
VERTEX
  5
23F
  8
0
  6
CONTINUOUS
 62
     9
 10
-1045.790815568453
 20
636.1635141210996
 30
0.0
  0
VERTEX
  5
240
  8
0
  6
CONTINUOUS
 62
     9
 10
-1045.591415752621
 20
636.8198390477797
 30
0.0
  0
VERTEX
  5
241
  8
0
  6
CONTINUOUS
 62
     9
 10
-1045.524147251397
 20
637.5024604670697
 30
0.0
  0
SEQEND
  5
661
  8
0
  6
CONTINUOUS
 62
     9
  0
LINE
  5
98
  8
0
  6
CONTINUOUS
 62
     9
 10
-1049.029635251075
 20
634.0043063177667
 30
0.0
 11
-1143.970364748925
 21
634.0043063177667
 31
0.0
  0
POLYLINE
  5
99
  8
0
  6
CONTINUOUS
 62
     9
 66
     1
 10
0.0
 20
0.0
 30
0.0
  0
VERTEX
  5
242
  8
0
  6
CONTINUOUS
 62
     9
 10
-1147.475852748603
 20
637.5024604670696
 30
0.0
  0
VERTEX
  5
243
  8
0
  6
CONTINUOUS
 62
     9
 10
-1147.408584247379
 20
636.8198390477796
 30
0.0
  0
VERTEX
  5
244
  8
0
  6
CONTINUOUS
 62
     9
 10
-1147.209184431547
 20
636.1635141210995
 30
0.0
  0
VERTEX
  5
245
  8
0
  6
CONTINUOUS
 62
     9
 10
-1146.885311683212
 20
635.5586932683484
 30
0.0
  0
VERTEX
  5
246
  8
0
  6
CONTINUOUS
 62
     9
 10
-1146.449405037231
 20
635.0286059452571
 30
0.0
  0
VERTEX
  5
247
  8
0
  6
CONTINUOUS
 62
     9
 10
-1145.918206433121
 20
634.5936113043733
 30
0.0
  0
VERTEX
  5
248
  8
0
  6
CONTINUOUS
 62
     9
 10
-1145.312117704586
 20
634.2704162576819
 30
0.0
  0
VERTEX
  5
249
  8
0
  6
CONTINUOUS
 62
     9
 10
-1144.654417002873
 20
634.0714338114396
 30
0.0
  0
VERTEX
  5
24A
  8
0
  6
CONTINUOUS
 62
     9
 10
-1143.970364748925
 20
634.0043063177666
 30
0.0
  0
SEQEND
  5
662
  8
0
  6
CONTINUOUS
 62
     9
  0
POLYLINE
  5
9A
  8
0
  6
CONTINUOUS
 62
     9
 66
     1
 10
0.0
 20
0.0
 30
0.0
  0
VERTEX
  5
24B
  8
0
  6
CONTINUOUS
 62
     9
 10
-931.029635251075
 20
634.0043063177667
 30
0.0
  0
VERTEX
  5
24C
  8
0
  6
CONTINUOUS
 62
     9
 10
-930.3455829971269
 20
634.0714338114398
 30
0.0
  0
VERTEX
  5
24D
  8
0
  6
CONTINUOUS
 62
     9
 10
-929.6878822954145
 20
634.270416257682
 30
0.0
  0
VERTEX
  5
24E
  8
0
  6
CONTINUOUS
 62
     9
 10
-929.0817935668791
 20
634.5936113043734
 30
0.0
  0
VERTEX
  5
24F
  8
0
  6
CONTINUOUS
 62
     9
 10
-928.5505949627689
 20
635.0286059452573
 30
0.0
  0
VERTEX
  5
250
  8
0
  6
CONTINUOUS
 62
     9
 10
-928.1146883167877
 20
635.5586932683485
 30
0.0
  0
VERTEX
  5
251
  8
0
  6
CONTINUOUS
 62
     9
 10
-927.7908155684527
 20
636.1635141210996
 30
0.0
  0
VERTEX
  5
252
  8
0
  6
CONTINUOUS
 62
     9
 10
-927.5914157526214
 20
636.8198390477797
 30
0.0
  0
VERTEX
  5
253
  8
0
  6
CONTINUOUS
 62
     9
 10
-927.5241472513973
 20
637.5024604670697
 30
0.0
  0
SEQEND
  5
663
  8
0
  6
CONTINUOUS
 62
     9
  0
LINE
  5
9B
  8
0
  6
CONTINUOUS
 62
     9
 10
-1045.524147251397
 20
639.5303143450016
 30
0.0
 11
-1045.524147251397
 21
637.5024604670696
 31
0.0
  0
LINE
  5
9C
  8
0
  6
CONTINUOUS
 62
     9
 10
-1147.475852748603
 20
637.5024604670696
 30
0.0
 11
-1147.475852748603
 21
644.5303143450016
 31
0.0
  0
LINE
  5
9D
  8
0
  6
CONTINUOUS
 62
     9
 10
-1029.475852748603
 20
639.5303143450016
 30
0.0
 11
-1029.475852748603
 21
637.5024604670696
 31
0.0
  0
LINE
  5
9E
  8
0
  6
CONTINUOUS
 62
     9
 10
-927.5241472513972
 20
637.5024604670696
 30
0.0
 11
-927.5241472513972
 21
644.5303143450016
 31
0.0
  0
POLYLINE
  5
9F
  8
0
  6
CONTINUOUS
 62
     9
 66
     1
 10
0.0
 20
0.0
 30
0.0
  0
VERTEX
  5
254
  8
0
  6
CONTINUOUS
 62
     9
 10
-1029.475852748603
 20
639.5303143450014
 30
0.0
  0
VERTEX
  5
255
  8
0
  6
CONTINUOUS
 62
     9
 10
-1029.562617110016
 20
640.4071925225121
 30
0.0
  0
VERTEX
  5
256
  8
0
  6
CONTINUOUS
 62
     9
 10
-1029.818522042017
 20
641.2501221703762
 30
0.0
  0
VERTEX
  5
257
  8
0
  6
CONTINUOUS
 62
     9
 10
-1030.233767418706
 20
642.0268224856904
 30
0.0
  0
VERTEX
  5
258
  8
0
  6
CONTINUOUS
 62
     9
 10
-1030.792451018356
 20
642.7075489816438
 30
0.0
  0
VERTEX
  5
259
  8
0
  6
CONTINUOUS
 62
     9
 10
-1031.47317751431
 20
643.2662325812938
 30
0.0
  0
VERTEX
  5
25A
  8
0
  6
CONTINUOUS
 62
     9
 10
-1032.249877829624
 20
643.681477957983
 30
0.0
  0
VERTEX
  5
25B
  8
0
  6
CONTINUOUS
 62
     9
 10
-1033.092807477488
 20
643.9373828899833
 30
0.0
  0
VERTEX
  5
25C
  8
0
  6
CONTINUOUS
 62
     9
 10
-1033.969685654998
 20
644.0241472513972
 30
0.0
  0
SEQEND
  5
664
  8
0
  6
CONTINUOUS
 62
     9
  0
POLYLINE
  5
A0
  8
0
  6
CONTINUOUS
 62
     9
 66
     1
 10
0.0
 20
0.0
 30
0.0
  0
VERTEX
  5
25D
  8
0
  6
CONTINUOUS
 62
     9
 10
-1041.030314345001
 20
644.0241472513972
 30
0.0
  0
VERTEX
  5
25E
  8
0
  6
CONTINUOUS
 62
     9
 10
-1041.907192522512
 20
643.9373828899833
 30
0.0
  0
VERTEX
  5
25F
  8
0
  6
CONTINUOUS
 62
     9
 10
-1042.750122170376
 20
643.681477957983
 30
0.0
  0
VERTEX
  5
260
  8
0
  6
CONTINUOUS
 62
     9
 10
-1043.52682248569
 20
643.2662325812938
 30
0.0
  0
VERTEX
  5
261
  8
0
  6
CONTINUOUS
 62
     9
 10
-1044.207548981644
 20
642.7075489816438
 30
0.0
  0
VERTEX
  5
262
  8
0
  6
CONTINUOUS
 62
     9
 10
-1044.766232581294
 20
642.0268224856904
 30
0.0
  0
VERTEX
  5
263
  8
0
  6
CONTINUOUS
 62
     9
 10
-1045.181477957983
 20
641.2501221703762
 30
0.0
  0
VERTEX
  5
264
  8
0
  6
CONTINUOUS
 62
     9
 10
-1045.437382889983
 20
640.4071925225121
 30
0.0
  0
VERTEX
  5
265
  8
0
  6
CONTINUOUS
 62
     9
 10
-1045.524147251397
 20
639.5303143450014
 30
0.0
  0
SEQEND
  5
665
  8
0
  6
CONTINUOUS
 62
     9
  0
LINE
  5
A1
  8
0
  6
CONTINUOUS
 62
     9
 10
-1041.030314345002
 20
644.0241472513972
 30
0.0
 11
-1033.969685654999
 21
644.0241472513972
 31
0.0
  0
POLYLINE
  5
A2
  8
0
  6
CONTINUOUS
 62
     9
 66
     1
 10
0.0
 20
0.0
 30
0.0
  0
VERTEX
  5
266
  8
0
  6
CONTINUOUS
 62
     9
 10
-1147.475852748603
 20
644.5303143450016
 30
0.0
  0
VERTEX
  5
267
  8
0
  6
CONTINUOUS
 62
     9
 10
-1147.562617110017
 20
645.4071925225121
 30
0.0
  0
VERTEX
  5
268
  8
0
  6
CONTINUOUS
 62
     9
 10
-1147.818522042017
 20
646.2501221703762
 30
0.0
  0
VERTEX
  5
269
  8
0
  6
CONTINUOUS
 62
     9
 10
-1148.233767418706
 20
647.0268224856906
 30
0.0
  0
VERTEX
  5
26A
  8
0
  6
CONTINUOUS
 62
     9
 10
-1148.792451018356
 20
647.7075489816438
 30
0.0
  0
VERTEX
  5
26B
  8
0
  6
CONTINUOUS
 62
     9
 10
-1149.47317751431
 20
648.2662325812938
 30
0.0
  0
VERTEX
  5
26C
  8
0
  6
CONTINUOUS
 62
     9
 10
-1150.249877829624
 20
648.681477957983
 30
0.0
  0
VERTEX
  5
26D
  8
0
  6
CONTINUOUS
 62
     9
 10
-1151.092807477488
 20
648.9373828899833
 30
0.0
  0
VERTEX
  5
26E
  8
0
  6
CONTINUOUS
 62
     9
 10
-1151.969685654999
 20
649.024147251397
 30
0.0
  0
SEQEND
  5
666
  8
0
  6
CONTINUOUS
 62
     9
  0
POLYLINE
  5
A3
  8
0
  6
CONTINUOUS
 62
     9
 66
     1
 10
0.0
 20
0.0
 30
0.0
  0
VERTEX
  5
26F
  8
0
  6
CONTINUOUS
 62
     9
 10
-923.0303143450017
 20
649.024147251397
 30
0.0
  0
VERTEX
  5
270
  8
0
  6
CONTINUOUS
 62
     9
 10
-923.9071925225122
 20
648.9373828899834
 30
0.0
  0
VERTEX
  5
271
  8
0
  6
CONTINUOUS
 62
     9
 10
-924.7501221703764
 20
648.6814779579831
 30
0.0
  0
VERTEX
  5
272
  8
0
  6
CONTINUOUS
 62
     9
 10
-925.5268224856907
 20
648.2662325812938
 30
0.0
  0
VERTEX
  5
273
  8
0
  6
CONTINUOUS
 62
     9
 10
-926.2075489816439
 20
647.7075489816438
 30
0.0
  0
VERTEX
  5
274
  8
0
  6
CONTINUOUS
 62
     9
 10
-926.7662325812939
 20
647.0268224856906
 30
0.0
  0
VERTEX
  5
275
  8
0
  6
CONTINUOUS
 62
     9
 10
-927.1814779579831
 20
646.2501221703764
 30
0.0
  0
VERTEX
  5
276
  8
0
  6
CONTINUOUS
 62
     9
 10
-927.4373828899834
 20
645.4071925225122
 30
0.0
  0
VERTEX
  5
277
  8
0
  6
CONTINUOUS
 62
     9
 10
-927.5241472513972
 20
644.5303143450016
 30
0.0
  0
SEQEND
  5
667
  8
0
  6
CONTINUOUS
 62
     9
  0
POLYLINE
  5
A4
  8
0
  6
CONTINUOUS
 62
     9
 66
     1
 10
0.0
 20
0.0
 30
0.0
  0
VERTEX
  5
278
  8
0
  6
CONTINUOUS
 62
     9
 10
-916.0024604670696
 20
649.024147251397
 30
0.0
  0
VERTEX
  5
279
  8
0
  6
CONTINUOUS
 62
     9
 10
-915.3198390477797
 20
649.0914157526213
 30
0.0
  0
VERTEX
  5
27A
  8
0
  6
CONTINUOUS
 62
     9
 10
-914.6635141210995
 20
649.2908155684526
 30
0.0
  0
VERTEX
  5
27B
  8
0
  6
CONTINUOUS
 62
     9
 10
-914.0586932683484
 20
649.6146883167876
 30
0.0
  0
VERTEX
  5
27C
  8
0
  6
CONTINUOUS
 62
     9
 10
-913.5286059452571
 20
650.0505949627689
 30
0.0
  0
VERTEX
  5
27D
  8
0
  6
CONTINUOUS
 62
     9
 10
-913.0936113043733
 20
650.581793566879
 30
0.0
  0
VERTEX
  5
27E
  8
0
  6
CONTINUOUS
 62
     9
 10
-912.7704162576819
 20
651.1878822954144
 30
0.0
  0
VERTEX
  5
27F
  8
0
  6
CONTINUOUS
 62
     9
 10
-912.5714338114396
 20
651.8455829971267
 30
0.0
  0
VERTEX
  5
280
  8
0
  6
CONTINUOUS
 62
     9
 10
-912.5043063177666
 20
652.5296352510749
 30
0.0
  0
SEQEND
  5
668
  8
0
  6
CONTINUOUS
 62
     9
  0
LINE
  5
A5
  8
0
  6
CONTINUOUS
 62
     9
 10
-923.0303143450016
 20
649.0241472513972
 30
0.0
 11
-916.0024604670696
 21
649.0241472513972
 31
0.0
  0
LINE
  5
A6
  8
0
  6
CONTINUOUS
 62
     9
 10
-1151.969685654999
 20
649.0241472513972
 30
0.0
 11
-1158.997539532931
 21
649.0241472513972
 31
0.0
  0
POLYLINE
  5
A7
  8
0
  6
CONTINUOUS
 62
     9
 66
     1
 10
0.0
 20
0.0
 30
0.0
  0
VERTEX
  5
281
  8
0
  6
CONTINUOUS
 62
     9
 10
-1162.495693682233
 20
652.5296352510748
 30
0.0
  0
VERTEX
  5
282
  8
0
  6
CONTINUOUS
 62
     9
 10
-1162.42856618856
 20
651.8455829971266
 30
0.0
  0
VERTEX
  5
283
  8
0
  6
CONTINUOUS
 62
     9
 10
-1162.229583742318
 20
651.1878822954143
 30
0.0
  0
VERTEX
  5
284
  8
0
  6
CONTINUOUS
 62
     9
 10
-1161.906388695627
 20
650.5817935668789
 30
0.0
  0
VERTEX
  5
285
  8
0
  6
CONTINUOUS
 62
     9
 10
-1161.471394054743
 20
650.0505949627687
 30
0.0
  0
VERTEX
  5
286
  8
0
  6
CONTINUOUS
 62
     9
 10
-1160.941306731652
 20
649.6146883167875
 30
0.0
  0
VERTEX
  5
287
  8
0
  6
CONTINUOUS
 62
     9
 10
-1160.3364858789
 20
649.2908155684524
 30
0.0
  0
VERTEX
  5
288
  8
0
  6
CONTINUOUS
 62
     9
 10
-1159.68016095222
 20
649.0914157526212
 30
0.0
  0
VERTEX
  5
289
  8
0
  6
CONTINUOUS
 62
     9
 10
-1158.99753953293
 20
649.0241472513969
 30
0.0
  0
SEQEND
  5
669
  8
0
  6
CONTINUOUS
 62
     9
  0
LINE
  5
A8
  8
0
  6
CONTINUOUS
 62
     9
 10
-1162.495693682233
 20
652.5296352510748
 30
0.0
 11
-1162.495693682233
 21
747.4703647489251
 31
0.0
  0
LINE
  5
A9
  8
0
  6
CONTINUOUS
 62
     9
 10
-912.5043063177667
 20
652.5296352510749
 30
0.0
 11
-912.5043063177667
 21
747.4703647489252
 31
0.0
  0
LINE
  5
AA
  8
0
  6
CONTINUOUS
 62
     9
 10
-912.5043063177668
 20
865.4703647489252
 30
0.0
 11
-912.5043063177667
 21
770.5296352510749
 31
0.0
  0
LINE
  5
AB
  8
0
  6
CONTINUOUS
 62
     9
 10
-1162.495693682233
 20
865.4703647489251
 30
0.0
 11
-1162.495693682233
 21
770.5296352510748
 31
0.0
  0
POLYLINE
  5
AC
  8
0
  6
CONTINUOUS
 62
     9
 66
     1
 10
0.0
 20
0.0
 30
0.0
  0
VERTEX
  5
28A
  8
0
  6
CONTINUOUS
 62
     9
 10
-1156.969685654999
 20
750.975852748603
 30
0.0
  0
VERTEX
  5
28B
  8
0
  6
CONTINUOUS
 62
     9
 10
-1156.126168870343
 20
751.056100819429
 30
0.0
  0
VERTEX
  5
28C
  8
0
  6
CONTINUOUS
 62
     9
 10
-1155.312861836433
 20
751.2929784796602
 30
0.0
  0
VERTEX
  5
28D
  8
0
  6
CONTINUOUS
 62
     9
 10
-1154.558564604848
 20
751.678097643926
 30
0.0
  0
VERTEX
  5
28E
  8
0
  6
CONTINUOUS
 62
     9
 10
-1153.889987628431
 20
752.1978208403584
 30
0.0
  0
VERTEX
  5
28F
  8
0
  6
CONTINUOUS
 62
     9
 10
-1153.330805916252
 20
752.8337441277151
 30
0.0
  0
VERTEX
  5
290
  8
0
  6
CONTINUOUS
 62
     9
 10
-1152.900820676811
 20
753.5633487981621
 30
0.0
  0
VERTEX
  5
291
  8
0
  6
CONTINUOUS
 62
     9
 10
-1152.615258136561
 20
754.3607987882383
 30
0.0
  0
VERTEX
  5
292
  8
0
  6
CONTINUOUS
 62
     9
 10
-1152.484230363326
 20
755.1978555608498
 30
0.0
  0
SEQEND
  5
66A
  8
0
  6
CONTINUOUS
 62
     9
  0
POLYLINE
  5
AD
  8
0
  6
CONTINUOUS
 62
     9
 66
     1
 10
0.0
 20
0.0
 30
0.0
  0
VERTEX
  5
293
  8
0
  6
CONTINUOUS
 62
     9
 10
-922.515769636674
 20
755.1978555608498
 30
0.0
  0
VERTEX
  5
294
  8
0
  6
CONTINUOUS
 62
     9
 10
-922.384741863439
 20
754.3607987882383
 30
0.0
  0
VERTEX
  5
295
  8
0
  6
CONTINUOUS
 62
     9
 10
-922.0991793231892
 20
753.5633487981621
 30
0.0
  0
VERTEX
  5
296
  8
0
  6
CONTINUOUS
 62
     9
 10
-921.6691940837483
 20
752.8337441277151
 30
0.0
  0
VERTEX
  5
297
  8
0
  6
CONTINUOUS
 62
     9
 10
-921.1100123715693
 20
752.1978208403584
 30
0.0
  0
VERTEX
  5
298
  8
0
  6
CONTINUOUS
 62
     9
 10
-920.4414353951519
 20
751.678097643926
 30
0.0
  0
VERTEX
  5
299
  8
0
  6
CONTINUOUS
 62
     9
 10
-919.687138163567
 20
751.2929784796602
 30
0.0
  0
VERTEX
  5
29A
  8
0
  6
CONTINUOUS
 62
     9
 10
-918.8738311296573
 20
751.056100819429
 30
0.0
  0
VERTEX
  5
29B
  8
0
  6
CONTINUOUS
 62
     9
 10
-918.0303143450017
 20
750.975852748603
 30
0.0
  0
SEQEND
  5
66B
  8
0
  6
CONTINUOUS
 62
     9
  0
POLYLINE
  5
AE
  8
0
  6
CONTINUOUS
 62
     9
 66
     1
 10
0.0
 20
0.0
 30
0.0
  0
VERTEX
  5
29C
  8
0
  6
CONTINUOUS
 62
     9
 10
-1158.99753953293
 20
750.975852748603
 30
0.0
  0
VERTEX
  5
29D
  8
0
  6
CONTINUOUS
 62
     9
 10
-1159.68016095222
 20
750.9085842473787
 30
0.0
  0
VERTEX
  5
29E
  8
0
  6
CONTINUOUS
 62
     9
 10
-1160.3364858789
 20
750.7091844315474
 30
0.0
  0
VERTEX
  5
29F
  8
0
  6
CONTINUOUS
 62
     9
 10
-1160.941306731652
 20
750.3853116832124
 30
0.0
  0
VERTEX
  5
2A0
  8
0
  6
CONTINUOUS
 62
     9
 10
-1161.471394054743
 20
749.9494050372311
 30
0.0
  0
VERTEX
  5
2A1
  8
0
  6
CONTINUOUS
 62
     9
 10
-1161.906388695627
 20
749.418206433121
 30
0.0
  0
VERTEX
  5
2A2
  8
0
  6
CONTINUOUS
 62
     9
 10
-1162.229583742318
 20
748.8121177045856
 30
0.0
  0
VERTEX
  5
2A3
  8
0
  6
CONTINUOUS
 62
     9
 10
-1162.42856618856
 20
748.1544170028733
 30
0.0
  0
VERTEX
  5
2A4
  8
0
  6
CONTINUOUS
 62
     9
 10
-1162.495693682233
 20
747.4703647489251
 30
0.0
  0
SEQEND
  5
66C
  8
0
  6
CONTINUOUS
 62
     9
  0
POLYLINE
  5
AF
  8
0
  6
CONTINUOUS
 62
     9
 66
     1
 10
0.0
 20
0.0
 30
0.0
  0
VERTEX
  5
2A5
  8
0
  6
CONTINUOUS
 62
     9
 10
-912.5043063177666
 20
747.4703647489251
 30
0.0
  0
VERTEX
  5
2A6
  8
0
  6
CONTINUOUS
 62
     9
 10
-912.5714338114396
 20
748.1544170028733
 30
0.0
  0
VERTEX
  5
2A7
  8
0
  6
CONTINUOUS
 62
     9
 10
-912.7704162576819
 20
748.8121177045856
 30
0.0
  0
VERTEX
  5
2A8
  8
0
  6
CONTINUOUS
 62
     9
 10
-913.0936113043733
 20
749.418206433121
 30
0.0
  0
VERTEX
  5
2A9
  8
0
  6
CONTINUOUS
 62
     9
 10
-913.528605945257
 20
749.9494050372311
 30
0.0
  0
VERTEX
  5
2AA
  8
0
  6
CONTINUOUS
 62
     9
 10
-914.0586932683484
 20
750.3853116832124
 30
0.0
  0
VERTEX
  5
2AB
  8
0
  6
CONTINUOUS
 62
     9
 10
-914.6635141210995
 20
750.7091844315474
 30
0.0
  0
VERTEX
  5
2AC
  8
0
  6
CONTINUOUS
 62
     9
 10
-915.3198390477796
 20
750.9085842473787
 30
0.0
  0
VERTEX
  5
2AD
  8
0
  6
CONTINUOUS
 62
     9
 10
-916.0024604670695
 20
750.975852748603
 30
0.0
  0
SEQEND
  5
66D
  8
0
  6
CONTINUOUS
 62
     9
  0
LINE
  5
B0
  8
0
  6
CONTINUOUS
 62
     9
 10
-916.0024604670696
 20
750.9758527486028
 30
0.0
 11
-918.0303143450016
 21
750.9758527486028
 31
0.0
  0
LINE
  5
B1
  8
0
  6
CONTINUOUS
 62
     9
 10
-1158.997539532931
 20
750.9758527486028
 30
0.0
 11
-1156.969685654999
 21
750.9758527486028
 31
0.0
  0
POLYLINE
  5
B2
  8
0
  6
CONTINUOUS
 62
     9
 66
     1
 10
0.0
 20
0.0
 30
0.0
  0
VERTEX
  5
2AE
  8
0
  6
CONTINUOUS
 62
     9
 10
-1152.484230363326
 20
755.1978555608498
 30
0.0
  0
VERTEX
  5
2AF
  8
0
  6
CONTINUOUS
 62
     9
 10
-1152.493784296654
 20
755.4005508281116
 30
0.0
  0
VERTEX
  5
2B0
  8
0
  6
CONTINUOUS
 62
     9
 10
-1152.544299893243
 20
755.5973363184912
 30
0.0
  0
VERTEX
  5
2B1
  8
0
  6
CONTINUOUS
 62
     9
 10
-1152.633680886122
 20
755.7800459416758
 30
0.0
  0
VERTEX
  5
2B2
  8
0
  6
CONTINUOUS
 62
     9
 10
-1152.758218194612
 20
755.9410977195371
 30
0.0
  0
VERTEX
  5
2B3
  8
0
  6
CONTINUOUS
 62
     9
 10
-1152.912743841612
 20
756.0738084186694
 30
0.0
  0
VERTEX
  5
2B4
  8
0
  6
CONTINUOUS
 62
     9
 10
-1153.090845411314
 20
756.1726708873382
 30
0.0
  0
VERTEX
  5
2B5
  8
0
  6
CONTINUOUS
 62
     9
 10
-1153.285132147925
 20
756.2335825880743
 30
0.0
  0
VERTEX
  5
2B6
  8
0
  6
CONTINUOUS
 62
     9
 10
-1153.487541652968
 20
756.254015842397
 30
0.0
  0
VERTEX
  5
2B7
  8
0
  6
CONTINUOUS
 62
     9
 10
-1153.689674454027
 20
756.2331227229523
 30
0.0
  0
VERTEX
  5
2B8
  8
0
  6
CONTINUOUS
 62
     9
 10
-1153.883142561186
 20
756.1717702403106
 30
0.0
  0
VERTEX
  5
2B9
  8
0
  6
CONTINUOUS
 62
     9
 10
-1154.059917546982
 20
756.0725043642649
 30
0.0
  0
VERTEX
  5
2BA
  8
0
  6
CONTINUOUS
 62
     9
 10
-1154.212663705431
 20
755.9394443726503
 30
0.0
  0
SEQEND
  5
66E
  8
0
  6
CONTINUOUS
 62
     9
  0
POLYLINE
  5
B3
  8
0
  6
CONTINUOUS
 62
     9
 66
     1
 10
0.0
 20
0.0
 30
0.0
  0
VERTEX
  5
2BB
  8
0
  6
CONTINUOUS
 62
     9
 10
-920.7873362945696
 20
755.9394443726504
 30
0.0
  0
VERTEX
  5
2BC
  8
0
  6
CONTINUOUS
 62
     9
 10
-920.9400824530182
 20
756.0725043642651
 30
0.0
  0
VERTEX
  5
2BD
  8
0
  6
CONTINUOUS
 62
     9
 10
-921.116857438814
 20
756.1717702403107
 30
0.0
  0
VERTEX
  5
2BE
  8
0
  6
CONTINUOUS
 62
     9
 10
-921.3103255459739
 20
756.2331227229523
 30
0.0
  0
VERTEX
  5
2BF
  8
0
  6
CONTINUOUS
 62
     9
 10
-921.5124583470326
 20
756.2540158423972
 30
0.0
  0
VERTEX
  5
2C0
  8
0
  6
CONTINUOUS
 62
     9
 10
-921.7148678520755
 20
756.2335825880743
 30
0.0
  0
VERTEX
  5
2C1
  8
0
  6
CONTINUOUS
 62
     9
 10
-921.909154588686
 20
756.1726708873383
 30
0.0
  0
VERTEX
  5
2C2
  8
0
  6
CONTINUOUS
 62
     9
 10
-922.0872561583878
 20
756.0738084186693
 30
0.0
  0
VERTEX
  5
2C3
  8
0
  6
CONTINUOUS
 62
     9
 10
-922.2417818053877
 20
755.9410977195372
 30
0.0
  0
VERTEX
  5
2C4
  8
0
  6
CONTINUOUS
 62
     9
 10
-922.3663191138786
 20
755.7800459416759
 30
0.0
  0
VERTEX
  5
2C5
  8
0
  6
CONTINUOUS
 62
     9
 10
-922.4557001067577
 20
755.5973363184912
 30
0.0
  0
VERTEX
  5
2C6
  8
0
  6
CONTINUOUS
 62
     9
 10
-922.5062157033467
 20
755.4005508281116
 30
0.0
  0
VERTEX
  5
2C7
  8
0
  6
CONTINUOUS
 62
     9
 10
-922.515769636674
 20
755.1978555608498
 30
0.0
  0
SEQEND
  5
66F
  8
0
  6
CONTINUOUS
 62
     9
  0
POLYLINE
  5
B4
  8
0
  6
CONTINUOUS
 62
     9
 66
     1
 10
0.0
 20
0.0
 30
0.0
  0
VERTEX
  5
2C8
  8
0
  6
CONTINUOUS
 62
     9
 10
-1154.21266370543
 20
762.0605556273496
 30
0.0
  0
VERTEX
  5
2C9
  8
0
  6
CONTINUOUS
 62
     9
 10
-1154.059917546982
 20
761.927495635735
 30
0.0
  0
VERTEX
  5
2CA
  8
0
  6
CONTINUOUS
 62
     9
 10
-1153.883142561186
 20
761.8282297596893
 30
0.0
  0
VERTEX
  5
2CB
  8
0
  6
CONTINUOUS
 62
     9
 10
-1153.689674454026
 20
761.7668772770477
 30
0.0
  0
VERTEX
  5
2CC
  8
0
  6
CONTINUOUS
 62
     9
 10
-1153.487541652968
 20
761.745984157603
 30
0.0
  0
VERTEX
  5
2CD
  8
0
  6
CONTINUOUS
 62
     9
 10
-1153.285132147925
 20
761.7664174119257
 30
0.0
  0
VERTEX
  5
2CE
  8
0
  6
CONTINUOUS
 62
     9
 10
-1153.090845411314
 20
761.8273291126617
 30
0.0
  0
VERTEX
  5
2CF
  8
0
  6
CONTINUOUS
 62
     9
 10
-1152.912743841612
 20
761.9261915813306
 30
0.0
  0
VERTEX
  5
2D0
  8
0
  6
CONTINUOUS
 62
     9
 10
-1152.758218194612
 20
762.0589022804628
 30
0.0
  0
VERTEX
  5
2D1
  8
0
  6
CONTINUOUS
 62
     9
 10
-1152.633680886122
 20
762.2199540583241
 30
0.0
  0
VERTEX
  5
2D2
  8
0
  6
CONTINUOUS
 62
     9
 10
-1152.544299893243
 20
762.4026636815088
 30
0.0
  0
VERTEX
  5
2D3
  8
0
  6
CONTINUOUS
 62
     9
 10
-1152.493784296654
 20
762.5994491718884
 30
0.0
  0
VERTEX
  5
2D4
  8
0
  6
CONTINUOUS
 62
     9
 10
-1152.484230363326
 20
762.8021444391502
 30
0.0
  0
SEQEND
  5
670
  8
0
  6
CONTINUOUS
 62
     9
  0
POLYLINE
  5
B5
  8
0
  6
CONTINUOUS
 62
     9
 66
     1
 10
0.0
 20
0.0
 30
0.0
  0
VERTEX
  5
2D5
  8
0
  6
CONTINUOUS
 62
     9
 10
-922.515769636674
 20
762.8021444391502
 30
0.0
  0
VERTEX
  5
2D6
  8
0
  6
CONTINUOUS
 62
     9
 10
-922.5062157033468
 20
762.5994491718884
 30
0.0
  0
VERTEX
  5
2D7
  8
0
  6
CONTINUOUS
 62
     9
 10
-922.4557001067577
 20
762.4026636815088
 30
0.0
  0
VERTEX
  5
2D8
  8
0
  6
CONTINUOUS
 62
     9
 10
-922.3663191138787
 20
762.2199540583242
 30
0.0
  0
VERTEX
  5
2D9
  8
0
  6
CONTINUOUS
 62
     9
 10
-922.2417818053877
 20
762.0589022804629
 30
0.0
  0
VERTEX
  5
2DA
  8
0
  6
CONTINUOUS
 62
     9
 10
-922.0872561583877
 20
761.9261915813306
 30
0.0
  0
VERTEX
  5
2DB
  8
0
  6
CONTINUOUS
 62
     9
 10
-921.9091545886859
 20
761.8273291126618
 30
0.0
  0
VERTEX
  5
2DC
  8
0
  6
CONTINUOUS
 62
     9
 10
-921.7148678520754
 20
761.7664174119257
 30
0.0
  0
VERTEX
  5
2DD
  8
0
  6
CONTINUOUS
 62
     9
 10
-921.5124583470325
 20
761.7459841576028
 30
0.0
  0
VERTEX
  5
2DE
  8
0
  6
CONTINUOUS
 62
     9
 10
-921.3103255459738
 20
761.7668772770477
 30
0.0
  0
VERTEX
  5
2DF
  8
0
  6
CONTINUOUS
 62
     9
 10
-921.1168574388138
 20
761.8282297596893
 30
0.0
  0
VERTEX
  5
2E0
  8
0
  6
CONTINUOUS
 62
     9
 10
-920.9400824530182
 20
761.9274956357351
 30
0.0
  0
VERTEX
  5
2E1
  8
0
  6
CONTINUOUS
 62
     9
 10
-920.7873362945696
 20
762.0605556273496
 30
0.0
  0
SEQEND
  5
671
  8
0
  6
CONTINUOUS
 62
     9
  0
POLYLINE
  5
B6
  8
0
  6
CONTINUOUS
 62
     9
 66
     1
 10
0.0
 20
0.0
 30
0.0
  0
VERTEX
  5
2E2
  8
0
  6
CONTINUOUS
 62
     9
 10
-1152.484230363326
 20
762.8021444391502
 30
0.0
  0
VERTEX
  5
2E3
  8
0
  6
CONTINUOUS
 62
     9
 10
-1152.615258136561
 20
763.6392012117617
 30
0.0
  0
VERTEX
  5
2E4
  8
0
  6
CONTINUOUS
 62
     9
 10
-1152.900820676811
 20
764.4366512018379
 30
0.0
  0
VERTEX
  5
2E5
  8
0
  6
CONTINUOUS
 62
     9
 10
-1153.330805916252
 20
765.1662558722849
 30
0.0
  0
VERTEX
  5
2E6
  8
0
  6
CONTINUOUS
 62
     9
 10
-1153.889987628431
 20
765.8021791596416
 30
0.0
  0
VERTEX
  5
2E7
  8
0
  6
CONTINUOUS
 62
     9
 10
-1154.558564604848
 20
766.321902356074
 30
0.0
  0
VERTEX
  5
2E8
  8
0
  6
CONTINUOUS
 62
     9
 10
-1155.312861836433
 20
766.7070215203398
 30
0.0
  0
VERTEX
  5
2E9
  8
0
  6
CONTINUOUS
 62
     9
 10
-1156.126168870343
 20
766.943899180571
 30
0.0
  0
VERTEX
  5
2EA
  8
0
  6
CONTINUOUS
 62
     9
 10
-1156.969685654999
 20
767.024147251397
 30
0.0
  0
SEQEND
  5
672
  8
0
  6
CONTINUOUS
 62
     9
  0
POLYLINE
  5
B7
  8
0
  6
CONTINUOUS
 62
     9
 66
     1
 10
0.0
 20
0.0
 30
0.0
  0
VERTEX
  5
2EB
  8
0
  6
CONTINUOUS
 62
     9
 10
-918.0303143450017
 20
767.024147251397
 30
0.0
  0
VERTEX
  5
2EC
  8
0
  6
CONTINUOUS
 62
     9
 10
-918.8738311296573
 20
766.943899180571
 30
0.0
  0
VERTEX
  5
2ED
  8
0
  6
CONTINUOUS
 62
     9
 10
-919.687138163567
 20
766.7070215203398
 30
0.0
  0
VERTEX
  5
2EE
  8
0
  6
CONTINUOUS
 62
     9
 10
-920.4414353951519
 20
766.321902356074
 30
0.0
  0
VERTEX
  5
2EF
  8
0
  6
CONTINUOUS
 62
     9
 10
-921.1100123715693
 20
765.8021791596416
 30
0.0
  0
VERTEX
  5
2F0
  8
0
  6
CONTINUOUS
 62
     9
 10
-921.6691940837483
 20
765.1662558722849
 30
0.0
  0
VERTEX
  5
2F1
  8
0
  6
CONTINUOUS
 62
     9
 10
-922.0991793231892
 20
764.4366512018379
 30
0.0
  0
VERTEX
  5
2F2
  8
0
  6
CONTINUOUS
 62
     9
 10
-922.384741863439
 20
763.6392012117617
 30
0.0
  0
VERTEX
  5
2F3
  8
0
  6
CONTINUOUS
 62
     9
 10
-922.515769636674
 20
762.8021444391502
 30
0.0
  0
SEQEND
  5
673
  8
0
  6
CONTINUOUS
 62
     9
  0
ARC
  5
B8
  8
0
  6
CONTINUOUS
 62
     9
 10
-1157.5
 20
759.0
 30
0.0
 40
4.491500936401462
 50
42.95395832303164
 51
317.0460416769683
  0
ARC
  5
B9
  8
0
  6
CONTINUOUS
 62
     9
 10
-917.5000000000001
 20
759.0
 30
0.0
 40
4.491500936401456
 50
222.9539583230316
 51
137.0460416769684
  0
POLYLINE
  5
BA
  8
0
  6
CONTINUOUS
 62
     9
 66
     1
 10
0.0
 20
0.0
 30
0.0
  0
VERTEX
  5
2F4
  8
0
  6
CONTINUOUS
 62
     9
 10
-916.0024604670695
 20
767.024147251397
 30
0.0
  0
VERTEX
  5
2F5
  8
0
  6
CONTINUOUS
 62
     9
 10
-915.3198390477796
 20
767.0914157526213
 30
0.0
  0
VERTEX
  5
2F6
  8
0
  6
CONTINUOUS
 62
     9
 10
-914.6635141210995
 20
767.2908155684526
 30
0.0
  0
VERTEX
  5
2F7
  8
0
  6
CONTINUOUS
 62
     9
 10
-914.0586932683484
 20
767.6146883167876
 30
0.0
  0
VERTEX
  5
2F8
  8
0
  6
CONTINUOUS
 62
     9
 10
-913.528605945257
 20
768.0505949627689
 30
0.0
  0
VERTEX
  5
2F9
  8
0
  6
CONTINUOUS
 62
     9
 10
-913.0936113043733
 20
768.581793566879
 30
0.0
  0
VERTEX
  5
2FA
  8
0
  6
CONTINUOUS
 62
     9
 10
-912.7704162576819
 20
769.1878822954144
 30
0.0
  0
VERTEX
  5
2FB
  8
0
  6
CONTINUOUS
 62
     9
 10
-912.5714338114396
 20
769.8455829971267
 30
0.0
  0
VERTEX
  5
2FC
  8
0
  6
CONTINUOUS
 62
     9
 10
-912.5043063177666
 20
770.5296352510749
 30
0.0
  0
SEQEND
  5
674
  8
0
  6
CONTINUOUS
 62
     9
  0
LINE
  5
BB
  8
0
  6
CONTINUOUS
 62
     9
 10
-916.0024604670696
 20
767.0241472513972
 30
0.0
 11
-918.0303143450016
 21
767.0241472513972
 31
0.0
  0
POLYLINE
  5
BC
  8
0
  6
CONTINUOUS
 62
     9
 66
     1
 10
0.0
 20
0.0
 30
0.0
  0
VERTEX
  5
2FD
  8
0
  6
CONTINUOUS
 62
     9
 10
-1162.495693682233
 20
770.5296352510749
 30
0.0
  0
VERTEX
  5
2FE
  8
0
  6
CONTINUOUS
 62
     9
 10
-1162.42856618856
 20
769.8455829971267
 30
0.0
  0
VERTEX
  5
2FF
  8
0
  6
CONTINUOUS
 62
     9
 10
-1162.229583742318
 20
769.1878822954144
 30
0.0
  0
VERTEX
  5
300
  8
0
  6
CONTINUOUS
 62
     9
 10
-1161.906388695627
 20
768.581793566879
 30
0.0
  0
VERTEX
  5
301
  8
0
  6
CONTINUOUS
 62
     9
 10
-1161.471394054743
 20
768.0505949627689
 30
0.0
  0
VERTEX
  5
302
  8
0
  6
CONTINUOUS
 62
     9
 10
-1160.941306731652
 20
767.6146883167876
 30
0.0
  0
VERTEX
  5
303
  8
0
  6
CONTINUOUS
 62
     9
 10
-1160.3364858789
 20
767.2908155684526
 30
0.0
  0
VERTEX
  5
304
  8
0
  6
CONTINUOUS
 62
     9
 10
-1159.68016095222
 20
767.0914157526213
 30
0.0
  0
VERTEX
  5
305
  8
0
  6
CONTINUOUS
 62
     9
 10
-1158.99753953293
 20
767.024147251397
 30
0.0
  0
SEQEND
  5
675
  8
0
  6
CONTINUOUS
 62
     9
  0
LINE
  5
BD
  8
0
  6
CONTINUOUS
 62
     9
 10
-1158.997539532931
 20
767.0241472513972
 30
0.0
 11
-1156.969685654999
 21
767.0241472513972
 31
0.0
  0
POLYLINE
  5
BE
  8
0
  6
CONTINUOUS
 62
     9
 66
     1
 10
0.0
 20
0.0
 30
0.0
  0
VERTEX
  5
306
  8
0
  6
CONTINUOUS
 62
     9
 10
-912.5043063177666
 20
865.4703647489252
 30
0.0
  0
VERTEX
  5
307
  8
0
  6
CONTINUOUS
 62
     9
 10
-912.5714338114396
 20
866.1544170028734
 30
0.0
  0
VERTEX
  5
308
  8
0
  6
CONTINUOUS
 62
     9
 10
-912.7704162576819
 20
866.8121177045857
 30
0.0
  0
VERTEX
  5
309
  8
0
  6
CONTINUOUS
 62
     9
 10
-913.0936113043733
 20
867.4182064331211
 30
0.0
  0
VERTEX
  5
30A
  8
0
  6
CONTINUOUS
 62
     9
 10
-913.528605945257
 20
867.9494050372313
 30
0.0
  0
VERTEX
  5
30B
  8
0
  6
CONTINUOUS
 62
     9
 10
-914.0586932683484
 20
868.3853116832125
 30
0.0
  0
VERTEX
  5
30C
  8
0
  6
CONTINUOUS
 62
     9
 10
-914.6635141210995
 20
868.7091844315476
 30
0.0
  0
VERTEX
  5
30D
  8
0
  6
CONTINUOUS
 62
     9
 10
-915.3198390477797
 20
868.9085842473788
 30
0.0
  0
VERTEX
  5
30E
  8
0
  6
CONTINUOUS
 62
     9
 10
-916.0024604670696
 20
868.9758527486031
 30
0.0
  0
SEQEND
  5
676
  8
0
  6
CONTINUOUS
 62
     9
  0
POLYLINE
  5
BF
  8
0
  6
CONTINUOUS
 62
     9
 66
     1
 10
0.0
 20
0.0
 30
0.0
  0
VERTEX
  5
30F
  8
0
  6
CONTINUOUS
 62
     9
 10
-1158.99753953293
 20
868.975852748603
 30
0.0
  0
VERTEX
  5
310
  8
0
  6
CONTINUOUS
 62
     9
 10
-1159.68016095222
 20
868.9085842473787
 30
0.0
  0
VERTEX
  5
311
  8
0
  6
CONTINUOUS
 62
     9
 10
-1160.3364858789
 20
868.7091844315474
 30
0.0
  0
VERTEX
  5
312
  8
0
  6
CONTINUOUS
 62
     9
 10
-1160.941306731652
 20
868.3853116832124
 30
0.0
  0
VERTEX
  5
313
  8
0
  6
CONTINUOUS
 62
     9
 10
-1161.471394054743
 20
867.9494050372311
 30
0.0
  0
VERTEX
  5
314
  8
0
  6
CONTINUOUS
 62
     9
 10
-1161.906388695627
 20
867.418206433121
 30
0.0
  0
VERTEX
  5
315
  8
0
  6
CONTINUOUS
 62
     9
 10
-1162.229583742318
 20
866.8121177045856
 30
0.0
  0
VERTEX
  5
316
  8
0
  6
CONTINUOUS
 62
     9
 10
-1162.42856618856
 20
866.1544170028733
 30
0.0
  0
VERTEX
  5
317
  8
0
  6
CONTINUOUS
 62
     9
 10
-1162.495693682233
 20
865.4703647489251
 30
0.0
  0
SEQEND
  5
677
  8
0
  6
CONTINUOUS
 62
     9
  0
POLYLINE
  5
C0
  8
0
  6
CONTINUOUS
 62
     9
 66
     1
 10
0.0
 20
0.0
 30
0.0
  0
VERTEX
  5
318
  8
0
  6
CONTINUOUS
 62
     9
 10
-927.5241472513972
 20
873.4696856549984
 30
0.0
  0
VERTEX
  5
319
  8
0
  6
CONTINUOUS
 62
     9
 10
-927.4373828899835
 20
872.5928074774879
 30
0.0
  0
VERTEX
  5
31A
  8
0
  6
CONTINUOUS
 62
     9
 10
-927.1814779579832
 20
871.7498778296238
 30
0.0
  0
VERTEX
  5
31B
  8
0
  6
CONTINUOUS
 62
     9
 10
-926.7662325812939
 20
870.9731775143094
 30
0.0
  0
VERTEX
  5
31C
  8
0
  6
CONTINUOUS
 62
     9
 10
-926.2075489816439
 20
870.2924510183562
 30
0.0
  0
VERTEX
  5
31D
  8
0
  6
CONTINUOUS
 62
     9
 10
-925.5268224856907
 20
869.7337674187062
 30
0.0
  0
VERTEX
  5
31E
  8
0
  6
CONTINUOUS
 62
     9
 10
-924.7501221703765
 20
869.318522042017
 30
0.0
  0
VERTEX
  5
31F
  8
0
  6
CONTINUOUS
 62
     9
 10
-923.9071925225123
 20
869.0626171100167
 30
0.0
  0
VERTEX
  5
320
  8
0
  6
CONTINUOUS
 62
     9
 10
-923.0303143450017
 20
868.975852748603
 30
0.0
  0
SEQEND
  5
678
  8
0
  6
CONTINUOUS
 62
     9
  0
POLYLINE
  5
C1
  8
0
  6
CONTINUOUS
 62
     9
 66
     1
 10
0.0
 20
0.0
 30
0.0
  0
VERTEX
  5
321
  8
0
  6
CONTINUOUS
 62
     9
 10
-1151.969685654999
 20
868.975852748603
 30
0.0
  0
VERTEX
  5
322
  8
0
  6
CONTINUOUS
 62
     9
 10
-1151.092807477488
 20
869.0626171100166
 30
0.0
  0
VERTEX
  5
323
  8
0
  6
CONTINUOUS
 62
     9
 10
-1150.249877829624
 20
869.3185220420169
 30
0.0
  0
VERTEX
  5
324
  8
0
  6
CONTINUOUS
 62
     9
 10
-1149.47317751431
 20
869.7337674187062
 30
0.0
  0
VERTEX
  5
325
  8
0
  6
CONTINUOUS
 62
     9
 10
-1148.792451018356
 20
870.2924510183562
 30
0.0
  0
VERTEX
  5
326
  8
0
  6
CONTINUOUS
 62
     9
 10
-1148.233767418706
 20
870.9731775143094
 30
0.0
  0
VERTEX
  5
327
  8
0
  6
CONTINUOUS
 62
     9
 10
-1147.818522042017
 20
871.7498778296236
 30
0.0
  0
VERTEX
  5
328
  8
0
  6
CONTINUOUS
 62
     9
 10
-1147.562617110017
 20
872.5928074774878
 30
0.0
  0
VERTEX
  5
329
  8
0
  6
CONTINUOUS
 62
     9
 10
-1147.475852748603
 20
873.4696856549984
 30
0.0
  0
SEQEND
  5
679
  8
0
  6
CONTINUOUS
 62
     9
  0
LINE
  5
C2
  8
0
  6
CONTINUOUS
 62
     9
 10
-1147.475852748603
 20
880.4975395329304
 30
0.0
 11
-1147.475852748603
 21
873.4696856549984
 31
0.0
  0
LINE
  5
C3
  8
0
  6
CONTINUOUS
 62
     9
 10
-927.5241472513972
 20
880.4975395329304
 30
0.0
 11
-927.5241472513972
 21
873.4696856549984
 31
0.0
  0
LINE
  5
C4
  8
0
  6
CONTINUOUS
 62
     9
 10
-1151.969685654999
 20
868.9758527486028
 30
0.0
 11
-1158.997539532931
 21
868.9758527486028
 31
0.0
  0
LINE
  5
C5
  8
0
  6
CONTINUOUS
 62
     9
 10
-923.0303143450016
 20
868.9758527486028
 30
0.0
 11
-916.0024604670697
 21
868.9758527486028
 31
0.0
  0
POLYLINE
  5
C6
  8
0
  6
CONTINUOUS
 62
     9
 66
     1
 10
0.0
 20
0.0
 30
0.0
  0
VERTEX
  5
32A
  8
0
  6
CONTINUOUS
 62
     9
 10
-1045.524147251397
 20
878.4696856549986
 30
0.0
  0
VERTEX
  5
32B
  8
0
  6
CONTINUOUS
 62
     9
 10
-1045.437382889984
 20
877.5928074774879
 30
0.0
  0
VERTEX
  5
32C
  8
0
  6
CONTINUOUS
 62
     9
 10
-1045.181477957983
 20
876.7498778296238
 30
0.0
  0
VERTEX
  5
32D
  8
0
  6
CONTINUOUS
 62
     9
 10
-1044.766232581294
 20
875.9731775143096
 30
0.0
  0
VERTEX
  5
32E
  8
0
  6
CONTINUOUS
 62
     9
 10
-1044.207548981644
 20
875.2924510183562
 30
0.0
  0
VERTEX
  5
32F
  8
0
  6
CONTINUOUS
 62
     9
 10
-1043.52682248569
 20
874.7337674187062
 30
0.0
  0
VERTEX
  5
330
  8
0
  6
CONTINUOUS
 62
     9
 10
-1042.750122170376
 20
874.318522042017
 30
0.0
  0
VERTEX
  5
331
  8
0
  6
CONTINUOUS
 62
     9
 10
-1041.907192522512
 20
874.0626171100167
 30
0.0
  0
VERTEX
  5
332
  8
0
  6
CONTINUOUS
 62
     9
 10
-1041.030314345002
 20
873.9758527486028
 30
0.0
  0
SEQEND
  5
67A
  8
0
  6
CONTINUOUS
 62
     9
  0
POLYLINE
  5
C7
  8
0
  6
CONTINUOUS
 62
     9
 66
     1
 10
0.0
 20
0.0
 30
0.0
  0
VERTEX
  5
333
  8
0
  6
CONTINUOUS
 62
     9
 10
-1033.969685654999
 20
873.9758527486028
 30
0.0
  0
VERTEX
  5
334
  8
0
  6
CONTINUOUS
 62
     9
 10
-1033.092807477488
 20
874.0626171100167
 30
0.0
  0
VERTEX
  5
335
  8
0
  6
CONTINUOUS
 62
     9
 10
-1032.249877829624
 20
874.318522042017
 30
0.0
  0
VERTEX
  5
336
  8
0
  6
CONTINUOUS
 62
     9
 10
-1031.47317751431
 20
874.7337674187062
 30
0.0
  0
VERTEX
  5
337
  8
0
  6
CONTINUOUS
 62
     9
 10
-1030.792451018356
 20
875.2924510183562
 30
0.0
  0
VERTEX
  5
338
  8
0
  6
CONTINUOUS
 62
     9
 10
-1030.233767418706
 20
875.9731775143096
 30
0.0
  0
VERTEX
  5
339
  8
0
  6
CONTINUOUS
 62
     9
 10
-1029.818522042017
 20
876.7498778296238
 30
0.0
  0
VERTEX
  5
33A
  8
0
  6
CONTINUOUS
 62
     9
 10
-1029.562617110017
 20
877.5928074774879
 30
0.0
  0
VERTEX
  5
33B
  8
0
  6
CONTINUOUS
 62
     9
 10
-1029.475852748603
 20
878.4696856549986
 30
0.0
  0
SEQEND
  5
67B
  8
0
  6
CONTINUOUS
 62
     9
  0
POLYLINE
  5
C8
  8
0
  6
CONTINUOUS
 62
     9
 66
     1
 10
0.0
 20
0.0
 30
0.0
  0
VERTEX
  5
33C
  8
0
  6
CONTINUOUS
 62
     9
 10
-1045.524147251397
 20
880.4975395329303
 30
0.0
  0
VERTEX
  5
33D
  8
0
  6
CONTINUOUS
 62
     9
 10
-1045.591415752621
 20
881.1801609522203
 30
0.0
  0
VERTEX
  5
33E
  8
0
  6
CONTINUOUS
 62
     9
 10
-1045.790815568453
 20
881.8364858789004
 30
0.0
  0
VERTEX
  5
33F
  8
0
  6
CONTINUOUS
 62
     9
 10
-1046.114688316788
 20
882.4413067316515
 30
0.0
  0
VERTEX
  5
340
  8
0
  6
CONTINUOUS
 62
     9
 10
-1046.550594962769
 20
882.9713940547427
 30
0.0
  0
VERTEX
  5
341
  8
0
  6
CONTINUOUS
 62
     9
 10
-1047.081793566879
 20
883.4063886956267
 30
0.0
  0
VERTEX
  5
342
  8
0
  6
CONTINUOUS
 62
     9
 10
-1047.687882295415
 20
883.729583742318
 30
0.0
  0
VERTEX
  5
343
  8
0
  6
CONTINUOUS
 62
     9
 10
-1048.345582997127
 20
883.9285661885602
 30
0.0
  0
VERTEX
  5
344
  8
0
  6
CONTINUOUS
 62
     9
 10
-1049.029635251075
 20
883.9956936822333
 30
0.0
  0
SEQEND
  5
67C
  8
0
  6
CONTINUOUS
 62
     9
  0
POLYLINE
  5
C9
  8
0
  6
CONTINUOUS
 62
     9
 66
     1
 10
0.0
 20
0.0
 30
0.0
  0
VERTEX
  5
345
  8
0
  6
CONTINUOUS
 62
     9
 10
-1025.970364748925
 20
883.9956936822333
 30
0.0
  0
VERTEX
  5
346
  8
0
  6
CONTINUOUS
 62
     9
 10
-1026.654417002874
 20
883.9285661885602
 30
0.0
  0
VERTEX
  5
347
  8
0
  6
CONTINUOUS
 62
     9
 10
-1027.312117704586
 20
883.729583742318
 30
0.0
  0
VERTEX
  5
348
  8
0
  6
CONTINUOUS
 62
     9
 10
-1027.918206433121
 20
883.4063886956267
 30
0.0
  0
VERTEX
  5
349
  8
0
  6
CONTINUOUS
 62
     9
 10
-1028.449405037231
 20
882.9713940547427
 30
0.0
  0
VERTEX
  5
34A
  8
0
  6
CONTINUOUS
 62
     9
 10
-1028.885311683213
 20
882.4413067316515
 30
0.0
  0
VERTEX
  5
34B
  8
0
  6
CONTINUOUS
 62
     9
 10
-1029.209184431548
 20
881.8364858789004
 30
0.0
  0
VERTEX
  5
34C
  8
0
  6
CONTINUOUS
 62
     9
 10
-1029.408584247379
 20
881.1801609522203
 30
0.0
  0
VERTEX
  5
34D
  8
0
  6
CONTINUOUS
 62
     9
 10
-1029.475852748603
 20
880.4975395329303
 30
0.0
  0
SEQEND
  5
67D
  8
0
  6
CONTINUOUS
 62
     9
  0
LINE
  5
CA
  8
0
  6
CONTINUOUS
 62
     9
 10
-1041.030314345002
 20
873.9758527486028
 30
0.0
 11
-1033.969685654999
 21
873.9758527486028
 31
0.0
  0
LINE
  5
CB
  8
0
  6
CONTINUOUS
 62
     9
 10
-1029.475852748603
 20
878.4696856549984
 30
0.0
 11
-1029.475852748603
 21
880.4975395329304
 31
0.0
  0
LINE
  5
CC
  8
0
  6
CONTINUOUS
 62
     9
 10
-1045.524147251397
 20
878.4696856549984
 30
0.0
 11
-1045.524147251397
 21
880.4975395329304
 31
0.0
  0
POLYLINE
  5
CD
  8
0
  6
CONTINUOUS
 62
     9
 66
     1
 10
0.0
 20
0.0
 30
0.0
  0
VERTEX
  5
34E
  8
0
  6
CONTINUOUS
 62
     9
 10
-1143.970364748925
 20
883.9956936822333
 30
0.0
  0
VERTEX
  5
34F
  8
0
  6
CONTINUOUS
 62
     9
 10
-1144.654417002873
 20
883.9285661885602
 30
0.0
  0
VERTEX
  5
350
  8
0
  6
CONTINUOUS
 62
     9
 10
-1145.312117704585
 20
883.729583742318
 30
0.0
  0
VERTEX
  5
351
  8
0
  6
CONTINUOUS
 62
     9
 10
-1145.918206433121
 20
883.4063886956266
 30
0.0
  0
VERTEX
  5
352
  8
0
  6
CONTINUOUS
 62
     9
 10
-1146.449405037231
 20
882.9713940547427
 30
0.0
  0
VERTEX
  5
353
  8
0
  6
CONTINUOUS
 62
     9
 10
-1146.885311683212
 20
882.4413067316515
 30
0.0
  0
VERTEX
  5
354
  8
0
  6
CONTINUOUS
 62
     9
 10
-1147.209184431547
 20
881.8364858789004
 30
0.0
  0
VERTEX
  5
355
  8
0
  6
CONTINUOUS
 62
     9
 10
-1147.408584247379
 20
881.1801609522203
 30
0.0
  0
VERTEX
  5
356
  8
0
  6
CONTINUOUS
 62
     9
 10
-1147.475852748603
 20
880.4975395329303
 30
0.0
  0
SEQEND
  5
67E
  8
0
  6
CONTINUOUS
 62
     9
  0
POLYLINE
  5
CE
  8
0
  6
CONTINUOUS
 62
     9
 66
     1
 10
0.0
 20
0.0
 30
0.0
  0
VERTEX
  5
357
  8
0
  6
CONTINUOUS
 62
     9
 10
-927.5241472513973
 20
880.4975395329304
 30
0.0
  0
VERTEX
  5
358
  8
0
  6
CONTINUOUS
 62
     9
 10
-927.5914157526214
 20
881.1801609522204
 30
0.0
  0
VERTEX
  5
359
  8
0
  6
CONTINUOUS
 62
     9
 10
-927.7908155684527
 20
881.8364858789005
 30
0.0
  0
VERTEX
  5
35A
  8
0
  6
CONTINUOUS
 62
     9
 10
-928.1146883167877
 20
882.4413067316516
 30
0.0
  0
VERTEX
  5
35B
  8
0
  6
CONTINUOUS
 62
     9
 10
-928.5505949627689
 20
882.9713940547429
 30
0.0
  0
VERTEX
  5
35C
  8
0
  6
CONTINUOUS
 62
     9
 10
-929.0817935668791
 20
883.4063886956267
 30
0.0
  0
VERTEX
  5
35D
  8
0
  6
CONTINUOUS
 62
     9
 10
-929.6878822954145
 20
883.7295837423181
 30
0.0
  0
VERTEX
  5
35E
  8
0
  6
CONTINUOUS
 62
     9
 10
-930.3455829971269
 20
883.9285661885604
 30
0.0
  0
VERTEX
  5
35F
  8
0
  6
CONTINUOUS
 62
     9
 10
-931.0296352510749
 20
883.9956936822334
 30
0.0
  0
SEQEND
  5
67F
  8
0
  6
CONTINUOUS
 62
     9
  0
LINE
  5
CF
  8
0
  6
CONTINUOUS
 62
     9
 10
-1049.029635251075
 20
883.9956936822333
 30
0.0
 11
-1143.970364748925
 21
883.9956936822333
 31
0.0
  0
LINE
  5
D0
  8
0
  6
CONTINUOUS
 62
     9
 10
-1025.970364748925
 20
883.9956936822333
 30
0.0
 11
-931.029635251075
 21
883.9956936822333
 31
0.0
  0
LINE
  5
D1
  8
0
  6
CONTINUOUS
 62
     9
 10
-922.515769636674
 20
755.1978555608498
 30
0.0
 11
-922.6027492066494
 21
755.3910836997462
 31
0.0
  0
LINE
  5
D2
  8
0
  6
CONTINUOUS
 62
     9
 10
-1152.484230363326
 20
755.1978555608497
 30
0.0
 11
-1152.397250793351
 21
755.3910836997461
 31
0.0
  0
LINE
  5
D3
  8
0
  6
CONTINUOUS
 62
     9
 10
-1152.484230363326
 20
762.8021444391502
 30
0.0
 11
-1152.397250793351
 21
762.6089163002537
 31
0.0
  0
LINE
  5
D4
  8
0
  6
CONTINUOUS
 62
     9
 10
-922.515769636674
 20
762.8021444391503
 30
0.0
 11
-922.6027492066494
 21
762.6089163002538
 31
0.0
  0
POLYLINE
  5
D5
  8
0
  6
CONTINUOUS
 62
     9
 66
     1
 10
0.0
 20
0.0
 30
0.0
  0
VERTEX
  5
360
  8
0
  6
CONTINUOUS
 62
     9
 10
-1024.159353145447
 20
644.8468139481571
 30
0.0
  0
VERTEX
  5
361
  8
0
  6
CONTINUOUS
 62
     9
 10
-1024.242035854303
 20
645.7277737782259
 30
0.0
  0
VERTEX
  5
362
  8
0
  6
CONTINUOUS
 62
     9
 10
-1024.494908272652
 20
646.5737359397409
 30
0.0
  0
VERTEX
  5
363
  8
0
  6
CONTINUOUS
 62
     9
 10
-1024.908286407629
 20
647.3523034967675
 30
0.0
  0
VERTEX
  5
364
  8
0
  6
CONTINUOUS
 62
     9
 10
-1025.466339545326
 20
648.0336604546741
 30
0.0
  0
VERTEX
  5
365
  8
0
  6
CONTINUOUS
 62
     9
 10
-1026.147696503233
 20
648.5917135923708
 30
0.0
  0
VERTEX
  5
366
  8
0
  6
CONTINUOUS
 62
     9
 10
-1026.926264060259
 20
649.0050917273477
 30
0.0
  0
VERTEX
  5
367
  8
0
  6
CONTINUOUS
 62
     9
 10
-1027.772226221774
 20
649.257964145697
 30
0.0
  0
VERTEX
  5
368
  8
0
  6
CONTINUOUS
 62
     9
 10
-1028.653186051843
 20
649.3406468545526
 30
0.0
  0
SEQEND
  5
680
  8
0
  6
CONTINUOUS
 62
     9
  0
POLYLINE
  5
D6
  8
0
  6
CONTINUOUS
 62
     9
 66
     1
 10
0.0
 20
0.0
 30
0.0
  0
VERTEX
  5
369
  8
0
  6
CONTINUOUS
 62
     9
 10
-1046.346813948157
 20
649.3406468545526
 30
0.0
  0
VERTEX
  5
36A
  8
0
  6
CONTINUOUS
 62
     9
 10
-1047.227773778226
 20
649.257964145697
 30
0.0
  0
VERTEX
  5
36B
  8
0
  6
CONTINUOUS
 62
     9
 10
-1048.073735939741
 20
649.0050917273476
 30
0.0
  0
VERTEX
  5
36C
  8
0
  6
CONTINUOUS
 62
     9
 10
-1048.852303496767
 20
648.5917135923708
 30
0.0
  0
VERTEX
  5
36D
  8
0
  6
CONTINUOUS
 62
     9
 10
-1049.533660454674
 20
648.0336604546741
 30
0.0
  0
VERTEX
  5
36E
  8
0
  6
CONTINUOUS
 62
     9
 10
-1050.091713592371
 20
647.3523034967675
 30
0.0
  0
VERTEX
  5
36F
  8
0
  6
CONTINUOUS
 62
     9
 10
-1050.505091727348
 20
646.5737359397408
 30
0.0
  0
VERTEX
  5
370
  8
0
  6
CONTINUOUS
 62
     9
 10
-1050.757964145697
 20
645.7277737782257
 30
0.0
  0
VERTEX
  5
371
  8
0
  6
CONTINUOUS
 62
     9
 10
-1050.840646854553
 20
644.8468139481571
 30
0.0
  0
SEQEND
  5
681
  8
0
  6
CONTINUOUS
 62
     9
  0
POLYLINE
  5
D7
  8
0
  6
CONTINUOUS
 62
     9
 66
     1
 10
0.0
 20
0.0
 30
0.0
  0
VERTEX
  5
372
  8
0
  6
CONTINUOUS
 62
     9
 10
-1142.159353145447
 20
649.8468139481572
 30
0.0
  0
VERTEX
  5
373
  8
0
  6
CONTINUOUS
 62
     9
 10
-1142.242035854303
 20
650.727773778226
 30
0.0
  0
VERTEX
  5
374
  8
0
  6
CONTINUOUS
 62
     9
 10
-1142.494908272653
 20
651.573735939741
 30
0.0
  0
VERTEX
  5
375
  8
0
  6
CONTINUOUS
 62
     9
 10
-1142.908286407629
 20
652.3523034967676
 30
0.0
  0
VERTEX
  5
376
  8
0
  6
CONTINUOUS
 62
     9
 10
-1143.466339545326
 20
653.0336604546742
 30
0.0
  0
VERTEX
  5
377
  8
0
  6
CONTINUOUS
 62
     9
 10
-1144.147696503233
 20
653.5917135923709
 30
0.0
  0
VERTEX
  5
378
  8
0
  6
CONTINUOUS
 62
     9
 10
-1144.926264060259
 20
654.0050917273478
 30
0.0
  0
VERTEX
  5
379
  8
0
  6
CONTINUOUS
 62
     9
 10
-1145.772226221774
 20
654.2579641456971
 30
0.0
  0
VERTEX
  5
37A
  8
0
  6
CONTINUOUS
 62
     9
 10
-1146.653186051843
 20
654.3406468545527
 30
0.0
  0
SEQEND
  5
682
  8
0
  6
CONTINUOUS
 62
     9
  0
POLYLINE
  5
D8
  8
0
  6
CONTINUOUS
 62
     9
 66
     1
 10
0.0
 20
0.0
 30
0.0
  0
VERTEX
  5
37B
  8
0
  6
CONTINUOUS
 62
     9
 10
-928.3468139481571
 20
654.3406468545527
 30
0.0
  0
VERTEX
  5
37C
  8
0
  6
CONTINUOUS
 62
     9
 10
-929.2277737782259
 20
654.2579641456971
 30
0.0
  0
VERTEX
  5
37D
  8
0
  6
CONTINUOUS
 62
     9
 10
-930.0737359397409
 20
654.0050917273477
 30
0.0
  0
VERTEX
  5
37E
  8
0
  6
CONTINUOUS
 62
     9
 10
-930.8523034967675
 20
653.5917135923709
 30
0.0
  0
VERTEX
  5
37F
  8
0
  6
CONTINUOUS
 62
     9
 10
-931.5336604546741
 20
653.0336604546742
 30
0.0
  0
VERTEX
  5
380
  8
0
  6
CONTINUOUS
 62
     9
 10
-932.0917135923708
 20
652.3523034967676
 30
0.0
  0
VERTEX
  5
381
  8
0
  6
CONTINUOUS
 62
     9
 10
-932.5050917273477
 20
651.5737359397409
 30
0.0
  0
VERTEX
  5
382
  8
0
  6
CONTINUOUS
 62
     9
 10
-932.757964145697
 20
650.7277737782258
 30
0.0
  0
VERTEX
  5
383
  8
0
  6
CONTINUOUS
 62
     9
 10
-932.8406468545526
 20
649.8468139481572
 30
0.0
  0
SEQEND
  5
683
  8
0
  6
CONTINUOUS
 62
     9
  0
POLYLINE
  5
D9
  8
0
  6
CONTINUOUS
 62
     9
 66
     1
 10
0.0
 20
0.0
 30
0.0
  0
VERTEX
  5
384
  8
0
  6
CONTINUOUS
 62
     9
 10
-927.8406468545528
 20
750.1531860518427
 30
0.0
  0
VERTEX
  5
385
  8
0
  6
CONTINUOUS
 62
     9
 10
-927.7579641456971
 20
749.272226221774
 30
0.0
  0
VERTEX
  5
386
  8
0
  6
CONTINUOUS
 62
     9
 10
-927.5050917273477
 20
748.4262640602589
 30
0.0
  0
VERTEX
  5
387
  8
0
  6
CONTINUOUS
 62
     9
 10
-927.0917135923709
 20
747.6476965032324
 30
0.0
  0
VERTEX
  5
388
  8
0
  6
CONTINUOUS
 62
     9
 10
-926.5336604546742
 20
746.9663395453258
 30
0.0
  0
VERTEX
  5
389
  8
0
  6
CONTINUOUS
 62
     9
 10
-925.8523034967676
 20
746.4082864076291
 30
0.0
  0
VERTEX
  5
38A
  8
0
  6
CONTINUOUS
 62
     9
 10
-925.0737359397411
 20
745.9949082726522
 30
0.0
  0
VERTEX
  5
38B
  8
0
  6
CONTINUOUS
 62
     9
 10
-924.227773778226
 20
745.7420358543029
 30
0.0
  0
VERTEX
  5
38C
  8
0
  6
CONTINUOUS
 62
     9
 10
-923.3468139481573
 20
745.6593531454472
 30
0.0
  0
SEQEND
  5
684
  8
0
  6
CONTINUOUS
 62
     9
  0
POLYLINE
  5
DA
  8
0
  6
CONTINUOUS
 62
     9
 66
     1
 10
0.0
 20
0.0
 30
0.0
  0
VERTEX
  5
38D
  8
0
  6
CONTINUOUS
 62
     9
 10
-1151.653186051843
 20
745.6593531454472
 30
0.0
  0
VERTEX
  5
38E
  8
0
  6
CONTINUOUS
 62
     9
 10
-1150.772226221774
 20
745.7420358543029
 30
0.0
  0
VERTEX
  5
38F
  8
0
  6
CONTINUOUS
 62
     9
 10
-1149.926264060259
 20
745.9949082726522
 30
0.0
  0
VERTEX
  5
390
  8
0
  6
CONTINUOUS
 62
     9
 10
-1149.147696503233
 20
746.4082864076291
 30
0.0
  0
VERTEX
  5
391
  8
0
  6
CONTINUOUS
 62
     9
 10
-1148.466339545326
 20
746.9663395453258
 30
0.0
  0
VERTEX
  5
392
  8
0
  6
CONTINUOUS
 62
     9
 10
-1147.908286407629
 20
747.6476965032324
 30
0.0
  0
VERTEX
  5
393
  8
0
  6
CONTINUOUS
 62
     9
 10
-1147.494908272652
 20
748.4262640602589
 30
0.0
  0
VERTEX
  5
394
  8
0
  6
CONTINUOUS
 62
     9
 10
-1147.242035854303
 20
749.272226221774
 30
0.0
  0
VERTEX
  5
395
  8
0
  6
CONTINUOUS
 62
     9
 10
-1147.159353145447
 20
750.1531860518427
 30
0.0
  0
SEQEND
  5
685
  8
0
  6
CONTINUOUS
 62
     9
  0
POLYLINE
  5
DB
  8
0
  6
CONTINUOUS
 62
     9
 66
     1
 10
0.0
 20
0.0
 30
0.0
  0
VERTEX
  5
396
  8
0
  6
CONTINUOUS
 62
     9
 10
-1147.159353145447
 20
767.8468139481573
 30
0.0
  0
VERTEX
  5
397
  8
0
  6
CONTINUOUS
 62
     9
 10
-1147.242035854303
 20
768.727773778226
 30
0.0
  0
VERTEX
  5
398
  8
0
  6
CONTINUOUS
 62
     9
 10
-1147.494908272652
 20
769.5737359397411
 30
0.0
  0
VERTEX
  5
399
  8
0
  6
CONTINUOUS
 62
     9
 10
-1147.908286407629
 20
770.3523034967676
 30
0.0
  0
VERTEX
  5
39A
  8
0
  6
CONTINUOUS
 62
     9
 10
-1148.466339545326
 20
771.0336604546742
 30
0.0
  0
VERTEX
  5
39B
  8
0
  6
CONTINUOUS
 62
     9
 10
-1149.147696503233
 20
771.5917135923709
 30
0.0
  0
VERTEX
  5
39C
  8
0
  6
CONTINUOUS
 62
     9
 10
-1149.926264060259
 20
772.0050917273478
 30
0.0
  0
VERTEX
  5
39D
  8
0
  6
CONTINUOUS
 62
     9
 10
-1150.772226221774
 20
772.2579641456971
 30
0.0
  0
VERTEX
  5
39E
  8
0
  6
CONTINUOUS
 62
     9
 10
-1151.653186051843
 20
772.3406468545528
 30
0.0
  0
SEQEND
  5
686
  8
0
  6
CONTINUOUS
 62
     9
  0
POLYLINE
  5
DC
  8
0
  6
CONTINUOUS
 62
     9
 66
     1
 10
0.0
 20
0.0
 30
0.0
  0
VERTEX
  5
39F
  8
0
  6
CONTINUOUS
 62
     9
 10
-923.3468139481573
 20
772.3406468545528
 30
0.0
  0
VERTEX
  5
3A0
  8
0
  6
CONTINUOUS
 62
     9
 10
-924.227773778226
 20
772.2579641456971
 30
0.0
  0
VERTEX
  5
3A1
  8
0
  6
CONTINUOUS
 62
     9
 10
-925.073735939741
 20
772.0050917273478
 30
0.0
  0
VERTEX
  5
3A2
  8
0
  6
CONTINUOUS
 62
     9
 10
-925.8523034967676
 20
771.5917135923709
 30
0.0
  0
VERTEX
  5
3A3
  8
0
  6
CONTINUOUS
 62
     9
 10
-926.5336604546742
 20
771.0336604546742
 30
0.0
  0
VERTEX
  5
3A4
  8
0
  6
CONTINUOUS
 62
     9
 10
-927.0917135923709
 20
770.3523034967676
 30
0.0
  0
VERTEX
  5
3A5
  8
0
  6
CONTINUOUS
 62
     9
 10
-927.5050917273478
 20
769.5737359397411
 30
0.0
  0
VERTEX
  5
3A6
  8
0
  6
CONTINUOUS
 62
     9
 10
-927.7579641456971
 20
768.727773778226
 30
0.0
  0
VERTEX
  5
3A7
  8
0
  6
CONTINUOUS
 62
     9
 10
-927.8406468545528
 20
767.8468139481573
 30
0.0
  0
SEQEND
  5
687
  8
0
  6
CONTINUOUS
 62
     9
  0
POLYLINE
  5
DD
  8
0
  6
CONTINUOUS
 62
     9
 66
     1
 10
0.0
 20
0.0
 30
0.0
  0
VERTEX
  5
3A8
  8
0
  6
CONTINUOUS
 62
     9
 10
-1028.653186051843
 20
868.6593531454474
 30
0.0
  0
VERTEX
  5
3A9
  8
0
  6
CONTINUOUS
 62
     9
 10
-1027.772226221774
 20
868.742035854303
 30
0.0
  0
VERTEX
  5
3AA
  8
0
  6
CONTINUOUS
 62
     9
 10
-1026.926264060259
 20
868.9949082726524
 30
0.0
  0
VERTEX
  5
3AB
  8
0
  6
CONTINUOUS
 62
     9
 10
-1026.147696503233
 20
869.4082864076292
 30
0.0
  0
VERTEX
  5
3AC
  8
0
  6
CONTINUOUS
 62
     9
 10
-1025.466339545326
 20
869.9663395453259
 30
0.0
  0
VERTEX
  5
3AD
  8
0
  6
CONTINUOUS
 62
     9
 10
-1024.908286407629
 20
870.6476965032325
 30
0.0
  0
VERTEX
  5
3AE
  8
0
  6
CONTINUOUS
 62
     9
 10
-1024.494908272652
 20
871.4262640602592
 30
0.0
  0
VERTEX
  5
3AF
  8
0
  6
CONTINUOUS
 62
     9
 10
-1024.242035854303
 20
872.2722262217743
 30
0.0
  0
VERTEX
  5
3B0
  8
0
  6
CONTINUOUS
 62
     9
 10
-1024.159353145447
 20
873.1531860518429
 30
0.0
  0
SEQEND
  5
688
  8
0
  6
CONTINUOUS
 62
     9
  0
POLYLINE
  5
DE
  8
0
  6
CONTINUOUS
 62
     9
 66
     1
 10
0.0
 20
0.0
 30
0.0
  0
VERTEX
  5
3B1
  8
0
  6
CONTINUOUS
 62
     9
 10
-1050.840646854553
 20
873.1531860518428
 30
0.0
  0
VERTEX
  5
3B2
  8
0
  6
CONTINUOUS
 62
     9
 10
-1050.757964145697
 20
872.272226221774
 30
0.0
  0
VERTEX
  5
3B3
  8
0
  6
CONTINUOUS
 62
     9
 10
-1050.505091727348
 20
871.426264060259
 30
0.0
  0
VERTEX
  5
3B4
  8
0
  6
CONTINUOUS
 62
     9
 10
-1050.091713592371
 20
870.6476965032324
 30
0.0
  0
VERTEX
  5
3B5
  8
0
  6
CONTINUOUS
 62
     9
 10
-1049.533660454674
 20
869.9663395453258
 30
0.0
  0
VERTEX
  5
3B6
  8
0
  6
CONTINUOUS
 62
     9
 10
-1048.852303496767
 20
869.4082864076291
 30
0.0
  0
VERTEX
  5
3B7
  8
0
  6
CONTINUOUS
 62
     9
 10
-1048.073735939741
 20
868.9949082726522
 30
0.0
  0
VERTEX
  5
3B8
  8
0
  6
CONTINUOUS
 62
     9
 10
-1047.227773778226
 20
868.7420358543029
 30
0.0
  0
VERTEX
  5
3B9
  8
0
  6
CONTINUOUS
 62
     9
 10
-1046.346813948157
 20
868.6593531454473
 30
0.0
  0
SEQEND
  5
689
  8
0
  6
CONTINUOUS
 62
     9
  0
POLYLINE
  5
DF
  8
0
  6
CONTINUOUS
 62
     9
 66
     1
 10
0.0
 20
0.0
 30
0.0
  0
VERTEX
  5
3BA
  8
0
  6
CONTINUOUS
 62
     9
 10
-932.8406468545527
 20
868.1531860518428
 30
0.0
  0
VERTEX
  5
3BB
  8
0
  6
CONTINUOUS
 62
     9
 10
-932.7579641456971
 20
867.272226221774
 30
0.0
  0
VERTEX
  5
3BC
  8
0
  6
CONTINUOUS
 62
     9
 10
-932.5050917273477
 20
866.426264060259
 30
0.0
  0
VERTEX
  5
3BD
  8
0
  6
CONTINUOUS
 62
     9
 10
-932.0917135923709
 20
865.6476965032324
 30
0.0
  0
VERTEX
  5
3BE
  8
0
  6
CONTINUOUS
 62
     9
 10
-931.5336604546742
 20
864.9663395453258
 30
0.0
  0
VERTEX
  5
3BF
  8
0
  6
CONTINUOUS
 62
     9
 10
-930.8523034967676
 20
864.4082864076291
 30
0.0
  0
VERTEX
  5
3C0
  8
0
  6
CONTINUOUS
 62
     9
 10
-930.0737359397409
 20
863.9949082726522
 30
0.0
  0
VERTEX
  5
3C1
  8
0
  6
CONTINUOUS
 62
     9
 10
-929.2277737782258
 20
863.7420358543029
 30
0.0
  0
VERTEX
  5
3C2
  8
0
  6
CONTINUOUS
 62
     9
 10
-928.3468139481572
 20
863.6593531454473
 30
0.0
  0
SEQEND
  5
68A
  8
0
  6
CONTINUOUS
 62
     9
  0
POLYLINE
  5
E0
  8
0
  6
CONTINUOUS
 62
     9
 66
     1
 10
0.0
 20
0.0
 30
0.0
  0
VERTEX
  5
3C3
  8
0
  6
CONTINUOUS
 62
     9
 10
-1146.653186051843
 20
863.6593531454473
 30
0.0
  0
VERTEX
  5
3C4
  8
0
  6
CONTINUOUS
 62
     9
 10
-1145.772226221774
 20
863.7420358543029
 30
0.0
  0
VERTEX
  5
3C5
  8
0
  6
CONTINUOUS
 62
     9
 10
-1144.926264060259
 20
863.9949082726523
 30
0.0
  0
VERTEX
  5
3C6
  8
0
  6
CONTINUOUS
 62
     9
 10
-1144.147696503233
 20
864.4082864076291
 30
0.0
  0
VERTEX
  5
3C7
  8
0
  6
CONTINUOUS
 62
     9
 10
-1143.466339545326
 20
864.9663395453258
 30
0.0
  0
VERTEX
  5
3C8
  8
0
  6
CONTINUOUS
 62
     9
 10
-1142.908286407629
 20
865.6476965032324
 30
0.0
  0
VERTEX
  5
3C9
  8
0
  6
CONTINUOUS
 62
     9
 10
-1142.494908272653
 20
866.4262640602591
 30
0.0
  0
VERTEX
  5
3CA
  8
0
  6
CONTINUOUS
 62
     9
 10
-1142.242035854303
 20
867.2722262217742
 30
0.0
  0
VERTEX
  5
3CB
  8
0
  6
CONTINUOUS
 62
     9
 10
-1142.159353145447
 20
868.1531860518428
 30
0.0
  0
SEQEND
  5
68B
  8
0
  6
CONTINUOUS
 62
     9
  0
LINE
  5
E1
  8
0
  6
CONTINUOUS
 62
     7
 10
-1050.313282763548
 20
634.21805744946
 30
0.0
 11
-1050.305294545975
 21
634.2180683870268
 31
0.0
  0
LINE
  5
E2
  8
0
  6
CONTINUOUS
 62
     7
 10
-912.7180683870271
 20
771.805294545975
 30
0.0
 11
-912.7180574494602
 21
771.8132827635477
 31
0.0
  0
LINE
  5
E3
  8
0
  6
CONTINUOUS
 62
     9
 10
-1028.653186051843
 20
649.3406468545527
 30
0.0
 11
-1046.346813948157
 21
649.3406468545527
 31
0.0
  0
LINE
  5
E4
  8
0
  6
CONTINUOUS
 62
     9
 10
-1028.653186051843
 20
868.6593531454473
 30
0.0
 11
-1046.346813948157
 21
868.6593531454473
 31
0.0
  0
LINE
  5
E5
  8
0
  6
CONTINUOUS
 62
     9
 10
-1142.159353145447
 20
649.8468139481571
 30
0.0
 11
-1142.159353145447
 21
641.7438274388867
 31
0.0
  0
LINE
  5
E6
  8
0
  6
CONTINUOUS
 62
     9
 10
-932.8406468545528
 20
649.8468139481571
 30
0.0
 11
-932.8406468545528
 21
641.7438274388867
 31
0.0
  0
LINE
  5
E7
  8
0
  6
CONTINUOUS
 62
     9
 10
-923.3468139481572
 20
745.6593531454473
 30
0.0
 11
-920.2438274388868
 21
745.6593531454473
 31
0.0
  0
LINE
  5
E8
  8
0
  6
CONTINUOUS
 62
     9
 10
-1151.653186051843
 20
745.6593531454472
 30
0.0
 11
-1154.756172561114
 21
745.6593531454472
 31
0.0
  0
LINE
  5
E9
  8
0
  6
CONTINUOUS
 62
     9
 10
-923.3468139481572
 20
772.3406468545527
 30
0.0
 11
-920.2438274388868
 21
772.3406468545527
 31
0.0
  0
LINE
  5
EA
  8
0
  6
CONTINUOUS
 62
     9
 10
-1151.653186051843
 20
772.3406468545527
 30
0.0
 11
-1154.756172561114
 21
772.3406468545527
 31
0.0
  0
LINE
  5
EB
  8
0
  6
CONTINUOUS
 62
     9
 10
-932.8406468545528
 20
868.1531860518429
 30
0.0
 11
-932.8406468545528
 21
876.2561725611133
 31
0.0
  0
LINE
  5
EC
  8
0
  6
CONTINUOUS
 62
     9
 10
-1142.159353145447
 20
868.1531860518429
 30
0.0
 11
-1142.159353145447
 21
876.2561725611133
 31
0.0
  0
LINE
  5
ED
  8
0
  6
CONTINUOUS
 62
     9
 10
-1024.159353145447
 20
641.7438274388867
 30
0.0
 11
-1024.159353145447
 21
644.8468139481571
 31
0.0
  0
LINE
  5
EE
  8
0
  6
CONTINUOUS
 62
     9
 10
-1050.840646854553
 20
641.7438274388867
 30
0.0
 11
-1050.840646854553
 21
644.8468139481571
 31
0.0
  0
LINE
  5
EF
  8
0
  6
CONTINUOUS
 62
     9
 10
-920.2438274388868
 20
654.3406468545527
 30
0.0
 11
-928.3468139481572
 21
654.3406468545527
 31
0.0
  0
LINE
  5
F0
  8
0
  6
CONTINUOUS
 62
     9
 10
-1154.756172561113
 20
654.3406468545527
 30
0.0
 11
-1146.653186051843
 21
654.3406468545527
 31
0.0
  0
LINE
  5
F1
  8
0
  6
CONTINUOUS
 62
     9
 10
-1154.756172561114
 20
863.6593531454473
 30
0.0
 11
-1146.653186051843
 21
863.6593531454473
 31
0.0
  0
LINE
  5
F2
  8
0
  6
CONTINUOUS
 62
     9
 10
-920.2438274388868
 20
863.6593531454473
 30
0.0
 11
-928.3468139481572
 21
863.6593531454473
 31
0.0
  0
LINE
  5
F3
  8
0
  6
CONTINUOUS
 62
     9
 10
-1024.159353145447
 20
876.2561725611133
 30
0.0
 11
-1024.159353145447
 21
873.1531860518429
 31
0.0
  0
LINE
  5
F4
  8
0
  6
CONTINUOUS
 62
     9
 10
-1050.840646854553
 20
876.2561725611133
 30
0.0
 11
-1050.840646854553
 21
873.1531860518429
 31
0.0
  0
LINE
  5
F5
  8
0
  6
CONTINUOUS
 62
     9
 10
-922.7081699288041
 20
755.5699424177168
 30
0.0
 11
-922.6027492066494
 21
755.3910836997463
 31
0.0
  0
LINE
  5
F6
  8
0
  6
CONTINUOUS
 62
     9
 10
-1152.397250793351
 20
755.3910836997463
 30
0.0
 11
-1152.291830071196
 21
755.5699424177168
 31
0.0
  0
LINE
  5
F7
  8
0
  6
CONTINUOUS
 62
     9
 10
-922.6027492066493
 20
762.6089163002538
 30
0.0
 11
-922.708169928804
 21
762.4300575822833
 31
0.0
  0
LINE
  5
F8
  8
0
  6
CONTINUOUS
 62
     9
 10
-1152.291830071196
 20
762.4300575822833
 30
0.0
 11
-1152.397250793351
 21
762.6089163002538
 31
0.0
  0
LINE
  5
F9
  8
0
  6
CONTINUOUS
 62
     9
 10
-1152.291830071196
 20
762.4300575822833
 30
0.0
 11
-1152.05476123061
 21
762.3510988463571
 31
0.0
  0
LINE
  5
FA
  8
0
  6
CONTINUOUS
 62
     9
 10
-1147.159353145447
 20
750.1531860518428
 30
0.0
 11
-1147.159353145447
 21
767.8468139481572
 31
0.0
  0
LINE
  5
FB
  8
0
  6
CONTINUOUS
 62
     9
 10
-1152.291830071196
 20
755.5699424177167
 30
0.0
 11
-1152.05476123061
 21
755.6489011536429
 31
0.0
  0
LINE
  5
FC
  8
0
  6
CONTINUOUS
 62
     9
 10
-1152.05476123061
 20
755.6489011536429
 30
0.0
 11
-1151.951774955773
 21
757.6485965439557
 31
0.0
  0
LINE
  5
FD
  8
0
  6
CONTINUOUS
 62
     9
 10
-1151.951774955773
 20
760.3514034560442
 30
0.0
 11
-1151.951774955773
 21
757.6485965439557
 31
0.0
  0
LINE
  5
FE
  8
0
  6
CONTINUOUS
 62
     9
 10
-1152.05476123061
 20
762.3510988463571
 30
0.0
 11
-1151.951774955773
 21
760.3514034560442
 31
0.0
  0
LINE
  5
FF
  8
0
  6
CONTINUOUS
 62
     9
 10
-923.0482250442277
 20
760.3514034560443
 30
0.0
 11
-923.0482250442277
 21
757.6485965439557
 31
0.0
  0
LINE
  5
100
  8
0
  6
CONTINUOUS
 62
     9
 10
-922.9452387693906
 20
755.6489011536429
 30
0.0
 11
-923.0482250442276
 21
757.6485965439557
 31
0.0
  0
LINE
  5
101
  8
0
  6
CONTINUOUS
 62
     9
 10
-922.7081699288041
 20
755.5699424177167
 30
0.0
 11
-922.9452387693906
 21
755.6489011536429
 31
0.0
  0
LINE
  5
102
  8
0
  6
CONTINUOUS
 62
     9
 10
-927.8406468545528
 20
750.1531860518428
 30
0.0
 11
-927.8406468545528
 21
767.8468139481572
 31
0.0
  0
LINE
  5
103
  8
0
  6
CONTINUOUS
 62
     9
 10
-922.7081699288041
 20
762.4300575822833
 30
0.0
 11
-922.9452387693906
 21
762.3510988463571
 31
0.0
  0
LINE
  5
104
  8
0
  6
CONTINUOUS
 62
     9
 10
-922.9452387693906
 20
762.3510988463571
 30
0.0
 11
-923.0482250442276
 21
760.3514034560443
 31
0.0
  0
LINE
  5
105
  8
0
  6
CONTINUOUS
 62
     9
 10
-1158.251375932754
 20
742.1641497738061
 30
0.0
 11
-1158.251375932754
 21
724.0723057679915
 31
0.0
  0
LINE
  5
106
  8
0
  6
CONTINUOUS
 62
     9
 10
-1158.251375932754
 20
713.9276942320088
 30
0.0
 11
-1158.251375932754
 21
684.0723057679913
 31
0.0
  0
LINE
  5
107
  8
0
  6
CONTINUOUS
 62
     9
 10
-916.7486240672457
 20
713.9276942320088
 30
0.0
 11
-916.7486240672457
 21
684.0723057679913
 31
0.0
  0
LINE
  5
108
  8
0
  6
CONTINUOUS
 62
     9
 10
-916.7486240672457
 20
673.9276942320087
 30
0.0
 11
-916.7486240672457
 21
657.8358502261939
 31
0.0
  0
LINE
  5
109
  8
0
  6
CONTINUOUS
 62
     9
 10
-1158.251375932754
 20
775.8358502261937
 30
0.0
 11
-1158.251375932754
 21
793.9276942320085
 31
0.0
  0
LINE
  5
10A
  8
0
  6
CONTINUOUS
 62
     9
 10
-1158.251375932754
 20
804.0723057679912
 30
0.0
 11
-1158.251375932754
 21
833.9276942320087
 31
0.0
  0
LINE
  5
10B
  8
0
  6
CONTINUOUS
 62
     9
 10
-916.7486240672457
 20
775.8358502261938
 30
0.0
 11
-916.7486240672457
 21
793.9276942320085
 31
0.0
  0
LINE
  5
10C
  8
0
  6
CONTINUOUS
 62
     9
 10
-916.7486240672457
 20
804.0723057679912
 30
0.0
 11
-916.7486240672457
 21
833.9276942320087
 31
0.0
  0
LINE
  5
10D
  8
0
  6
CONTINUOUS
 62
     9
 10
-962.5734877114008
 20
638.2486240672457
 30
0.0
 11
-992.4265122885992
 21
638.2486240672457
 31
0.0
  0
LINE
  5
10E
  8
0
  6
CONTINUOUS
 62
     9
 10
-1002.573487711401
 20
638.2486240672457
 30
0.0
 11
-1020.664149773806
 21
638.2486240672457
 31
0.0
  0
LINE
  5
10F
  8
0
  6
CONTINUOUS
 62
     9
 10
-1138.664149773806
 20
638.2486240672457
 30
0.0
 11
-1122.573487711401
 21
638.2486240672457
 31
0.0
  0
LINE
  5
110
  8
0
  6
CONTINUOUS
 62
     9
 10
-1112.426512288599
 20
638.2486240672457
 30
0.0
 11
-1082.573487711401
 21
638.2486240672457
 31
0.0
  0
LINE
  5
111
  8
0
  6
CONTINUOUS
 62
     9
 10
-936.3358502261938
 20
879.7513759327543
 30
0.0
 11
-952.4265122885992
 21
879.7513759327543
 31
0.0
  0
LINE
  5
112
  8
0
  6
CONTINUOUS
 62
     9
 10
-962.5734877114008
 20
879.7513759327543
 30
0.0
 11
-992.4265122885993
 21
879.7513759327543
 31
0.0
  0
LINE
  5
113
  8
0
  6
CONTINUOUS
 62
     9
 10
-1112.426512288599
 20
879.7513759327543
 30
0.0
 11
-1082.573487711401
 21
879.7513759327543
 31
0.0
  0
LINE
  5
114
  8
0
  6
CONTINUOUS
 62
     9
 10
-1072.426512288599
 20
879.7513759327543
 30
0.0
 11
-1054.335850226194
 21
879.7513759327543
 31
0.0
  0
POLYLINE
  5
115
  8
0
  6
CONTINUOUS
 62
     9
 66
     1
 10
0.0
 20
0.0
 30
0.0
  0
VERTEX
  5
3CC
  8
0
  6
CONTINUOUS
 62
     9
 10
-920.2438274388867
 20
654.3406468545528
 30
0.0
  0
VERTEX
  5
3CD
  8
0
  6
CONTINUOUS
 62
     9
 10
-919.5631182745179
 20
654.4094374426808
 30
0.0
  0
VERTEX
  5
3CE
  8
0
  6
CONTINUOUS
 62
     9
 10
-918.9084775233615
 20
654.6094458091967
 30
0.0
  0
VERTEX
  5
3CF
  8
0
  6
CONTINUOUS
 62
     9
 10
-918.3049752836329
 20
654.9330124410263
 30
0.0
  0
VERTEX
  5
3D0
  8
0
  6
CONTINUOUS
 62
     9
 10
-917.7757232549877
 20
655.3677460422948
 30
0.0
  0
VERTEX
  5
3D1
  8
0
  6
CONTINUOUS
 62
     9
 10
-917.3409896537191
 20
655.8969980709401
 30
0.0
  0
VERTEX
  5
3D2
  8
0
  6
CONTINUOUS
 62
     9
 10
-917.0174230218896
 20
656.5005003106687
 30
0.0
  0
VERTEX
  5
3D3
  8
0
  6
CONTINUOUS
 62
     9
 10
-916.8174146553738
 20
657.1551410618252
 30
0.0
  0
VERTEX
  5
3D4
  8
0
  6
CONTINUOUS
 62
     9
 10
-916.7486240672458
 20
657.8358502261939
 30
0.0
  0
SEQEND
  5
68C
  8
0
  6
CONTINUOUS
 62
     9
  0
POLYLINE
  5
116
  8
0
  6
CONTINUOUS
 62
     9
 66
     1
 10
0.0
 20
0.0
 30
0.0
  0
VERTEX
  5
3D5
  8
0
  6
CONTINUOUS
 62
     9
 10
-1158.251375932754
 20
657.8358502261938
 30
0.0
  0
VERTEX
  5
3D6
  8
0
  6
CONTINUOUS
 62
     9
 10
-1158.182585344626
 20
657.155141061825
 30
0.0
  0
VERTEX
  5
3D7
  8
0
  6
CONTINUOUS
 62
     9
 10
-1157.98257697811
 20
656.5005003106686
 30
0.0
  0
VERTEX
  5
3D8
  8
0
  6
CONTINUOUS
 62
     9
 10
-1157.659010346281
 20
655.89699807094
 30
0.0
  0
VERTEX
  5
3D9
  8
0
  6
CONTINUOUS
 62
     9
 10
-1157.224276745012
 20
655.3677460422948
 30
0.0
  0
VERTEX
  5
3DA
  8
0
  6
CONTINUOUS
 62
     9
 10
-1156.695024716367
 20
654.9330124410263
 30
0.0
  0
VERTEX
  5
3DB
  8
0
  6
CONTINUOUS
 62
     9
 10
-1156.091522476638
 20
654.6094458091968
 30
0.0
  0
VERTEX
  5
3DC
  8
0
  6
CONTINUOUS
 62
     9
 10
-1155.436881725482
 20
654.4094374426809
 30
0.0
  0
VERTEX
  5
3DD
  8
0
  6
CONTINUOUS
 62
     9
 10
-1154.756172561113
 20
654.3406468545529
 30
0.0
  0
SEQEND
  5
68D
  8
0
  6
CONTINUOUS
 62
     9
  0
POLYLINE
  5
117
  8
0
  6
CONTINUOUS
 62
     9
 66
     1
 10
0.0
 20
0.0
 30
0.0
  0
VERTEX
  5
3DE
  8
0
  6
CONTINUOUS
 62
     9
 10
-916.7486240672458
 20
860.1641497738063
 30
0.0
  0
VERTEX
  5
3DF
  8
0
  6
CONTINUOUS
 62
     9
 10
-916.8174146553738
 20
860.844858938175
 30
0.0
  0
VERTEX
  5
3E0
  8
0
  6
CONTINUOUS
 62
     9
 10
-917.0174230218897
 20
861.4994996893314
 30
0.0
  0
VERTEX
  5
3E1
  8
0
  6
CONTINUOUS
 62
     9
 10
-917.3409896537192
 20
862.10300192906
 30
0.0
  0
VERTEX
  5
3E2
  8
0
  6
CONTINUOUS
 62
     9
 10
-917.7757232549877
 20
862.6322539577052
 30
0.0
  0
VERTEX
  5
3E3
  8
0
  6
CONTINUOUS
 62
     9
 10
-918.3049752836329
 20
863.0669875589737
 30
0.0
  0
VERTEX
  5
3E4
  8
0
  6
CONTINUOUS
 62
     9
 10
-918.9084775233615
 20
863.3905541908033
 30
0.0
  0
VERTEX
  5
3E5
  8
0
  6
CONTINUOUS
 62
     9
 10
-919.5631182745179
 20
863.5905625573191
 30
0.0
  0
VERTEX
  5
3E6
  8
0
  6
CONTINUOUS
 62
     9
 10
-920.2438274388867
 20
863.6593531454472
 30
0.0
  0
SEQEND
  5
68E
  8
0
  6
CONTINUOUS
 62
     9
  0
POLYLINE
  5
118
  8
0
  6
CONTINUOUS
 62
     9
 66
     1
 10
0.0
 20
0.0
 30
0.0
  0
VERTEX
  5
3E7
  8
0
  6
CONTINUOUS
 62
     9
 10
-1154.756172561114
 20
863.6593531454473
 30
0.0
  0
VERTEX
  5
3E8
  8
0
  6
CONTINUOUS
 62
     9
 10
-1155.436881725482
 20
863.5905625573192
 30
0.0
  0
VERTEX
  5
3E9
  8
0
  6
CONTINUOUS
 62
     9
 10
-1156.091522476639
 20
863.3905541908033
 30
0.0
  0
VERTEX
  5
3EA
  8
0
  6
CONTINUOUS
 62
     9
 10
-1156.695024716368
 20
863.0669875589737
 30
0.0
  0
VERTEX
  5
3EB
  8
0
  6
CONTINUOUS
 62
     9
 10
-1157.224276745013
 20
862.6322539577052
 30
0.0
  0
VERTEX
  5
3EC
  8
0
  6
CONTINUOUS
 62
     9
 10
-1157.659010346281
 20
862.1030019290599
 30
0.0
  0
VERTEX
  5
3ED
  8
0
  6
CONTINUOUS
 62
     9
 10
-1157.982576978111
 20
861.4994996893312
 30
0.0
  0
VERTEX
  5
3EE
  8
0
  6
CONTINUOUS
 62
     9
 10
-1158.182585344626
 20
860.8448589381749
 30
0.0
  0
VERTEX
  5
3EF
  8
0
  6
CONTINUOUS
 62
     9
 10
-1158.251375932755
 20
860.1641497738061
 30
0.0
  0
SEQEND
  5
68F
  8
0
  6
CONTINUOUS
 62
     9
  0
POLYLINE
  5
119
  8
0
  6
CONTINUOUS
 62
     9
 66
     1
 10
0.0
 20
0.0
 30
0.0
  0
VERTEX
  5
3F0
  8
0
  6
CONTINUOUS
 62
     9
 10
-1054.335850226194
 20
638.2486240672456
 30
0.0
  0
VERTEX
  5
3F1
  8
0
  6
CONTINUOUS
 62
     9
 10
-1053.655141061825
 20
638.3174146553737
 30
0.0
  0
VERTEX
  5
3F2
  8
0
  6
CONTINUOUS
 62
     9
 10
-1053.000500310669
 20
638.5174230218896
 30
0.0
  0
VERTEX
  5
3F3
  8
0
  6
CONTINUOUS
 62
     9
 10
-1052.39699807094
 20
638.8409896537191
 30
0.0
  0
VERTEX
  5
3F4
  8
0
  6
CONTINUOUS
 62
     9
 10
-1051.867746042295
 20
639.2757232549876
 30
0.0
  0
VERTEX
  5
3F5
  8
0
  6
CONTINUOUS
 62
     9
 10
-1051.433012441026
 20
639.8049752836329
 30
0.0
  0
VERTEX
  5
3F6
  8
0
  6
CONTINUOUS
 62
     9
 10
-1051.109445809197
 20
640.4084775233617
 30
0.0
  0
VERTEX
  5
3F7
  8
0
  6
CONTINUOUS
 62
     9
 10
-1050.909437442681
 20
641.063118274518
 30
0.0
  0
VERTEX
  5
3F8
  8
0
  6
CONTINUOUS
 62
     9
 10
-1050.840646854553
 20
641.7438274388868
 30
0.0
  0
SEQEND
  5
690
  8
0
  6
CONTINUOUS
 62
     9
  0
POLYLINE
  5
11A
  8
0
  6
CONTINUOUS
 62
     9
 66
     1
 10
0.0
 20
0.0
 30
0.0
  0
VERTEX
  5
3F9
  8
0
  6
CONTINUOUS
 62
     9
 10
-1142.159353145447
 20
641.7438274388868
 30
0.0
  0
VERTEX
  5
3FA
  8
0
  6
CONTINUOUS
 62
     9
 10
-1142.09056255732
 20
641.063118274518
 30
0.0
  0
VERTEX
  5
3FB
  8
0
  6
CONTINUOUS
 62
     9
 10
-1141.890554190803
 20
640.4084775233616
 30
0.0
  0
VERTEX
  5
3FC
  8
0
  6
CONTINUOUS
 62
     9
 10
-1141.566987558974
 20
639.8049752836329
 30
0.0
  0
VERTEX
  5
3FD
  8
0
  6
CONTINUOUS
 62
     9
 10
-1141.132253957706
 20
639.2757232549876
 30
0.0
  0
VERTEX
  5
3FE
  8
0
  6
CONTINUOUS
 62
     9
 10
-1140.60300192906
 20
638.840989653719
 30
0.0
  0
VERTEX
  5
3FF
  8
0
  6
CONTINUOUS
 62
     9
 10
-1139.999499689332
 20
638.5174230218895
 30
0.0
  0
VERTEX
  5
400
  8
0
  6
CONTINUOUS
 62
     9
 10
-1139.344858938175
 20
638.3174146553737
 30
0.0
  0
VERTEX
  5
401
  8
0
  6
CONTINUOUS
 62
     9
 10
-1138.664149773806
 20
638.2486240672456
 30
0.0
  0
SEQEND
  5
691
  8
0
  6
CONTINUOUS
 62
     9
  0
POLYLINE
  5
11B
  8
0
  6
CONTINUOUS
 62
     9
 66
     1
 10
0.0
 20
0.0
 30
0.0
  0
VERTEX
  5
402
  8
0
  6
CONTINUOUS
 62
     9
 10
-936.3358502261937
 20
638.2486240672457
 30
0.0
  0
VERTEX
  5
403
  8
0
  6
CONTINUOUS
 62
     9
 10
-935.6551410618249
 20
638.3174146553737
 30
0.0
  0
VERTEX
  5
404
  8
0
  6
CONTINUOUS
 62
     9
 10
-935.0005003106686
 20
638.5174230218896
 30
0.0
  0
VERTEX
  5
405
  8
0
  6
CONTINUOUS
 62
     9
 10
-934.3969980709398
 20
638.8409896537191
 30
0.0
  0
VERTEX
  5
406
  8
0
  6
CONTINUOUS
 62
     9
 10
-933.8677460422946
 20
639.2757232549876
 30
0.0
  0
VERTEX
  5
407
  8
0
  6
CONTINUOUS
 62
     9
 10
-933.4330124410261
 20
639.8049752836329
 30
0.0
  0
VERTEX
  5
408
  8
0
  6
CONTINUOUS
 62
     9
 10
-933.1094458091966
 20
640.4084775233616
 30
0.0
  0
VERTEX
  5
409
  8
0
  6
CONTINUOUS
 62
     9
 10
-932.9094374426808
 20
641.0631182745179
 30
0.0
  0
VERTEX
  5
40A
  8
0
  6
CONTINUOUS
 62
     9
 10
-932.8406468545527
 20
641.7438274388867
 30
0.0
  0
SEQEND
  5
692
  8
0
  6
CONTINUOUS
 62
     9
  0
POLYLINE
  5
11C
  8
0
  6
CONTINUOUS
 62
     9
 66
     1
 10
0.0
 20
0.0
 30
0.0
  0
VERTEX
  5
40B
  8
0
  6
CONTINUOUS
 62
     9
 10
-1024.159353145447
 20
641.7438274388866
 30
0.0
  0
VERTEX
  5
40C
  8
0
  6
CONTINUOUS
 62
     9
 10
-1024.090562557319
 20
641.0631182745179
 30
0.0
  0
VERTEX
  5
40D
  8
0
  6
CONTINUOUS
 62
     9
 10
-1023.890554190803
 20
640.4084775233615
 30
0.0
  0
VERTEX
  5
40E
  8
0
  6
CONTINUOUS
 62
     9
 10
-1023.566987558974
 20
639.8049752836329
 30
0.0
  0
VERTEX
  5
40F
  8
0
  6
CONTINUOUS
 62
     9
 10
-1023.132253957705
 20
639.2757232549876
 30
0.0
  0
VERTEX
  5
410
  8
0
  6
CONTINUOUS
 62
     9
 10
-1022.60300192906
 20
638.8409896537191
 30
0.0
  0
VERTEX
  5
411
  8
0
  6
CONTINUOUS
 62
     9
 10
-1021.999499689331
 20
638.5174230218896
 30
0.0
  0
VERTEX
  5
412
  8
0
  6
CONTINUOUS
 62
     9
 10
-1021.344858938175
 20
638.3174146553738
 30
0.0
  0
VERTEX
  5
413
  8
0
  6
CONTINUOUS
 62
     9
 10
-1020.664149773806
 20
638.2486240672457
 30
0.0
  0
SEQEND
  5
693
  8
0
  6
CONTINUOUS
 62
     9
  0
POLYLINE
  5
11D
  8
0
  6
CONTINUOUS
 62
     9
 66
     1
 10
0.0
 20
0.0
 30
0.0
  0
VERTEX
  5
414
  8
0
  6
CONTINUOUS
 62
     9
 10
-1020.664149773806
 20
879.7513759327544
 30
0.0
  0
VERTEX
  5
415
  8
0
  6
CONTINUOUS
 62
     9
 10
-1021.344858938175
 20
879.6825853446263
 30
0.0
  0
VERTEX
  5
416
  8
0
  6
CONTINUOUS
 62
     9
 10
-1021.999499689332
 20
879.4825769781104
 30
0.0
  0
VERTEX
  5
417
  8
0
  6
CONTINUOUS
 62
     9
 10
-1022.60300192906
 20
879.1590103462809
 30
0.0
  0
VERTEX
  5
418
  8
0
  6
CONTINUOUS
 62
     9
 10
-1023.132253957705
 20
878.7242767450124
 30
0.0
  0
VERTEX
  5
419
  8
0
  6
CONTINUOUS
 62
     9
 10
-1023.566987558974
 20
878.1950247163671
 30
0.0
  0
VERTEX
  5
41A
  8
0
  6
CONTINUOUS
 62
     9
 10
-1023.890554190803
 20
877.5915224766384
 30
0.0
  0
VERTEX
  5
41B
  8
0
  6
CONTINUOUS
 62
     9
 10
-1024.090562557319
 20
876.936881725482
 30
0.0
  0
VERTEX
  5
41C
  8
0
  6
CONTINUOUS
 62
     9
 10
-1024.159353145447
 20
876.2561725611132
 30
0.0
  0
SEQEND
  5
694
  8
0
  6
CONTINUOUS
 62
     9
  0
POLYLINE
  5
11E
  8
0
  6
CONTINUOUS
 62
     9
 66
     1
 10
0.0
 20
0.0
 30
0.0
  0
VERTEX
  5
41D
  8
0
  6
CONTINUOUS
 62
     9
 10
-1050.840646854553
 20
876.2561725611134
 30
0.0
  0
VERTEX
  5
41E
  8
0
  6
CONTINUOUS
 62
     9
 10
-1050.909437442681
 20
876.9368817254822
 30
0.0
  0
VERTEX
  5
41F
  8
0
  6
CONTINUOUS
 62
     9
 10
-1051.109445809197
 20
877.5915224766385
 30
0.0
  0
VERTEX
  5
420
  8
0
  6
CONTINUOUS
 62
     9
 10
-1051.433012441027
 20
878.1950247163671
 30
0.0
  0
VERTEX
  5
421
  8
0
  6
CONTINUOUS
 62
     9
 10
-1051.867746042295
 20
878.7242767450124
 30
0.0
  0
VERTEX
  5
422
  8
0
  6
CONTINUOUS
 62
     9
 10
-1052.39699807094
 20
879.1590103462809
 30
0.0
  0
VERTEX
  5
423
  8
0
  6
CONTINUOUS
 62
     9
 10
-1053.000500310669
 20
879.4825769781104
 30
0.0
  0
VERTEX
  5
424
  8
0
  6
CONTINUOUS
 62
     9
 10
-1053.655141061825
 20
879.6825853446262
 30
0.0
  0
VERTEX
  5
425
  8
0
  6
CONTINUOUS
 62
     9
 10
-1054.335850226194
 20
879.7513759327543
 30
0.0
  0
SEQEND
  5
695
  8
0
  6
CONTINUOUS
 62
     9
  0
POLYLINE
  5
11F
  8
0
  6
CONTINUOUS
 62
     9
 66
     1
 10
0.0
 20
0.0
 30
0.0
  0
VERTEX
  5
426
  8
0
  6
CONTINUOUS
 62
     9
 10
-1138.664149773806
 20
879.7513759327543
 30
0.0
  0
VERTEX
  5
427
  8
0
  6
CONTINUOUS
 62
     9
 10
-1139.344858938175
 20
879.6825853446263
 30
0.0
  0
VERTEX
  5
428
  8
0
  6
CONTINUOUS
 62
     9
 10
-1139.999499689331
 20
879.4825769781104
 30
0.0
  0
VERTEX
  5
429
  8
0
  6
CONTINUOUS
 62
     9
 10
-1140.60300192906
 20
879.1590103462808
 30
0.0
  0
VERTEX
  5
42A
  8
0
  6
CONTINUOUS
 62
     9
 10
-1141.132253957705
 20
878.7242767450124
 30
0.0
  0
VERTEX
  5
42B
  8
0
  6
CONTINUOUS
 62
     9
 10
-1141.566987558974
 20
878.1950247163672
 30
0.0
  0
VERTEX
  5
42C
  8
0
  6
CONTINUOUS
 62
     9
 10
-1141.890554190803
 20
877.5915224766385
 30
0.0
  0
VERTEX
  5
42D
  8
0
  6
CONTINUOUS
 62
     9
 10
-1142.090562557319
 20
876.9368817254821
 30
0.0
  0
VERTEX
  5
42E
  8
0
  6
CONTINUOUS
 62
     9
 10
-1142.159353145447
 20
876.2561725611134
 30
0.0
  0
SEQEND
  5
696
  8
0
  6
CONTINUOUS
 62
     9
  0
POLYLINE
  5
120
  8
0
  6
CONTINUOUS
 62
     9
 66
     1
 10
0.0
 20
0.0
 30
0.0
  0
VERTEX
  5
42F
  8
0
  6
CONTINUOUS
 62
     9
 10
-932.8406468545527
 20
876.2561725611133
 30
0.0
  0
VERTEX
  5
430
  8
0
  6
CONTINUOUS
 62
     9
 10
-932.9094374426808
 20
876.9368817254821
 30
0.0
  0
VERTEX
  5
431
  8
0
  6
CONTINUOUS
 62
     9
 10
-933.1094458091966
 20
877.5915224766385
 30
0.0
  0
VERTEX
  5
432
  8
0
  6
CONTINUOUS
 62
     9
 10
-933.4330124410262
 20
878.1950247163671
 30
0.0
  0
VERTEX
  5
433
  8
0
  6
CONTINUOUS
 62
     9
 10
-933.8677460422946
 20
878.7242767450124
 30
0.0
  0
VERTEX
  5
434
  8
0
  6
CONTINUOUS
 62
     9
 10
-934.3969980709398
 20
879.1590103462809
 30
0.0
  0
VERTEX
  5
435
  8
0
  6
CONTINUOUS
 62
     9
 10
-935.0005003106686
 20
879.4825769781105
 30
0.0
  0
VERTEX
  5
436
  8
0
  6
CONTINUOUS
 62
     9
 10
-935.655141061825
 20
879.6825853446263
 30
0.0
  0
VERTEX
  5
437
  8
0
  6
CONTINUOUS
 62
     9
 10
-936.3358502261938
 20
879.7513759327544
 30
0.0
  0
SEQEND
  5
697
  8
0
  6
CONTINUOUS
 62
     9
  0
POLYLINE
  5
121
  8
0
  6
CONTINUOUS
 62
     9
 66
     1
 10
0.0
 20
0.0
 30
0.0
  0
VERTEX
  5
438
  8
0
  6
CONTINUOUS
 62
     9
 10
-1154.756172561114
 20
745.6593531454471
 30
0.0
  0
VERTEX
  5
439
  8
0
  6
CONTINUOUS
 62
     9
 10
-1155.436881725482
 20
745.590562557319
 30
0.0
  0
VERTEX
  5
43A
  8
0
  6
CONTINUOUS
 62
     9
 10
-1156.091522476639
 20
745.3905541908032
 30
0.0
  0
VERTEX
  5
43B
  8
0
  6
CONTINUOUS
 62
     9
 10
-1156.695024716367
 20
745.0669875589736
 30
0.0
  0
VERTEX
  5
43C
  8
0
  6
CONTINUOUS
 62
     9
 10
-1157.224276745013
 20
744.6322539577051
 30
0.0
  0
VERTEX
  5
43D
  8
0
  6
CONTINUOUS
 62
     9
 10
-1157.659010346281
 20
744.1030019290599
 30
0.0
  0
VERTEX
  5
43E
  8
0
  6
CONTINUOUS
 62
     9
 10
-1157.982576978111
 20
743.4994996893313
 30
0.0
  0
VERTEX
  5
43F
  8
0
  6
CONTINUOUS
 62
     9
 10
-1158.182585344626
 20
742.8448589381749
 30
0.0
  0
VERTEX
  5
440
  8
0
  6
CONTINUOUS
 62
     9
 10
-1158.251375932755
 20
742.1641497738061
 30
0.0
  0
SEQEND
  5
698
  8
0
  6
CONTINUOUS
 62
     9
  0
POLYLINE
  5
122
  8
0
  6
CONTINUOUS
 62
     9
 66
     1
 10
0.0
 20
0.0
 30
0.0
  0
VERTEX
  5
441
  8
0
  6
CONTINUOUS
 62
     9
 10
-916.7486240672458
 20
742.1641497738065
 30
0.0
  0
VERTEX
  5
442
  8
0
  6
CONTINUOUS
 62
     9
 10
-916.8174146553738
 20
742.8448589381751
 30
0.0
  0
VERTEX
  5
443
  8
0
  6
CONTINUOUS
 62
     9
 10
-917.0174230218897
 20
743.4994996893315
 30
0.0
  0
VERTEX
  5
444
  8
0
  6
CONTINUOUS
 62
     9
 10
-917.3409896537192
 20
744.1030019290602
 30
0.0
  0
VERTEX
  5
445
  8
0
  6
CONTINUOUS
 62
     9
 10
-917.7757232549878
 20
744.6322539577054
 30
0.0
  0
VERTEX
  5
446
  8
0
  6
CONTINUOUS
 62
     9
 10
-918.304975283633
 20
745.0669875589739
 30
0.0
  0
VERTEX
  5
447
  8
0
  6
CONTINUOUS
 62
     9
 10
-918.9084775233616
 20
745.3905541908033
 30
0.0
  0
VERTEX
  5
448
  8
0
  6
CONTINUOUS
 62
     9
 10
-919.563118274518
 20
745.5905625573193
 30
0.0
  0
VERTEX
  5
449
  8
0
  6
CONTINUOUS
 62
     9
 10
-920.2438274388868
 20
745.6593531454472
 30
0.0
  0
SEQEND
  5
699
  8
0
  6
CONTINUOUS
 62
     9
  0
POLYLINE
  5
123
  8
0
  6
CONTINUOUS
 62
     9
 66
     1
 10
0.0
 20
0.0
 30
0.0
  0
VERTEX
  5
44A
  8
0
  6
CONTINUOUS
 62
     9
 10
-920.2438274388867
 20
772.3406468545528
 30
0.0
  0
VERTEX
  5
44B
  8
0
  6
CONTINUOUS
 62
     9
 10
-919.563118274518
 20
772.4094374426808
 30
0.0
  0
VERTEX
  5
44C
  8
0
  6
CONTINUOUS
 62
     9
 10
-918.9084775233617
 20
772.6094458091967
 30
0.0
  0
VERTEX
  5
44D
  8
0
  6
CONTINUOUS
 62
     9
 10
-918.304975283633
 20
772.9330124410262
 30
0.0
  0
VERTEX
  5
44E
  8
0
  6
CONTINUOUS
 62
     9
 10
-917.7757232549877
 20
773.3677460422947
 30
0.0
  0
VERTEX
  5
44F
  8
0
  6
CONTINUOUS
 62
     9
 10
-917.3409896537194
 20
773.89699807094
 30
0.0
  0
VERTEX
  5
450
  8
0
  6
CONTINUOUS
 62
     9
 10
-917.0174230218897
 20
774.5005003106687
 30
0.0
  0
VERTEX
  5
451
  8
0
  6
CONTINUOUS
 62
     9
 10
-916.8174146553738
 20
775.155141061825
 30
0.0
  0
VERTEX
  5
452
  8
0
  6
CONTINUOUS
 62
     9
 10
-916.7486240672458
 20
775.8358502261939
 30
0.0
  0
SEQEND
  5
69A
  8
0
  6
CONTINUOUS
 62
     9
  0
POLYLINE
  5
124
  8
0
  6
CONTINUOUS
 62
     9
 66
     1
 10
0.0
 20
0.0
 30
0.0
  0
VERTEX
  5
453
  8
0
  6
CONTINUOUS
 62
     9
 10
-1158.251375932755
 20
775.8358502261935
 30
0.0
  0
VERTEX
  5
454
  8
0
  6
CONTINUOUS
 62
     9
 10
-1158.182585344627
 20
775.1551410618247
 30
0.0
  0
VERTEX
  5
455
  8
0
  6
CONTINUOUS
 62
     9
 10
-1157.982576978111
 20
774.5005003106684
 30
0.0
  0
VERTEX
  5
456
  8
0
  6
CONTINUOUS
 62
     9
 10
-1157.659010346281
 20
773.8969980709397
 30
0.0
  0
VERTEX
  5
457
  8
0
  6
CONTINUOUS
 62
     9
 10
-1157.224276745013
 20
773.3677460422945
 30
0.0
  0
VERTEX
  5
458
  8
0
  6
CONTINUOUS
 62
     9
 10
-1156.695024716367
 20
772.9330124410261
 30
0.0
  0
VERTEX
  5
459
  8
0
  6
CONTINUOUS
 62
     9
 10
-1156.091522476639
 20
772.6094458091966
 30
0.0
  0
VERTEX
  5
45A
  8
0
  6
CONTINUOUS
 62
     9
 10
-1155.436881725482
 20
772.4094374426807
 30
0.0
  0
VERTEX
  5
45B
  8
0
  6
CONTINUOUS
 62
     9
 10
-1154.756172561114
 20
772.3406468545527
 30
0.0
  0
SEQEND
  5
69B
  8
0
  6
CONTINUOUS
 62
     9
  0
POLYLINE
  5
125
  8
0
  6
CONTINUOUS
 62
     9
 66
     1
 10
0.0
 20
0.0
 30
0.0
  0
VERTEX
  5
45C
  8
0
  6
CONTINUOUS
 62
     9
 10
-1134.009639025301
 20
820.582906935951
 30
0.0
  0
VERTEX
  5
45D
  8
0
  6
CONTINUOUS
 62
     9
 10
-1135.189488138176
 20
819.1451784871829
 30
0.0
  0
VERTEX
  5
45E
  8
0
  6
CONTINUOUS
 62
     9
 10
-1136.066126730753
 20
817.5050960121267
 30
0.0
  0
VERTEX
  5
45F
  8
0
  6
CONTINUOUS
 62
     9
 10
-1136.605963077109
 20
815.7255054788482
 30
0.0
  0
VERTEX
  5
460
  8
0
  6
CONTINUOUS
 62
     9
 10
-1136.788311304247
 20
813.8745986347288
 30
0.0
  0
SEQEND
  5
69C
  8
0
  6
CONTINUOUS
 62
     9
  0
POLYLINE
  5
126
  8
0
  6
CONTINUOUS
 62
     9
 66
     1
 10
0.0
 20
0.0
 30
0.0
  0
VERTEX
  5
461
  8
0
  6
CONTINUOUS
 62
     9
 10
-940.9903609746991
 20
697.417093064049
 30
0.0
  0
VERTEX
  5
462
  8
0
  6
CONTINUOUS
 62
     9
 10
-939.8105118618245
 20
698.8548215128171
 30
0.0
  0
VERTEX
  5
463
  8
0
  6
CONTINUOUS
 62
     9
 10
-938.9338732692472
 20
700.4949039878733
 30
0.0
  0
VERTEX
  5
464
  8
0
  6
CONTINUOUS
 62
     9
 10
-938.394036922891
 20
702.2744945211518
 30
0.0
  0
VERTEX
  5
465
  8
0
  6
CONTINUOUS
 62
     9
 10
-938.2116886957529
 20
704.1254013652712
 30
0.0
  0
SEQEND
  5
69D
  8
0
  6
CONTINUOUS
 62
     9
  0
POLYLINE
  5
127
  8
0
  6
CONTINUOUS
 62
     9
 66
     1
 10
0.0
 20
0.0
 30
0.0
  0
VERTEX
  5
466
  8
0
  6
CONTINUOUS
 62
     9
 10
-1099.082906935951
 20
662.490360974699
 30
0.0
  0
VERTEX
  5
467
  8
0
  6
CONTINUOUS
 62
     9
 10
-1097.645178487183
 20
661.3105118618242
 30
0.0
  0
VERTEX
  5
468
  8
0
  6
CONTINUOUS
 62
     9
 10
-1096.005096012127
 20
660.433873269247
 30
0.0
  0
VERTEX
  5
469
  8
0
  6
CONTINUOUS
 62
     9
 10
-1094.225505478848
 20
659.8940369228908
 30
0.0
  0
VERTEX
  5
46A
  8
0
  6
CONTINUOUS
 62
     9
 10
-1092.374598634729
 20
659.7116886957526
 30
0.0
  0
SEQEND
  5
69E
  8
0
  6
CONTINUOUS
 62
     9
  0
POLYLINE
  5
128
  8
0
  6
CONTINUOUS
 62
     9
 66
     1
 10
0.0
 20
0.0
 30
0.0
  0
VERTEX
  5
46B
  8
0
  6
CONTINUOUS
 62
     9
 10
-1092.374598634729
 20
858.2883113042473
 30
0.0
  0
VERTEX
  5
46C
  8
0
  6
CONTINUOUS
 62
     9
 10
-1094.225505478848
 20
858.1059630771091
 30
0.0
  0
VERTEX
  5
46D
  8
0
  6
CONTINUOUS
 62
     9
 10
-1096.005096012127
 20
857.5661267307529
 30
0.0
  0
VERTEX
  5
46E
  8
0
  6
CONTINUOUS
 62
     9
 10
-1097.645178487183
 20
856.6894881381758
 30
0.0
  0
VERTEX
  5
46F
  8
0
  6
CONTINUOUS
 62
     9
 10
-1099.082906935951
 20
855.509639025301
 30
0.0
  0
SEQEND
  5
69F
  8
0
  6
CONTINUOUS
 62
     9
  0
POLYLINE
  5
129
  8
0
  6
CONTINUOUS
 62
     9
 66
     1
 10
0.0
 20
0.0
 30
0.0
  0
VERTEX
  5
470
  8
0
  6
CONTINUOUS
 62
     9
 10
-938.2116886957529
 20
813.8745986347287
 30
0.0
  0
VERTEX
  5
471
  8
0
  6
CONTINUOUS
 62
     9
 10
-938.3940369228909
 20
815.7255054788482
 30
0.0
  0
VERTEX
  5
472
  8
0
  6
CONTINUOUS
 62
     9
 10
-938.9338732692471
 20
817.5050960121267
 30
0.0
  0
VERTEX
  5
473
  8
0
  6
CONTINUOUS
 62
     9
 10
-939.8105118618244
 20
819.1451784871829
 30
0.0
  0
VERTEX
  5
474
  8
0
  6
CONTINUOUS
 62
     9
 10
-940.9903609746991
 20
820.582906935951
 30
0.0
  0
SEQEND
  5
6A0
  8
0
  6
CONTINUOUS
 62
     9
  0
POLYLINE
  5
12A
  8
0
  6
CONTINUOUS
 62
     9
 66
     1
 10
0.0
 20
0.0
 30
0.0
  0
VERTEX
  5
475
  8
0
  6
CONTINUOUS
 62
     9
 10
-1136.788311304247
 20
704.1254013652712
 30
0.0
  0
VERTEX
  5
476
  8
0
  6
CONTINUOUS
 62
     9
 10
-1136.605963077109
 20
702.2744945211517
 30
0.0
  0
VERTEX
  5
477
  8
0
  6
CONTINUOUS
 62
     9
 10
-1136.066126730753
 20
700.4949039878732
 30
0.0
  0
VERTEX
  5
478
  8
0
  6
CONTINUOUS
 62
     9
 10
-1135.189488138176
 20
698.854821512817
 30
0.0
  0
VERTEX
  5
479
  8
0
  6
CONTINUOUS
 62
     9
 10
-1134.009639025301
 20
697.4170930640489
 30
0.0
  0
SEQEND
  5
6A1
  8
0
  6
CONTINUOUS
 62
     9
  0
POLYLINE
  5
12B
  8
0
  6
CONTINUOUS
 62
     9
 66
     1
 10
0.0
 20
0.0
 30
0.0
  0
VERTEX
  5
47A
  8
0
  6
CONTINUOUS
 62
     9
 10
-982.6254013652712
 20
659.7116886957527
 30
0.0
  0
VERTEX
  5
47B
  8
0
  6
CONTINUOUS
 62
     9
 10
-980.7744945211518
 20
659.8940369228909
 30
0.0
  0
VERTEX
  5
47C
  8
0
  6
CONTINUOUS
 62
     9
 10
-978.9949039878733
 20
660.4338732692471
 30
0.0
  0
VERTEX
  5
47D
  8
0
  6
CONTINUOUS
 62
     9
 10
-977.3548215128171
 20
661.3105118618242
 30
0.0
  0
VERTEX
  5
47E
  8
0
  6
CONTINUOUS
 62
     9
 10
-975.917093064049
 20
662.490360974699
 30
0.0
  0
SEQEND
  5
6A2
  8
0
  6
CONTINUOUS
 62
     9
  0
POLYLINE
  5
12C
  8
0
  6
CONTINUOUS
 62
     9
 66
     1
 10
0.0
 20
0.0
 30
0.0
  0
VERTEX
  5
47F
  8
0
  6
CONTINUOUS
 62
     9
 10
-975.917093064049
 20
855.509639025301
 30
0.0
  0
VERTEX
  5
480
  8
0
  6
CONTINUOUS
 62
     9
 10
-977.3548215128171
 20
856.6894881381758
 30
0.0
  0
VERTEX
  5
481
  8
0
  6
CONTINUOUS
 62
     9
 10
-978.9949039878733
 20
857.566126730753
 30
0.0
  0
VERTEX
  5
482
  8
0
  6
CONTINUOUS
 62
     9
 10
-980.7744945211518
 20
858.1059630771092
 30
0.0
  0
VERTEX
  5
483
  8
0
  6
CONTINUOUS
 62
     9
 10
-982.6254013652712
 20
858.2883113042474
 30
0.0
  0
SEQEND
  5
6A3
  8
0
  6
CONTINUOUS
 62
     9
  0
LINE
  5
12D
  8
0
  6
CONTINUOUS
 62
     9
 10
-982.6254013652712
 20
858.2883113042471
 30
0.0
 11
-1092.374598634729
 21
858.2883113042471
 31
0.0
  0
LINE
  5
12E
  8
0
  6
CONTINUOUS
 62
     9
 10
-982.6254013652712
 20
659.7116886957527
 30
0.0
 11
-1092.374598634729
 21
659.7116886957527
 31
0.0
  0
LINE
  5
12F
  8
0
  6
CONTINUOUS
 62
     9
 10
-940.9903609746991
 20
820.5829069359511
 30
0.0
 11
-975.917093064049
 21
855.509639025301
 31
0.0
  0
LINE
  5
130
  8
0
  6
CONTINUOUS
 62
     9
 10
-1134.009639025301
 20
820.582906935951
 30
0.0
 11
-1099.082906935951
 21
855.509639025301
 31
0.0
  0
LINE
  5
131
  8
0
  6
CONTINUOUS
 62
     9
 10
-1134.009639025301
 20
697.4170930640488
 30
0.0
 11
-1099.082906935951
 21
662.490360974699
 31
0.0
  0
LINE
  5
132
  8
0
  6
CONTINUOUS
 62
     9
 10
-940.9903609746991
 20
697.4170930640489
 30
0.0
 11
-975.917093064049
 21
662.490360974699
 31
0.0
  0
LINE
  5
133
  8
0
  6
CONTINUOUS
 62
     9
 10
-1136.788311304247
 20
704.1254013652712
 30
0.0
 11
-1136.788311304247
 21
813.8745986347288
 31
0.0
  0
LINE
  5
134
  8
0
  6
CONTINUOUS
 62
     9
 10
-938.2116886957529
 20
704.1254013652712
 30
0.0
 11
-938.2116886957529
 21
813.8745986347288
 31
0.0
  0
LINE
  5
135
  8
0
  6
CONTINUOUS
 62
     9
 10
-1078.552405898531
 20
764.048979735417
 30
0.0
 11
-1076.44759410147
 21
764.048979735417
 31
0.0
  0
LINE
  5
136
  8
0
  6
CONTINUOUS
 62
     9
 10
-1033.951020264583
 20
756.4475941014695
 30
0.0
 11
-1033.951020264583
 21
761.5524058985305
 31
0.0
  0
LINE
  5
137
  8
0
  6
CONTINUOUS
 62
     9
 10
-1042.548979735417
 20
797.9475941014695
 30
0.0
 11
-1042.548979735417
 21
800.0524058985305
 31
0.0
  0
POLYLINE
  5
138
  8
0
  6
CONTINUOUS
 62
     9
 66
     1
 10
0.0
 20
0.0
 30
0.0
  0
VERTEX
  5
484
  8
0
  6
CONTINUOUS
 62
     9
 10
-1034.94759410147
 20
795.4510202645829
 30
0.0
  0
VERTEX
  5
485
  8
0
  6
CONTINUOUS
 62
     9
 10
-1034.460893075359
 20
795.4996762045415
 30
0.0
  0
VERTEX
  5
486
  8
0
  6
CONTINUOUS
 62
     9
 10
-1033.992935772507
 20
795.6421825571695
 30
0.0
  0
VERTEX
  5
487
  8
0
  6
CONTINUOUS
 62
     9
 10
-1033.561643068634
 20
795.8730819044094
 30
0.0
  0
VERTEX
  5
488
  8
0
  6
CONTINUOUS
 62
     9
 10
-1033.183531733321
 20
796.1835317333209
 30
0.0
  0
VERTEX
  5
489
  8
0
  6
CONTINUOUS
 62
     9
 10
-1032.873081904409
 20
796.5616430686334
 30
0.0
  0
VERTEX
  5
48A
  8
0
  6
CONTINUOUS
 62
     9
 10
-1032.64218255717
 20
796.9929357725066
 30
0.0
  0
VERTEX
  5
48B
  8
0
  6
CONTINUOUS
 62
     9
 10
-1032.499676204542
 20
797.4608930753587
 30
0.0
  0
VERTEX
  5
48C
  8
0
  6
CONTINUOUS
 62
     9
 10
-1032.451020264583
 20
797.9475941014693
 30
0.0
  0
SEQEND
  5
6A4
  8
0
  6
CONTINUOUS
 62
     9
  0
LINE
  5
139
  8
0
  6
CONTINUOUS
 62
     9
 10
-1041.048979735417
 20
756.4475941014695
 30
0.0
 11
-1041.048979735417
 21
761.5524058985305
 31
0.0
  0
POLYLINE
  5
13A
  8
0
  6
CONTINUOUS
 62
     9
 66
     1
 10
0.0
 20
0.0
 30
0.0
  0
VERTEX
  5
48D
  8
0
  6
CONTINUOUS
 62
     9
 10
-1073.951020264583
 20
761.5524058985305
 30
0.0
  0
VERTEX
  5
48E
  8
0
  6
CONTINUOUS
 62
     9
 10
-1073.999676204542
 20
762.0391069246411
 30
0.0
  0
VERTEX
  5
48F
  8
0
  6
CONTINUOUS
 62
     9
 10
-1074.14218255717
 20
762.5070642274932
 30
0.0
  0
VERTEX
  5
490
  8
0
  6
CONTINUOUS
 62
     9
 10
-1074.37308190441
 20
762.9383569313665
 30
0.0
  0
VERTEX
  5
491
  8
0
  6
CONTINUOUS
 62
     9
 10
-1074.683531733321
 20
763.316468266679
 30
0.0
  0
VERTEX
  5
492
  8
0
  6
CONTINUOUS
 62
     9
 10
-1075.061643068634
 20
763.6269180955904
 30
0.0
  0
VERTEX
  5
493
  8
0
  6
CONTINUOUS
 62
     9
 10
-1075.492935772507
 20
763.8578174428303
 30
0.0
  0
VERTEX
  5
494
  8
0
  6
CONTINUOUS
 62
     9
 10
-1075.960893075359
 20
764.0003237954584
 30
0.0
  0
VERTEX
  5
495
  8
0
  6
CONTINUOUS
 62
     9
 10
-1076.44759410147
 20
764.048979735417
 30
0.0
  0
SEQEND
  5
6A5
  8
0
  6
CONTINUOUS
 62
     9
  0
POLYLINE
  5
13B
  8
0
  6
CONTINUOUS
 62
     9
 66
     1
 10
0.0
 20
0.0
 30
0.0
  0
VERTEX
  5
496
  8
0
  6
CONTINUOUS
 62
     9
 10
-1040.05240589853
 20
722.5489797354169
 30
0.0
  0
VERTEX
  5
497
  8
0
  6
CONTINUOUS
 62
     9
 10
-1040.539106924641
 20
722.5003237954583
 30
0.0
  0
VERTEX
  5
498
  8
0
  6
CONTINUOUS
 62
     9
 10
-1041.007064227493
 20
722.3578174428303
 30
0.0
  0
VERTEX
  5
499
  8
0
  6
CONTINUOUS
 62
     9
 10
-1041.438356931366
 20
722.1269180955903
 30
0.0
  0
VERTEX
  5
49A
  8
0
  6
CONTINUOUS
 62
     9
 10
-1041.816468266679
 20
721.8164682666788
 30
0.0
  0
VERTEX
  5
49B
  8
0
  6
CONTINUOUS
 62
     9
 10
-1042.126918095591
 20
721.4383569313663
 30
0.0
  0
VERTEX
  5
49C
  8
0
  6
CONTINUOUS
 62
     9
 10
-1042.35781744283
 20
721.0070642274932
 30
0.0
  0
VERTEX
  5
49D
  8
0
  6
CONTINUOUS
 62
     9
 10
-1042.500323795458
 20
720.539106924641
 30
0.0
  0
VERTEX
  5
49E
  8
0
  6
CONTINUOUS
 62
     9
 10
-1042.548979735417
 20
720.0524058985304
 30
0.0
  0
SEQEND
  5
6A6
  8
0
  6
CONTINUOUS
 62
     9
  0
POLYLINE
  5
13C
  8
0
  6
CONTINUOUS
 62
     9
 66
     1
 10
0.0
 20
0.0
 30
0.0
  0
VERTEX
  5
49F
  8
0
  6
CONTINUOUS
 62
     9
 10
-1033.951020264583
 20
761.5524058985305
 30
0.0
  0
VERTEX
  5
4A0
  8
0
  6
CONTINUOUS
 62
     9
 10
-1033.999676204542
 20
762.0391069246411
 30
0.0
  0
VERTEX
  5
4A1
  8
0
  6
CONTINUOUS
 62
     9
 10
-1034.14218255717
 20
762.5070642274932
 30
0.0
  0
VERTEX
  5
4A2
  8
0
  6
CONTINUOUS
 62
     9
 10
-1034.373081904409
 20
762.9383569313665
 30
0.0
  0
VERTEX
  5
4A3
  8
0
  6
CONTINUOUS
 62
     9
 10
-1034.683531733321
 20
763.316468266679
 30
0.0
  0
VERTEX
  5
4A4
  8
0
  6
CONTINUOUS
 62
     9
 10
-1035.061643068634
 20
763.6269180955904
 30
0.0
  0
VERTEX
  5
4A5
  8
0
  6
CONTINUOUS
 62
     9
 10
-1035.492935772507
 20
763.8578174428303
 30
0.0
  0
VERTEX
  5
4A6
  8
0
  6
CONTINUOUS
 62
     9
 10
-1035.960893075359
 20
764.0003237954584
 30
0.0
  0
VERTEX
  5
4A7
  8
0
  6
CONTINUOUS
 62
     9
 10
-1036.44759410147
 20
764.048979735417
 30
0.0
  0
SEQEND
  5
6A7
  8
0
  6
CONTINUOUS
 62
     9
  0
LINE
  5
13D
  8
0
  6
CONTINUOUS
 62
     9
 10
-993.951020264583
 20
756.4475941014695
 30
0.0
 11
-993.951020264583
 21
761.5524058985305
 31
0.0
  0
POLYLINE
  5
13E
  8
0
  6
CONTINUOUS
 62
     9
 66
     1
 10
0.0
 20
0.0
 30
0.0
  0
VERTEX
  5
4A8
  8
0
  6
CONTINUOUS
 62
     9
 10
-993.9510202645831
 20
761.5524058985305
 30
0.0
  0
VERTEX
  5
4A9
  8
0
  6
CONTINUOUS
 62
     9
 10
-993.9996762045416
 20
762.0391069246411
 30
0.0
  0
VERTEX
  5
4AA
  8
0
  6
CONTINUOUS
 62
     9
 10
-994.1421825571696
 20
762.5070642274933
 30
0.0
  0
VERTEX
  5
4AB
  8
0
  6
CONTINUOUS
 62
     9
 10
-994.3730819044094
 20
762.9383569313665
 30
0.0
  0
VERTEX
  5
4AC
  8
0
  6
CONTINUOUS
 62
     9
 10
-994.683531733321
 20
763.316468266679
 30
0.0
  0
VERTEX
  5
4AD
  8
0
  6
CONTINUOUS
 62
     9
 10
-995.0616430686335
 20
763.6269180955906
 30
0.0
  0
VERTEX
  5
4AE
  8
0
  6
CONTINUOUS
 62
     9
 10
-995.4929357725067
 20
763.8578174428303
 30
0.0
  0
VERTEX
  5
4AF
  8
0
  6
CONTINUOUS
 62
     9
 10
-995.960893075359
 20
764.0003237954584
 30
0.0
  0
VERTEX
  5
4B0
  8
0
  6
CONTINUOUS
 62
     9
 10
-996.4475941014695
 20
764.0489797354169
 30
0.0
  0
SEQEND
  5
6A8
  8
0
  6
CONTINUOUS
 62
     9
  0
POLYLINE
  5
13F
  8
0
  6
CONTINUOUS
 62
     9
 66
     1
 10
0.0
 20
0.0
 30
0.0
  0
VERTEX
  5
4B1
  8
0
  6
CONTINUOUS
 62
     9
 10
-1081.048979735417
 20
756.4475941014695
 30
0.0
  0
VERTEX
  5
4B2
  8
0
  6
CONTINUOUS
 62
     9
 10
-1081.000323795458
 20
755.9608930753589
 30
0.0
  0
VERTEX
  5
4B3
  8
0
  6
CONTINUOUS
 62
     9
 10
-1080.85781744283
 20
755.4929357725067
 30
0.0
  0
VERTEX
  5
4B4
  8
0
  6
CONTINUOUS
 62
     9
 10
-1080.626918095591
 20
755.0616430686335
 30
0.0
  0
VERTEX
  5
4B5
  8
0
  6
CONTINUOUS
 62
     9
 10
-1080.316468266679
 20
754.683531733321
 30
0.0
  0
VERTEX
  5
4B6
  8
0
  6
CONTINUOUS
 62
     9
 10
-1079.938356931367
 20
754.3730819044094
 30
0.0
  0
VERTEX
  5
4B7
  8
0
  6
CONTINUOUS
 62
     9
 10
-1079.507064227493
 20
754.1421825571697
 30
0.0
  0
VERTEX
  5
4B8
  8
0
  6
CONTINUOUS
 62
     9
 10
-1079.039106924641
 20
753.9996762045416
 30
0.0
  0
VERTEX
  5
4B9
  8
0
  6
CONTINUOUS
 62
     9
 10
-1078.55240589853
 20
753.9510202645831
 30
0.0
  0
SEQEND
  5
6A9
  8
0
  6
CONTINUOUS
 62
     9
  0
POLYLINE
  5
140
  8
0
  6
CONTINUOUS
 62
     9
 66
     1
 10
0.0
 20
0.0
 30
0.0
  0
VERTEX
  5
4BA
  8
0
  6
CONTINUOUS
 62
     9
 10
-1041.048979735417
 20
756.4475941014695
 30
0.0
  0
VERTEX
  5
4BB
  8
0
  6
CONTINUOUS
 62
     9
 10
-1041.000323795458
 20
755.9608930753589
 30
0.0
  0
VERTEX
  5
4BC
  8
0
  6
CONTINUOUS
 62
     9
 10
-1040.85781744283
 20
755.4929357725068
 30
0.0
  0
VERTEX
  5
4BD
  8
0
  6
CONTINUOUS
 62
     9
 10
-1040.626918095591
 20
755.0616430686335
 30
0.0
  0
VERTEX
  5
4BE
  8
0
  6
CONTINUOUS
 62
     9
 10
-1040.316468266679
 20
754.683531733321
 30
0.0
  0
VERTEX
  5
4BF
  8
0
  6
CONTINUOUS
 62
     9
 10
-1039.938356931366
 20
754.3730819044096
 30
0.0
  0
VERTEX
  5
4C0
  8
0
  6
CONTINUOUS
 62
     9
 10
-1039.507064227493
 20
754.1421825571697
 30
0.0
  0
VERTEX
  5
4C1
  8
0
  6
CONTINUOUS
 62
     9
 10
-1039.039106924641
 20
753.9996762045416
 30
0.0
  0
VERTEX
  5
4C2
  8
0
  6
CONTINUOUS
 62
     9
 10
-1038.55240589853
 20
753.951020264583
 30
0.0
  0
SEQEND
  5
6AA
  8
0
  6
CONTINUOUS
 62
     9
  0
LINE
  5
141
  8
0
  6
CONTINUOUS
 62
     9
 10
-1073.951020264583
 20
761.5524058985305
 30
0.0
 11
-1073.951020264583
 21
756.4475941014695
 31
0.0
  0
LINE
  5
142
  8
0
  6
CONTINUOUS
 62
     9
 10
-1034.94759410147
 20
715.4510202645829
 30
0.0
 11
-1040.05240589853
 21
715.4510202645829
 31
0.0
  0
LINE
  5
143
  8
0
  6
CONTINUOUS
 62
     9
 10
-1040.05240589853
 20
722.548979735417
 30
0.0
 11
-1034.94759410147
 21
722.548979735417
 31
0.0
  0
LINE
  5
144
  8
0
  6
CONTINUOUS
 62
     9
 10
-996.4475941014696
 20
764.048979735417
 30
0.0
 11
-998.5524058985305
 21
764.048979735417
 31
0.0
  0
LINE
  5
145
  8
0
  6
CONTINUOUS
 62
     9
 10
-1040.05240589853
 20
795.451020264583
 30
0.0
 11
-1034.94759410147
 21
795.451020264583
 31
0.0
  0
LINE
  5
146
  8
0
  6
CONTINUOUS
 62
     9
 10
-1032.451020264583
 20
720.0524058985304
 30
0.0
 11
-1032.451020264583
 21
717.9475941014695
 31
0.0
  0
LINE
  5
147
  8
0
  6
CONTINUOUS
 62
     9
 10
-1032.451020264583
 20
797.9475941014695
 30
0.0
 11
-1032.451020264583
 21
800.0524058985305
 31
0.0
  0
POLYLINE
  5
148
  8
0
  6
CONTINUOUS
 62
     9
 66
     1
 10
0.0
 20
0.0
 30
0.0
  0
VERTEX
  5
4C3
  8
0
  6
CONTINUOUS
 62
     9
 10
-1032.451020264583
 20
800.0524058985305
 30
0.0
  0
VERTEX
  5
4C4
  8
0
  6
CONTINUOUS
 62
     9
 10
-1032.499676204542
 20
800.539106924641
 30
0.0
  0
VERTEX
  5
4C5
  8
0
  6
CONTINUOUS
 62
     9
 10
-1032.642182557169
 20
801.0070642274933
 30
0.0
  0
VERTEX
  5
4C6
  8
0
  6
CONTINUOUS
 62
     9
 10
-1032.873081904409
 20
801.4383569313665
 30
0.0
  0
VERTEX
  5
4C7
  8
0
  6
CONTINUOUS
 62
     9
 10
-1033.183531733321
 20
801.816468266679
 30
0.0
  0
VERTEX
  5
4C8
  8
0
  6
CONTINUOUS
 62
     9
 10
-1033.561643068633
 20
802.1269180955906
 30
0.0
  0
VERTEX
  5
4C9
  8
0
  6
CONTINUOUS
 62
     9
 10
-1033.992935772507
 20
802.3578174428304
 30
0.0
  0
VERTEX
  5
4CA
  8
0
  6
CONTINUOUS
 62
     9
 10
-1034.460893075359
 20
802.5003237954584
 30
0.0
  0
VERTEX
  5
4CB
  8
0
  6
CONTINUOUS
 62
     9
 10
-1034.94759410147
 20
802.548979735417
 30
0.0
  0
SEQEND
  5
6AB
  8
0
  6
CONTINUOUS
 62
     9
  0
POLYLINE
  5
149
  8
0
  6
CONTINUOUS
 62
     9
 66
     1
 10
0.0
 20
0.0
 30
0.0
  0
VERTEX
  5
4CC
  8
0
  6
CONTINUOUS
 62
     9
 10
-1040.05240589853
 20
802.548979735417
 30
0.0
  0
VERTEX
  5
4CD
  8
0
  6
CONTINUOUS
 62
     9
 10
-1040.539106924641
 20
802.5003237954584
 30
0.0
  0
VERTEX
  5
4CE
  8
0
  6
CONTINUOUS
 62
     9
 10
-1041.007064227493
 20
802.3578174428304
 30
0.0
  0
VERTEX
  5
4CF
  8
0
  6
CONTINUOUS
 62
     9
 10
-1041.438356931367
 20
802.1269180955906
 30
0.0
  0
VERTEX
  5
4D0
  8
0
  6
CONTINUOUS
 62
     9
 10
-1041.816468266679
 20
801.816468266679
 30
0.0
  0
VERTEX
  5
4D1
  8
0
  6
CONTINUOUS
 62
     9
 10
-1042.126918095591
 20
801.4383569313665
 30
0.0
  0
VERTEX
  5
4D2
  8
0
  6
CONTINUOUS
 62
     9
 10
-1042.357817442831
 20
801.0070642274933
 30
0.0
  0
VERTEX
  5
4D3
  8
0
  6
CONTINUOUS
 62
     9
 10
-1042.500323795458
 20
800.539106924641
 30
0.0
  0
VERTEX
  5
4D4
  8
0
  6
CONTINUOUS
 62
     9
 10
-1042.548979735417
 20
800.0524058985305
 30
0.0
  0
SEQEND
  5
6AC
  8
0
  6
CONTINUOUS
 62
     9
  0
LINE
  5
14A
  8
0
  6
CONTINUOUS
 62
     9
 10
-1034.94759410147
 20
802.548979735417
 30
0.0
 11
-1040.05240589853
 21
802.548979735417
 31
0.0
  0
POLYLINE
  5
14B
  8
0
  6
CONTINUOUS
 62
     9
 66
     1
 10
0.0
 20
0.0
 30
0.0
  0
VERTEX
  5
4D5
  8
0
  6
CONTINUOUS
 62
     9
 10
-1078.55240589853
 20
764.0489797354169
 30
0.0
  0
VERTEX
  5
4D6
  8
0
  6
CONTINUOUS
 62
     9
 10
-1079.039106924641
 20
764.0003237954584
 30
0.0
  0
VERTEX
  5
4D7
  8
0
  6
CONTINUOUS
 62
     9
 10
-1079.507064227493
 20
763.8578174428303
 30
0.0
  0
VERTEX
  5
4D8
  8
0
  6
CONTINUOUS
 62
     9
 10
-1079.938356931367
 20
763.6269180955906
 30
0.0
  0
VERTEX
  5
4D9
  8
0
  6
CONTINUOUS
 62
     9
 10
-1080.316468266679
 20
763.316468266679
 30
0.0
  0
VERTEX
  5
4DA
  8
0
  6
CONTINUOUS
 62
     9
 10
-1080.626918095591
 20
762.9383569313665
 30
0.0
  0
VERTEX
  5
4DB
  8
0
  6
CONTINUOUS
 62
     9
 10
-1080.85781744283
 20
762.5070642274933
 30
0.0
  0
VERTEX
  5
4DC
  8
0
  6
CONTINUOUS
 62
     9
 10
-1081.000323795458
 20
762.0391069246411
 30
0.0
  0
VERTEX
  5
4DD
  8
0
  6
CONTINUOUS
 62
     9
 10
-1081.048979735417
 20
761.5524058985305
 30
0.0
  0
SEQEND
  5
6AD
  8
0
  6
CONTINUOUS
 62
     9
  0
LINE
  5
14C
  8
0
  6
CONTINUOUS
 62
     9
 10
-1036.447594101469
 20
753.951020264583
 30
0.0
 11
-1038.552405898531
 21
753.951020264583
 31
0.0
  0
POLYLINE
  5
14D
  8
0
  6
CONTINUOUS
 62
     9
 66
     1
 10
0.0
 20
0.0
 30
0.0
  0
VERTEX
  5
4DE
  8
0
  6
CONTINUOUS
 62
     9
 10
-1036.44759410147
 20
753.951020264583
 30
0.0
  0
VERTEX
  5
4DF
  8
0
  6
CONTINUOUS
 62
     9
 10
-1035.960893075359
 20
753.9996762045416
 30
0.0
  0
VERTEX
  5
4E0
  8
0
  6
CONTINUOUS
 62
     9
 10
-1035.492935772507
 20
754.1421825571697
 30
0.0
  0
VERTEX
  5
4E1
  8
0
  6
CONTINUOUS
 62
     9
 10
-1035.061643068634
 20
754.3730819044096
 30
0.0
  0
VERTEX
  5
4E2
  8
0
  6
CONTINUOUS
 62
     9
 10
-1034.683531733321
 20
754.683531733321
 30
0.0
  0
VERTEX
  5
4E3
  8
0
  6
CONTINUOUS
 62
     9
 10
-1034.373081904409
 20
755.0616430686335
 30
0.0
  0
VERTEX
  5
4E4
  8
0
  6
CONTINUOUS
 62
     9
 10
-1034.14218255717
 20
755.4929357725068
 30
0.0
  0
VERTEX
  5
4E5
  8
0
  6
CONTINUOUS
 62
     9
 10
-1033.999676204542
 20
755.9608930753589
 30
0.0
  0
VERTEX
  5
4E6
  8
0
  6
CONTINUOUS
 62
     9
 10
-1033.951020264583
 20
756.4475941014695
 30
0.0
  0
SEQEND
  5
6AE
  8
0
  6
CONTINUOUS
 62
     9
  0
LINE
  5
14E
  8
0
  6
CONTINUOUS
 62
     9
 10
-1036.447594101469
 20
764.048979735417
 30
0.0
 11
-1038.552405898531
 21
764.048979735417
 31
0.0
  0
LINE
  5
14F
  8
0
  6
CONTINUOUS
 62
     9
 10
-1081.048979735417
 20
756.4475941014695
 30
0.0
 11
-1081.048979735417
 21
761.5524058985305
 31
0.0
  0
LINE
  5
150
  8
0
  6
CONTINUOUS
 62
     9
 10
-1042.548979735417
 20
720.0524058985304
 30
0.0
 11
-1042.548979735417
 21
717.9475941014695
 31
0.0
  0
POLYLINE
  5
151
  8
0
  6
CONTINUOUS
 62
     9
 66
     1
 10
0.0
 20
0.0
 30
0.0
  0
VERTEX
  5
4E7
  8
0
  6
CONTINUOUS
 62
     9
 10
-1042.548979735417
 20
717.9475941014695
 30
0.0
  0
VERTEX
  5
4E8
  8
0
  6
CONTINUOUS
 62
     9
 10
-1042.500323795458
 20
717.460893075359
 30
0.0
  0
VERTEX
  5
4E9
  8
0
  6
CONTINUOUS
 62
     9
 10
-1042.357817442831
 20
716.9929357725067
 30
0.0
  0
VERTEX
  5
4EA
  8
0
  6
CONTINUOUS
 62
     9
 10
-1042.126918095591
 20
716.5616430686335
 30
0.0
  0
VERTEX
  5
4EB
  8
0
  6
CONTINUOUS
 62
     9
 10
-1041.816468266679
 20
716.183531733321
 30
0.0
  0
VERTEX
  5
4EC
  8
0
  6
CONTINUOUS
 62
     9
 10
-1041.438356931367
 20
715.8730819044094
 30
0.0
  0
VERTEX
  5
4ED
  8
0
  6
CONTINUOUS
 62
     9
 10
-1041.007064227493
 20
715.6421825571696
 30
0.0
  0
VERTEX
  5
4EE
  8
0
  6
CONTINUOUS
 62
     9
 10
-1040.539106924641
 20
715.4996762045416
 30
0.0
  0
VERTEX
  5
4EF
  8
0
  6
CONTINUOUS
 62
     9
 10
-1040.05240589853
 20
715.451020264583
 30
0.0
  0
SEQEND
  5
6AF
  8
0
  6
CONTINUOUS
 62
     9
  0
LINE
  5
152
  8
0
  6
CONTINUOUS
 62
     9
 10
-1078.552405898531
 20
753.951020264583
 30
0.0
 11
-1076.44759410147
 21
753.951020264583
 31
0.0
  0
POLYLINE
  5
153
  8
0
  6
CONTINUOUS
 62
     9
 66
     1
 10
0.0
 20
0.0
 30
0.0
  0
VERTEX
  5
4F0
  8
0
  6
CONTINUOUS
 62
     9
 10
-1038.55240589853
 20
764.048979735417
 30
0.0
  0
VERTEX
  5
4F1
  8
0
  6
CONTINUOUS
 62
     9
 10
-1039.039106924641
 20
764.0003237954584
 30
0.0
  0
VERTEX
  5
4F2
  8
0
  6
CONTINUOUS
 62
     9
 10
-1039.507064227493
 20
763.8578174428303
 30
0.0
  0
VERTEX
  5
4F3
  8
0
  6
CONTINUOUS
 62
     9
 10
-1039.938356931366
 20
763.6269180955904
 30
0.0
  0
VERTEX
  5
4F4
  8
0
  6
CONTINUOUS
 62
     9
 10
-1040.316468266679
 20
763.316468266679
 30
0.0
  0
VERTEX
  5
4F5
  8
0
  6
CONTINUOUS
 62
     9
 10
-1040.626918095591
 20
762.9383569313665
 30
0.0
  0
VERTEX
  5
4F6
  8
0
  6
CONTINUOUS
 62
     9
 10
-1040.85781744283
 20
762.5070642274932
 30
0.0
  0
VERTEX
  5
4F7
  8
0
  6
CONTINUOUS
 62
     9
 10
-1041.000323795458
 20
762.0391069246411
 30
0.0
  0
VERTEX
  5
4F8
  8
0
  6
CONTINUOUS
 62
     9
 10
-1041.048979735417
 20
761.5524058985305
 30
0.0
  0
SEQEND
  5
6B0
  8
0
  6
CONTINUOUS
 62
     9
  0
POLYLINE
  5
154
  8
0
  6
CONTINUOUS
 62
     9
 66
     1
 10
0.0
 20
0.0
 30
0.0
  0
VERTEX
  5
4F9
  8
0
  6
CONTINUOUS
 62
     9
 10
-1034.94759410147
 20
715.451020264583
 30
0.0
  0
VERTEX
  5
4FA
  8
0
  6
CONTINUOUS
 62
     9
 10
-1034.460893075359
 20
715.4996762045416
 30
0.0
  0
VERTEX
  5
4FB
  8
0
  6
CONTINUOUS
 62
     9
 10
-1033.992935772507
 20
715.6421825571696
 30
0.0
  0
VERTEX
  5
4FC
  8
0
  6
CONTINUOUS
 62
     9
 10
-1033.561643068633
 20
715.8730819044094
 30
0.0
  0
VERTEX
  5
4FD
  8
0
  6
CONTINUOUS
 62
     9
 10
-1033.183531733321
 20
716.183531733321
 30
0.0
  0
VERTEX
  5
4FE
  8
0
  6
CONTINUOUS
 62
     9
 10
-1032.873081904409
 20
716.5616430686335
 30
0.0
  0
VERTEX
  5
4FF
  8
0
  6
CONTINUOUS
 62
     9
 10
-1032.642182557169
 20
716.9929357725067
 30
0.0
  0
VERTEX
  5
500
  8
0
  6
CONTINUOUS
 62
     9
 10
-1032.499676204542
 20
717.460893075359
 30
0.0
  0
VERTEX
  5
501
  8
0
  6
CONTINUOUS
 62
     9
 10
-1032.451020264583
 20
717.9475941014695
 30
0.0
  0
SEQEND
  5
6B1
  8
0
  6
CONTINUOUS
 62
     9
  0
LINE
  5
155
  8
0
  6
CONTINUOUS
 62
     9
 10
-1001.048979735417
 20
761.5524058985305
 30
0.0
 11
-1001.048979735417
 21
756.4475941014695
 31
0.0
  0
POLYLINE
  5
156
  8
0
  6
CONTINUOUS
 62
     9
 66
     1
 10
0.0
 20
0.0
 30
0.0
  0
VERTEX
  5
502
  8
0
  6
CONTINUOUS
 62
     9
 10
-1076.44759410147
 20
753.951020264583
 30
0.0
  0
VERTEX
  5
503
  8
0
  6
CONTINUOUS
 62
     9
 10
-1075.960893075359
 20
753.9996762045416
 30
0.0
  0
VERTEX
  5
504
  8
0
  6
CONTINUOUS
 62
     9
 10
-1075.492935772507
 20
754.1421825571697
 30
0.0
  0
VERTEX
  5
505
  8
0
  6
CONTINUOUS
 62
     9
 10
-1075.061643068634
 20
754.3730819044096
 30
0.0
  0
VERTEX
  5
506
  8
0
  6
CONTINUOUS
 62
     9
 10
-1074.683531733321
 20
754.683531733321
 30
0.0
  0
VERTEX
  5
507
  8
0
  6
CONTINUOUS
 62
     9
 10
-1074.37308190441
 20
755.0616430686335
 30
0.0
  0
VERTEX
  5
508
  8
0
  6
CONTINUOUS
 62
     9
 10
-1074.14218255717
 20
755.4929357725068
 30
0.0
  0
VERTEX
  5
509
  8
0
  6
CONTINUOUS
 62
     9
 10
-1073.999676204542
 20
755.9608930753589
 30
0.0
  0
VERTEX
  5
50A
  8
0
  6
CONTINUOUS
 62
     9
 10
-1073.951020264583
 20
756.4475941014695
 30
0.0
  0
SEQEND
  5
6B2
  8
0
  6
CONTINUOUS
 62
     9
  0
POLYLINE
  5
157
  8
0
  6
CONTINUOUS
 62
     9
 66
     1
 10
0.0
 20
0.0
 30
0.0
  0
VERTEX
  5
50B
  8
0
  6
CONTINUOUS
 62
     9
 10
-1001.048979735417
 20
756.4475941014695
 30
0.0
  0
VERTEX
  5
50C
  8
0
  6
CONTINUOUS
 62
     9
 10
-1001.000323795458
 20
755.9608930753589
 30
0.0
  0
VERTEX
  5
50D
  8
0
  6
CONTINUOUS
 62
     9
 10
-1000.85781744283
 20
755.4929357725068
 30
0.0
  0
VERTEX
  5
50E
  8
0
  6
CONTINUOUS
 62
     9
 10
-1000.62691809559
 20
755.0616430686335
 30
0.0
  0
VERTEX
  5
50F
  8
0
  6
CONTINUOUS
 62
     9
 10
-1000.316468266679
 20
754.683531733321
 30
0.0
  0
VERTEX
  5
510
  8
0
  6
CONTINUOUS
 62
     9
 10
-999.9383569313665
 20
754.3730819044096
 30
0.0
  0
VERTEX
  5
511
  8
0
  6
CONTINUOUS
 62
     9
 10
-999.5070642274932
 20
754.1421825571697
 30
0.0
  0
VERTEX
  5
512
  8
0
  6
CONTINUOUS
 62
     9
 10
-999.0391069246411
 20
753.9996762045416
 30
0.0
  0
VERTEX
  5
513
  8
0
  6
CONTINUOUS
 62
     9
 10
-998.5524058985305
 20
753.951020264583
 30
0.0
  0
SEQEND
  5
6B3
  8
0
  6
CONTINUOUS
 62
     9
  0
POLYLINE
  5
158
  8
0
  6
CONTINUOUS
 62
     9
 66
     1
 10
0.0
 20
0.0
 30
0.0
  0
VERTEX
  5
514
  8
0
  6
CONTINUOUS
 62
     9
 10
-1042.548979735417
 20
797.9475941014693
 30
0.0
  0
VERTEX
  5
515
  8
0
  6
CONTINUOUS
 62
     9
 10
-1042.500323795458
 20
797.4608930753587
 30
0.0
  0
VERTEX
  5
516
  8
0
  6
CONTINUOUS
 62
     9
 10
-1042.35781744283
 20
796.9929357725066
 30
0.0
  0
VERTEX
  5
517
  8
0
  6
CONTINUOUS
 62
     9
 10
-1042.126918095591
 20
796.5616430686334
 30
0.0
  0
VERTEX
  5
518
  8
0
  6
CONTINUOUS
 62
     9
 10
-1041.816468266679
 20
796.1835317333209
 30
0.0
  0
VERTEX
  5
519
  8
0
  6
CONTINUOUS
 62
     9
 10
-1041.438356931366
 20
795.8730819044094
 30
0.0
  0
VERTEX
  5
51A
  8
0
  6
CONTINUOUS
 62
     9
 10
-1041.007064227493
 20
795.6421825571695
 30
0.0
  0
VERTEX
  5
51B
  8
0
  6
CONTINUOUS
 62
     9
 10
-1040.539106924641
 20
795.4996762045415
 30
0.0
  0
VERTEX
  5
51C
  8
0
  6
CONTINUOUS
 62
     9
 10
-1040.05240589853
 20
795.4510202645829
 30
0.0
  0
SEQEND
  5
6B4
  8
0
  6
CONTINUOUS
 62
     9
  0
POLYLINE
  5
159
  8
0
  6
CONTINUOUS
 62
     9
 66
     1
 10
0.0
 20
0.0
 30
0.0
  0
VERTEX
  5
51D
  8
0
  6
CONTINUOUS
 62
     9
 10
-1032.451020264583
 20
720.0524058985304
 30
0.0
  0
VERTEX
  5
51E
  8
0
  6
CONTINUOUS
 62
     9
 10
-1032.499676204542
 20
720.539106924641
 30
0.0
  0
VERTEX
  5
51F
  8
0
  6
CONTINUOUS
 62
     9
 10
-1032.64218255717
 20
721.0070642274932
 30
0.0
  0
VERTEX
  5
520
  8
0
  6
CONTINUOUS
 62
     9
 10
-1032.873081904409
 20
721.4383569313663
 30
0.0
  0
VERTEX
  5
521
  8
0
  6
CONTINUOUS
 62
     9
 10
-1033.183531733321
 20
721.8164682666788
 30
0.0
  0
VERTEX
  5
522
  8
0
  6
CONTINUOUS
 62
     9
 10
-1033.561643068634
 20
722.1269180955903
 30
0.0
  0
VERTEX
  5
523
  8
0
  6
CONTINUOUS
 62
     9
 10
-1033.992935772507
 20
722.3578174428303
 30
0.0
  0
VERTEX
  5
524
  8
0
  6
CONTINUOUS
 62
     9
 10
-1034.460893075359
 20
722.5003237954583
 30
0.0
  0
VERTEX
  5
525
  8
0
  6
CONTINUOUS
 62
     9
 10
-1034.94759410147
 20
722.5489797354169
 30
0.0
  0
SEQEND
  5
6B5
  8
0
  6
CONTINUOUS
 62
     9
  0
POLYLINE
  5
15A
  8
0
  6
CONTINUOUS
 62
     9
 66
     1
 10
0.0
 20
0.0
 30
0.0
  0
VERTEX
  5
526
  8
0
  6
CONTINUOUS
 62
     9
 10
-996.4475941014695
 20
753.9510202645831
 30
0.0
  0
VERTEX
  5
527
  8
0
  6
CONTINUOUS
 62
     9
 10
-995.960893075359
 20
753.9996762045416
 30
0.0
  0
VERTEX
  5
528
  8
0
  6
CONTINUOUS
 62
     9
 10
-995.4929357725067
 20
754.1421825571697
 30
0.0
  0
VERTEX
  5
529
  8
0
  6
CONTINUOUS
 62
     9
 10
-995.0616430686335
 20
754.3730819044094
 30
0.0
  0
VERTEX
  5
52A
  8
0
  6
CONTINUOUS
 62
     9
 10
-994.683531733321
 20
754.683531733321
 30
0.0
  0
VERTEX
  5
52B
  8
0
  6
CONTINUOUS
 62
     9
 10
-994.3730819044094
 20
755.0616430686335
 30
0.0
  0
VERTEX
  5
52C
  8
0
  6
CONTINUOUS
 62
     9
 10
-994.1421825571696
 20
755.4929357725067
 30
0.0
  0
VERTEX
  5
52D
  8
0
  6
CONTINUOUS
 62
     9
 10
-993.9996762045416
 20
755.9608930753589
 30
0.0
  0
VERTEX
  5
52E
  8
0
  6
CONTINUOUS
 62
     9
 10
-993.9510202645831
 20
756.4475941014695
 30
0.0
  0
SEQEND
  5
6B6
  8
0
  6
CONTINUOUS
 62
     9
  0
POLYLINE
  5
15B
  8
0
  6
CONTINUOUS
 62
     9
 66
     1
 10
0.0
 20
0.0
 30
0.0
  0
VERTEX
  5
52F
  8
0
  6
CONTINUOUS
 62
     9
 10
-998.5524058985305
 20
764.048979735417
 30
0.0
  0
VERTEX
  5
530
  8
0
  6
CONTINUOUS
 62
     9
 10
-999.0391069246411
 20
764.0003237954584
 30
0.0
  0
VERTEX
  5
531
  8
0
  6
CONTINUOUS
 62
     9
 10
-999.5070642274932
 20
763.8578174428303
 30
0.0
  0
VERTEX
  5
532
  8
0
  6
CONTINUOUS
 62
     9
 10
-999.9383569313665
 20
763.6269180955904
 30
0.0
  0
VERTEX
  5
533
  8
0
  6
CONTINUOUS
 62
     9
 10
-1000.316468266679
 20
763.316468266679
 30
0.0
  0
VERTEX
  5
534
  8
0
  6
CONTINUOUS
 62
     9
 10
-1000.62691809559
 20
762.9383569313665
 30
0.0
  0
VERTEX
  5
535
  8
0
  6
CONTINUOUS
 62
     9
 10
-1000.85781744283
 20
762.5070642274932
 30
0.0
  0
VERTEX
  5
536
  8
0
  6
CONTINUOUS
 62
     9
 10
-1001.000323795458
 20
762.0391069246411
 30
0.0
  0
VERTEX
  5
537
  8
0
  6
CONTINUOUS
 62
     9
 10
-1001.048979735417
 20
761.5524058985305
 30
0.0
  0
SEQEND
  5
6B7
  8
0
  6
CONTINUOUS
 62
     9
  0
LINE
  5
15C
  8
0
  6
CONTINUOUS
 62
     9
 10
-996.4475941014696
 20
753.951020264583
 30
0.0
 11
-998.5524058985305
 21
753.951020264583
 31
0.0
  0
CIRCLE
  5
15D
  8
0
  6
CONTINUOUS
 62
     9
 10
-1037.5
 20
759.0
 30
0.0
 40
74.28831130424717
  0
CIRCLE
  5
15E
  8
0
  6
CONTINUOUS
 62
     9
 10
-1077.5
 20
759.0
 30
0.0
 40
10.52551771664256
  0
CIRCLE
  5
15F
  8
0
  6
CONTINUOUS
 62
     9
 10
-997.5
 20
759.0
 30
0.0
 40
10.52551771664256
  0
CIRCLE
  5
160
  8
0
  6
CONTINUOUS
 62
     9
 10
-1037.5
 20
759.0
 30
0.0
 40
10.52551771664256
  0
CIRCLE
  5
161
  8
0
  6
CONTINUOUS
 62
     9
 10
-1037.5
 20
799.0
 30
0.0
 40
10.52551771664256
  0
CIRCLE
  5
162
  8
0
  6
CONTINUOUS
 62
     9
 10
-1037.5
 20
719.0
 30
0.0
 40
10.52551771664256
  0
LINE
  5
163
  8
0
  6
CONTINUOUS
 62
     7
 10
-1158.918868107395
 20
833.8907645365837
 30
0.0
 11
-1158.89076465977
 21
833.893096996758
 31
0.0
  0
ENDBLK
  8
0
  0
BLOCK
  8
0
  2
D_FRAME_VIEW_4144
 70
     0
 10
0.0
 20
0.0
 30
0.0
  0
LINE
  5
16C
  8
0
  6
CONTINUOUS
 62
     7
 10
-799.9200000000002
 20
598.9999999999999
 30
0.0
 11
-800.0800000000003
 21
598.9999999999999
 31
0.0
  0
LINE
  5
16D
  8
0
  6
CONTINUOUS
 62
     7
 10
-800.0800000000003
 20
598.9999999999999
 30
0.0
 11
-800.0800000000002
 21
618.9999999999999
 31
0.0
  0
LINE
  5
16E
  8
0
  6
CONTINUOUS
 62
     7
 10
-800.0800000000002
 20
618.9999999999999
 30
0.0
 11
-800.0800000000002
 21
898.9999999999997
 31
0.0
  0
LINE
  5
16F
  8
0
  6
CONTINUOUS
 62
     7
 10
-800.0800000000002
 20
898.9999999999997
 30
0.0
 11
-800.0800000000002
 21
918.9999999999998
 31
0.0
  0
LINE
  5
170
  8
0
  6
CONTINUOUS
 62
     7
 10
-800.0800000000003
 20
923.9999999999997
 30
0.0
 11
-800.0800000000003
 21
918.9999999999998
 31
0.0
  0
LINE
  5
171
  8
0
  6
CONTINUOUS
 62
     7
 10
-800.0800000000003
 20
923.9999999999997
 30
0.0
 11
-800.0800000000003
 21
933.9999999999997
 31
0.0
  0
LINE
  5
172
  8
0
  6
CONTINUOUS
 62
     7
 10
-799.9200000000002
 20
924.5000000000001
 30
0.0
 11
-799.9200000000002
 21
933.9999999999997
 31
0.0
  0
LINE
  5
173
  8
0
  6
CONTINUOUS
 62
     7
 10
-800.0800000000003
 20
938.9999999999997
 30
0.0
 11
-799.9200000000002
 21
938.9999999999997
 31
0.0
  0
LINE
  5
174
  8
0
  6
CONTINUOUS
 62
     7
 10
-800.0800000000003
 20
933.9999999999997
 30
0.0
 11
-800.0800000000003
 21
938.9999999999997
 31
0.0
  0
LINE
  5
175
  8
0
  6
CONTINUOUS
 62
     7
 10
-799.9200000000002
 20
938.9999999999997
 30
0.0
 11
-799.9200000000002
 21
933.9999999999997
 31
0.0
  0
LINE
  5
176
  8
0
  6
CONTINUOUS
 62
     7
 10
-799.9200000000002
 20
613.5
 30
0.0
 11
-799.9200000000002
 21
759.0
 31
0.0
  0
LINE
  5
177
  8
0
  6
CONTINUOUS
 62
     7
 10
-799.9200000000002
 20
759.0
 30
0.0
 11
-799.9200000000002
 21
904.5000000000001
 31
0.0
  0
LINE
  5
178
  8
0
  6
CONTINUOUS
 62
     7
 10
-799.4200000000002
 20
613.5
 30
0.0
 11
-799.4200000000001
 21
904.5000000000001
 31
0.0
  0
LINE
  5
179
  8
0
  6
CONTINUOUS
 62
     7
 10
-799.9200000000002
 20
593.5
 30
0.0
 11
-799.4200000000002
 21
593.5
 31
0.0
  0
LINE
  5
17A
  8
0
  6
CONTINUOUS
 62
     7
 10
-799.4200000000002
 20
593.5
 30
0.0
 11
-799.4200000000001
 21
613.5
 31
0.0
  0
LINE
  5
17B
  8
0
  6
CONTINUOUS
 62
     7
 10
-799.9200000000002
 20
613.5
 30
0.0
 11
-799.9200000000002
 21
593.5
 31
0.0
  0
LINE
  5
17C
  8
0
  6
CONTINUOUS
 62
     7
 10
-799.9200000000002
 20
924.5000000000001
 30
0.0
 11
-799.4200000000001
 21
924.5000000000001
 31
0.0
  0
LINE
  5
17D
  8
0
  6
CONTINUOUS
 62
     7
 10
-799.4200000000001
 20
924.5000000000001
 30
0.0
 11
-799.4200000000001
 21
904.5000000000001
 31
0.0
  0
LINE
  5
17E
  8
0
  6
CONTINUOUS
 62
     7
 10
-799.9200000000002
 20
904.5000000000001
 30
0.0
 11
-799.9200000000002
 21
924.5000000000001
 31
0.0
  0
ARC
  5
17F
  8
0
  6
CONTINUOUS
 62
     7
 10
-798.9200000000002
 20
869.9744822833575
 30
0.0
 40
0.4999999999999449
 50
180.0
 51
266.9999999999997
  0
ARC
  5
180
  8
0
  6
CONTINUOUS
 62
     7
 10
-798.9200000000002
 20
751.9744822833574
 30
0.0
 40
0.4999999999999449
 50
180.0
 51
266.9999999999999
  0
ARC
  5
181
  8
0
  6
CONTINUOUS
 62
     7
 10
-798.9200000000002
 20
648.0255177166426
 30
0.0
 40
0.4999999999999449
 50
93.00000000000033
 51
180.0
  0
ARC
  5
182
  8
0
  6
CONTINUOUS
 62
     7
 10
-798.9200000000002
 20
766.0255177166426
 30
0.0
 40
0.4999999999999449
 50
92.99999999999999
 51
180.0
  0
LINE
  5
183
  8
0
  6
CONTINUOUS
 62
     7
 10
-774.4200000000002
 20
653.8138545126826
 30
0.0
 11
-774.4197614843324
 21
653.8047251211709
 31
0.0
  0
ARC
  5
184
  8
0
  6
CONTINUOUS
 62
     7
 10
-822.0269437292485
 20
650.6452118079541
 30
0.0
 40
47.71190968382066
 50
359.0264600081095
 51
3.796941827885064
  0
LINE
  5
185
  8
0
  6
CONTINUOUS
 62
     7
 10
-774.3219213403987
 20
649.8345549407145
 30
0.0
 11
-774.3328393041437
 21
649.8147623805867
 31
0.0
  0
LINE
  5
186
  8
0
  6
CONTINUOUS
 62
     7
 10
-798.9461679781217
 20
648.5248324840198
 30
0.0
 11
-774.3328393041437
 21
649.8147623805867
 31
0.0
  0
ARC
  5
187
  8
0
  6
CONTINUOUS
 62
     7
 10
-822.0269437293236
 20
867.3547881920491
 30
0.0
 40
47.71190968389577
 50
356.2030581721168
 51
0.9735399918850475
  0
LINE
  5
188
  8
0
  6
CONTINUOUS
 62
     7
 10
-774.3219213403987
 20
868.1654450592855
 30
0.0
 11
-774.3328393041437
 21
868.1852376194133
 31
0.0
  0
LINE
  5
189
  8
0
  6
CONTINUOUS
 62
     7
 10
-774.4197614843324
 20
864.1952748788293
 30
0.0
 11
-774.4200000000002
 21
864.1861454873176
 31
0.0
  0
LINE
  5
18A
  8
0
  6
CONTINUOUS
 62
     7
 10
-798.9461679781217
 20
869.4751675159802
 30
0.0
 11
-774.3328393041437
 21
868.1852376194133
 31
0.0
  0
LINE
  5
18B
  8
0
  6
CONTINUOUS
 62
     7
 10
-774.3328393041438
 20
750.1852376194133
 30
0.0
 11
-798.9461679781217
 21
751.4751675159802
 31
0.0
  0
LINE
  5
18C
  8
0
  6
CONTINUOUS
 62
     7
 10
-774.3328393041447
 20
750.1852376194134
 30
0.0
 11
-774.3095350949338
 21
750.0643929755303
 31
0.0
  0
ARC
  5
18D
  8
0
  6
CONTINUOUS
 62
     7
 10
-831.1471218568986
 20
749.7474963727473
 30
0.0
 40
56.83847017980633
 50
356.4168630264831
 51
0.3194479354005466
  0
LINE
  5
18E
  8
0
  6
CONTINUOUS
 62
     7
 10
-774.4200000000003
 20
771.8138545126824
 30
0.0
 11
-774.4197614843325
 21
771.8047251211709
 31
0.0
  0
LINE
  5
18F
  8
0
  6
CONTINUOUS
 62
     7
 10
-774.3328393041447
 20
767.8147623805867
 30
0.0
 11
-774.3095350949338
 21
767.9356070244697
 31
0.0
  0
ARC
  5
190
  8
0
  6
CONTINUOUS
 62
     7
 10
-831.1471218569038
 20
768.2525036272527
 30
0.0
 40
56.83847017981156
 50
359.6805520645995
 51
3.583136973517015
  0
LINE
  5
191
  8
0
  6
CONTINUOUS
 62
     7
 10
-774.3328393041438
 20
767.8147623805867
 30
0.0
 11
-798.9461679781217
 21
766.52483248402
 31
0.0
  0
LINE
  5
192
  8
0
  6
CONTINUOUS
 62
     7
 10
-774.4200000000003
 20
746.1861454873175
 30
0.0
 11
-774.4200000000003
 21
653.8138545126826
 31
0.0
  0
LINE
  5
193
  8
0
  6
CONTINUOUS
 62
     7
 10
-774.4200000000003
 20
771.8138545126825
 30
0.0
 11
-774.4200000000003
 21
864.1861454873174
 31
0.0
  0
LINE
  5
194
  8
0
  6
CONTINUOUS
 62
     7
 10
-697.5013123500567
 20
771.8413320871755
 30
0.0
 11
-774.3328393041438
 21
767.8147623805867
 31
0.0
  0
LINE
  5
195
  8
0
  6
CONTINUOUS
 62
     7
 10
-697.5013123500567
 20
746.1586679128246
 30
0.0
 11
-774.3328393041438
 21
750.1852376194133
 31
0.0
  0
LINE
  5
196
  8
0
  6
CONTINUOUS
 62
     7
 10
-774.3328393041437
 20
868.1852376194133
 30
0.0
 11
-697.5013123500567
 21
864.1586679128245
 31
0.0
  0
LINE
  5
197
  8
0
  6
CONTINUOUS
 62
     7
 10
-774.3328393041437
 20
649.8147623805867
 30
0.0
 11
-697.5013123500567
 21
653.8413320871754
 31
0.0
  0
LINE
  5
198
  8
0
  6
CONTINUOUS
 62
     7
 10
-789.4200000000001
 20
762.3514034560443
 30
0.0
 11
-789.4200000000001
 21
755.6485965439557
 31
0.0
  0
CIRCLE
  5
199
  8
0
  6
CONTINUOUS
 62
     9
 10
-739.9021482387031
 20
718.9972928150846
 30
0.0
 40
11.02076733130698
  0
CIRCLE
  5
19A
  8
0
  6
CONTINUOUS
 62
     9
 10
-739.9021482387031
 20
799.0027071849155
 30
0.0
 40
11.02076733130698
  0
CIRCLE
  5
19B
  8
0
  6
CONTINUOUS
 62
     9
 10
-739.902148238703
 20
678.9972928150823
 30
0.0
 40
11.02076733130698
  0
CIRCLE
  5
19C
  8
0
  6
CONTINUOUS
 62
     9
 10
-739.902148238703
 20
839.0027071849177
 30
0.0
 40
11.02076733130698
  0
POLYLINE
  5
19D
  8
0
  6
CONTINUOUS
 62
     9
 66
     1
 10
0.0
 20
0.0
 30
0.0
  0
VERTEX
  5
53A
  8
0
  6
CONTINUOUS
 62
     9
 10
-741.0307284677949
 20
683.6075583698095
 30
0.0
  0
VERTEX
  5
53B
  8
0
  6
CONTINUOUS
 62
     9
 10
-741.4219721562858
 20
683.5703527279198
 30
0.0
  0
VERTEX
  5
53C
  8
0
  6
CONTINUOUS
 62
     9
 10
-741.7977603993179
 20
683.4580313851715
 30
0.0
  0
VERTEX
  5
53D
  8
0
  6
CONTINUOUS
 62
     9
 10
-742.1437519595893
 20
683.2748808701091
 30
0.0
  0
VERTEX
  5
53E
  8
0
  6
CONTINUOUS
 62
     9
 10
-742.4467427330278
 20
683.0278907707441
 30
0.0
  0
VERTEX
  5
53F
  8
0
  6
CONTINUOUS
 62
     9
 10
-742.6951696580887
 20
682.7264869903391
 30
0.0
  0
VERTEX
  5
540
  8
0
  6
CONTINUOUS
 62
     9
 10
-742.8795519978131
 20
682.382172025895
 30
0.0
  0
VERTEX
  5
541
  8
0
  6
CONTINUOUS
 62
     9
 10
-742.9928531539646
 20
682.0080859974208
 30
0.0
  0
VERTEX
  5
542
  8
0
  6
CONTINUOUS
 62
     9
 10
-743.0307492053004
 20
681.6185051804655
 30
0.0
  0
SEQEND
  5
6B8
  8
0
  6
CONTINUOUS
 62
     9
  0
POLYLINE
  5
19E
  8
0
  6
CONTINUOUS
 62
     9
 66
     1
 10
0.0
 20
0.0
 30
0.0
  0
VERTEX
  5
543
  8
0
  6
CONTINUOUS
 62
     9
 10
-743.0307492053004
 20
796.3814948195346
 30
0.0
  0
VERTEX
  5
544
  8
0
  6
CONTINUOUS
 62
     9
 10
-742.9928531539646
 20
795.9919140025793
 30
0.0
  0
VERTEX
  5
545
  8
0
  6
CONTINUOUS
 62
     9
 10
-742.8795519978131
 20
795.6178279741051
 30
0.0
  0
VERTEX
  5
546
  8
0
  6
CONTINUOUS
 62
     9
 10
-742.6951696580887
 20
795.273513009661
 30
0.0
  0
VERTEX
  5
547
  8
0
  6
CONTINUOUS
 62
     9
 10
-742.4467427330278
 20
794.972109229256
 30
0.0
  0
VERTEX
  5
548
  8
0
  6
CONTINUOUS
 62
     9
 10
-742.1437519595893
 20
794.725119129891
 30
0.0
  0
VERTEX
  5
549
  8
0
  6
CONTINUOUS
 62
     9
 10
-741.7977603993179
 20
794.5419686148285
 30
0.0
  0
VERTEX
  5
54A
  8
0
  6
CONTINUOUS
 62
     9
 10
-741.4219721562858
 20
794.4296472720803
 30
0.0
  0
VERTEX
  5
54B
  8
0
  6
CONTINUOUS
 62
     9
 10
-741.0307284677949
 20
794.3924416301907
 30
0.0
  0
SEQEND
  5
6B9
  8
0
  6
CONTINUOUS
 62
     9
  0
LINE
  5
19F
  8
0
  6
CONTINUOUS
 62
     9
 10
-743.0307492053001
 20
676.3814948195346
 30
0.0
 11
-743.0307492053001
 21
681.6185051804655
 31
0.0
  0
POLYLINE
  5
1A0
  8
0
  6
CONTINUOUS
 62
     9
 66
     1
 10
0.0
 20
0.0
 30
0.0
  0
VERTEX
  5
54C
  8
0
  6
CONTINUOUS
 62
     9
 10
-741.0307284677949
 20
723.6075583698095
 30
0.0
  0
VERTEX
  5
54D
  8
0
  6
CONTINUOUS
 62
     9
 10
-741.4219721562858
 20
723.5703527279198
 30
0.0
  0
VERTEX
  5
54E
  8
0
  6
CONTINUOUS
 62
     9
 10
-741.7977603993179
 20
723.4580313851715
 30
0.0
  0
VERTEX
  5
54F
  8
0
  6
CONTINUOUS
 62
     9
 10
-742.1437519595893
 20
723.2748808701091
 30
0.0
  0
VERTEX
  5
550
  8
0
  6
CONTINUOUS
 62
     9
 10
-742.4467427330278
 20
723.0278907707441
 30
0.0
  0
VERTEX
  5
551
  8
0
  6
CONTINUOUS
 62
     9
 10
-742.6951696580887
 20
722.7264869903391
 30
0.0
  0
VERTEX
  5
552
  8
0
  6
CONTINUOUS
 62
     9
 10
-742.8795519978131
 20
722.382172025895
 30
0.0
  0
VERTEX
  5
553
  8
0
  6
CONTINUOUS
 62
     9
 10
-742.9928531539646
 20
722.0080859974208
 30
0.0
  0
VERTEX
  5
554
  8
0
  6
CONTINUOUS
 62
     9
 10
-743.0307492053004
 20
721.6185051804655
 30
0.0
  0
SEQEND
  5
6BA
  8
0
  6
CONTINUOUS
 62
     9
  0
LINE
  5
1A1
  8
0
  6
CONTINUOUS
 62
     9
 10
-743.0307492053001
 20
716.3814948195346
 30
0.0
 11
-743.0307492053001
 21
721.6185051804654
 31
0.0
  0
LINE
  5
1A2
  8
0
  6
CONTINUOUS
 62
     9
 10
-743.0307492053001
 20
801.6185051804654
 30
0.0
 11
-743.0307492053001
 21
796.3814948195345
 31
0.0
  0
POLYLINE
  5
1A3
  8
0
  6
CONTINUOUS
 62
     9
 66
     1
 10
0.0
 20
0.0
 30
0.0
  0
VERTEX
  5
555
  8
0
  6
CONTINUOUS
 62
     9
 10
-743.0307492053004
 20
836.3814948195345
 30
0.0
  0
VERTEX
  5
556
  8
0
  6
CONTINUOUS
 62
     9
 10
-742.9928531539646
 20
835.9919140025792
 30
0.0
  0
VERTEX
  5
557
  8
0
  6
CONTINUOUS
 62
     9
 10
-742.8795519978131
 20
835.617827974105
 30
0.0
  0
VERTEX
  5
558
  8
0
  6
CONTINUOUS
 62
     9
 10
-742.6951696580887
 20
835.2735130096609
 30
0.0
  0
VERTEX
  5
559
  8
0
  6
CONTINUOUS
 62
     9
 10
-742.4467427330278
 20
834.9721092292559
 30
0.0
  0
VERTEX
  5
55A
  8
0
  6
CONTINUOUS
 62
     9
 10
-742.1437519595893
 20
834.7251191298909
 30
0.0
  0
VERTEX
  5
55B
  8
0
  6
CONTINUOUS
 62
     9
 10
-741.7977603993179
 20
834.5419686148284
 30
0.0
  0
VERTEX
  5
55C
  8
0
  6
CONTINUOUS
 62
     9
 10
-741.4219721562858
 20
834.4296472720802
 30
0.0
  0
VERTEX
  5
55D
  8
0
  6
CONTINUOUS
 62
     9
 10
-741.0307284677949
 20
834.3924416301905
 30
0.0
  0
SEQEND
  5
6BB
  8
0
  6
CONTINUOUS
 62
     9
  0
POLYLINE
  5
1A4
  8
0
  6
CONTINUOUS
 62
     9
 66
     1
 10
0.0
 20
0.0
 30
0.0
  0
VERTEX
  5
55E
  8
0
  6
CONTINUOUS
 62
     9
 10
-743.0307492053001
 20
676.3814948195347
 30
0.0
  0
VERTEX
  5
55F
  8
0
  6
CONTINUOUS
 62
     9
 10
-742.9928531539645
 20
675.9919140025794
 30
0.0
  0
VERTEX
  5
560
  8
0
  6
CONTINUOUS
 62
     9
 10
-742.879551997813
 20
675.6178279741052
 30
0.0
  0
VERTEX
  5
561
  8
0
  6
CONTINUOUS
 62
     9
 10
-742.6951696580885
 20
675.2735130096611
 30
0.0
  0
VERTEX
  5
562
  8
0
  6
CONTINUOUS
 62
     9
 10
-742.4467427330277
 20
674.9721092292561
 30
0.0
  0
VERTEX
  5
563
  8
0
  6
CONTINUOUS
 62
     9
 10
-742.143751959589
 20
674.725119129891
 30
0.0
  0
VERTEX
  5
564
  8
0
  6
CONTINUOUS
 62
     9
 10
-741.7977603993178
 20
674.5419686148286
 30
0.0
  0
VERTEX
  5
565
  8
0
  6
CONTINUOUS
 62
     9
 10
-741.4219721562857
 20
674.4296472720805
 30
0.0
  0
VERTEX
  5
566
  8
0
  6
CONTINUOUS
 62
     9
 10
-741.0307284677948
 20
674.3924416301907
 30
0.0
  0
SEQEND
  5
6BC
  8
0
  6
CONTINUOUS
 62
     9
  0
POLYLINE
  5
1A5
  8
0
  6
CONTINUOUS
 62
     9
 66
     1
 10
0.0
 20
0.0
 30
0.0
  0
VERTEX
  5
567
  8
0
  6
CONTINUOUS
 62
     9
 10
-741.0307284677947
 20
803.6075583698093
 30
0.0
  0
VERTEX
  5
568
  8
0
  6
CONTINUOUS
 62
     9
 10
-741.4219721562857
 20
803.5703527279197
 30
0.0
  0
VERTEX
  5
569
  8
0
  6
CONTINUOUS
 62
     9
 10
-741.7977603993178
 20
803.4580313851714
 30
0.0
  0
VERTEX
  5
56A
  8
0
  6
CONTINUOUS
 62
     9
 10
-742.143751959589
 20
803.274880870109
 30
0.0
  0
VERTEX
  5
56B
  8
0
  6
CONTINUOUS
 62
     9
 10
-742.4467427330277
 20
803.027890770744
 30
0.0
  0
VERTEX
  5
56C
  8
0
  6
CONTINUOUS
 62
     9
 10
-742.6951696580886
 20
802.726486990339
 30
0.0
  0
VERTEX
  5
56D
  8
0
  6
CONTINUOUS
 62
     9
 10
-742.879551997813
 20
802.3821720258949
 30
0.0
  0
VERTEX
  5
56E
  8
0
  6
CONTINUOUS
 62
     9
 10
-742.9928531539645
 20
802.0080859974207
 30
0.0
  0
VERTEX
  5
56F
  8
0
  6
CONTINUOUS
 62
     9
 10
-743.0307492053003
 20
801.6185051804654
 30
0.0
  0
SEQEND
  5
6BD
  8
0
  6
CONTINUOUS
 62
     9
  0
LINE
  5
1A6
  8
0
  6
CONTINUOUS
 62
     9
 10
-743.0307492053001
 20
841.6185051804654
 30
0.0
 11
-743.0307492053001
 21
836.3814948195346
 31
0.0
  0
POLYLINE
  5
1A7
  8
0
  6
CONTINUOUS
 62
     9
 66
     1
 10
0.0
 20
0.0
 30
0.0
  0
VERTEX
  5
570
  8
0
  6
CONTINUOUS
 62
     9
 10
-743.0307492053003
 20
716.3814948195346
 30
0.0
  0
VERTEX
  5
571
  8
0
  6
CONTINUOUS
 62
     9
 10
-742.9928531539645
 20
715.9919140025793
 30
0.0
  0
VERTEX
  5
572
  8
0
  6
CONTINUOUS
 62
     9
 10
-742.879551997813
 20
715.6178279741051
 30
0.0
  0
VERTEX
  5
573
  8
0
  6
CONTINUOUS
 62
     9
 10
-742.6951696580886
 20
715.273513009661
 30
0.0
  0
VERTEX
  5
574
  8
0
  6
CONTINUOUS
 62
     9
 10
-742.4467427330277
 20
714.972109229256
 30
0.0
  0
VERTEX
  5
575
  8
0
  6
CONTINUOUS
 62
     9
 10
-742.143751959589
 20
714.725119129891
 30
0.0
  0
VERTEX
  5
576
  8
0
  6
CONTINUOUS
 62
     9
 10
-741.7977603993178
 20
714.5419686148286
 30
0.0
  0
VERTEX
  5
577
  8
0
  6
CONTINUOUS
 62
     9
 10
-741.4219721562857
 20
714.4296472720803
 30
0.0
  0
VERTEX
  5
578
  8
0
  6
CONTINUOUS
 62
     9
 10
-741.0307284677948
 20
714.3924416301907
 30
0.0
  0
SEQEND
  5
6BE
  8
0
  6
CONTINUOUS
 62
     9
  0
POLYLINE
  5
1A8
  8
0
  6
CONTINUOUS
 62
     9
 66
     1
 10
0.0
 20
0.0
 30
0.0
  0
VERTEX
  5
579
  8
0
  6
CONTINUOUS
 62
     9
 10
-741.0307284677948
 20
843.6075583698095
 30
0.0
  0
VERTEX
  5
57A
  8
0
  6
CONTINUOUS
 62
     9
 10
-741.4219721562857
 20
843.5703527279196
 30
0.0
  0
VERTEX
  5
57B
  8
0
  6
CONTINUOUS
 62
     9
 10
-741.7977603993178
 20
843.4580313851715
 30
0.0
  0
VERTEX
  5
57C
  8
0
  6
CONTINUOUS
 62
     9
 10
-742.143751959589
 20
843.274880870109
 30
0.0
  0
VERTEX
  5
57D
  8
0
  6
CONTINUOUS
 62
     9
 10
-742.4467427330277
 20
843.027890770744
 30
0.0
  0
VERTEX
  5
57E
  8
0
  6
CONTINUOUS
 62
     9
 10
-742.6951696580885
 20
842.726486990339
 30
0.0
  0
VERTEX
  5
57F
  8
0
  6
CONTINUOUS
 62
     9
 10
-742.879551997813
 20
842.3821720258949
 30
0.0
  0
VERTEX
  5
580
  8
0
  6
CONTINUOUS
 62
     9
 10
-742.9928531539645
 20
842.0080859974207
 30
0.0
  0
VERTEX
  5
581
  8
0
  6
CONTINUOUS
 62
     9
 10
-743.0307492053001
 20
841.6185051804654
 30
0.0
  0
SEQEND
  5
6BF
  8
0
  6
CONTINUOUS
 62
     9
  0
LINE
  5
1A9
  8
0
  6
CONTINUOUS
 62
     9
 10
-741.0307284677948
 20
683.6075583698095
 30
0.0
 11
-737.8751827920127
 21
683.6075583698095
 31
0.0
  0
LINE
  5
1AA
  8
0
  6
CONTINUOUS
 62
     9
 10
-737.8751827920127
 20
674.3924416301907
 30
0.0
 11
-741.0307284677947
 21
674.3924416301907
 31
0.0
  0
LINE
  5
1AB
  8
0
  6
CONTINUOUS
 62
     9
 10
-741.0307284677948
 20
834.3924416301905
 30
0.0
 11
-737.8751827920127
 21
834.3924416301905
 31
0.0
  0
LINE
  5
1AC
  8
0
  6
CONTINUOUS
 62
     9
 10
-741.0307284677948
 20
723.6075583698095
 30
0.0
 11
-737.8751827920127
 21
723.6075583698095
 31
0.0
  0
LINE
  5
1AD
  8
0
  6
CONTINUOUS
 62
     9
 10
-741.0307284677948
 20
794.3924416301905
 30
0.0
 11
-737.8751827920127
 21
794.3924416301905
 31
0.0
  0
LINE
  5
1AE
  8
0
  6
CONTINUOUS
 62
     9
 10
-737.8751827920127
 20
803.6075583698095
 30
0.0
 11
-741.0307284677947
 21
803.6075583698095
 31
0.0
  0
LINE
  5
1AF
  8
0
  6
CONTINUOUS
 62
     9
 10
-737.8751827920127
 20
714.3924416301907
 30
0.0
 11
-741.0307284677947
 21
714.3924416301907
 31
0.0
  0
LINE
  5
1B0
  8
0
  6
CONTINUOUS
 62
     9
 10
-737.8751827920127
 20
843.6075583698093
 30
0.0
 11
-741.0307284677947
 21
843.6075583698093
 31
0.0
  0
POLYLINE
  5
1B1
  8
0
  6
CONTINUOUS
 62
     9
 66
     1
 10
0.0
 20
0.0
 30
0.0
  0
VERTEX
  5
582
  8
0
  6
CONTINUOUS
 62
     9
 10
-737.8751827920128
 20
674.3924416301905
 30
0.0
  0
VERTEX
  5
583
  8
0
  6
CONTINUOUS
 62
     9
 10
-737.3743531845155
 20
674.4246911415927
 30
0.0
  0
VERTEX
  5
584
  8
0
  6
CONTINUOUS
 62
     9
 10
-736.8956021581322
 20
674.5302731071207
 30
0.0
  0
VERTEX
  5
585
  8
0
  6
CONTINUOUS
 62
     9
 10
-736.4567217824587
 20
674.7052637301138
 30
0.0
  0
VERTEX
  5
586
  8
0
  6
CONTINUOUS
 62
     9
 10
-736.0740223936781
 20
674.9431597444245
 30
0.0
  0
VERTEX
  5
587
  8
0
  6
CONTINUOUS
 62
     9
 10
-735.7617264451831
 20
675.2351200986295
 30
0.0
  0
VERTEX
  5
588
  8
0
  6
CONTINUOUS
 62
     9
 10
-735.5314399512566
 20
675.5702945205519
 30
0.0
  0
VERTEX
  5
589
  8
0
  6
CONTINUOUS
 62
     9
 10
-735.3917211668186
 20
675.9362267514831
 30
0.0
  0
VERTEX
  5
58A
  8
0
  6
CONTINUOUS
 62
     9
 10
-735.3477625326148
 20
676.3193174645053
 30
0.0
  0
SEQEND
  5
6C0
  8
0
  6
CONTINUOUS
 62
     9
  0
POLYLINE
  5
1B2
  8
0
  6
CONTINUOUS
 62
     9
 66
     1
 10
0.0
 20
0.0
 30
0.0
  0
VERTEX
  5
58B
  8
0
  6
CONTINUOUS
 62
     9
 10
-735.3477625326148
 20
681.6806825354948
 30
0.0
  0
VERTEX
  5
58C
  8
0
  6
CONTINUOUS
 62
     9
 10
-735.3917211668186
 20
682.063773248517
 30
0.0
  0
VERTEX
  5
58D
  8
0
  6
CONTINUOUS
 62
     9
 10
-735.5314399512565
 20
682.4297054794482
 30
0.0
  0
VERTEX
  5
58E
  8
0
  6
CONTINUOUS
 62
     9
 10
-735.7617264451831
 20
682.7648799013706
 30
0.0
  0
VERTEX
  5
58F
  8
0
  6
CONTINUOUS
 62
     9
 10
-736.0740223936781
 20
683.0568402555756
 30
0.0
  0
VERTEX
  5
590
  8
0
  6
CONTINUOUS
 62
     9
 10
-736.4567217824587
 20
683.2947362698864
 30
0.0
  0
VERTEX
  5
591
  8
0
  6
CONTINUOUS
 62
     9
 10
-736.8956021581321
 20
683.4697268928794
 30
0.0
  0
VERTEX
  5
592
  8
0
  6
CONTINUOUS
 62
     9
 10
-737.3743531845155
 20
683.5753088584074
 30
0.0
  0
VERTEX
  5
593
  8
0
  6
CONTINUOUS
 62
     9
 10
-737.8751827920128
 20
683.6075583698096
 30
0.0
  0
SEQEND
  5
6C1
  8
0
  6
CONTINUOUS
 62
     9
  0
POLYLINE
  5
1B3
  8
0
  6
CONTINUOUS
 62
     9
 66
     1
 10
0.0
 20
0.0
 30
0.0
  0
VERTEX
  5
594
  8
0
  6
CONTINUOUS
 62
     9
 10
-737.8751827920128
 20
794.3924416301905
 30
0.0
  0
VERTEX
  5
595
  8
0
  6
CONTINUOUS
 62
     9
 10
-737.3743531845155
 20
794.4246911415927
 30
0.0
  0
VERTEX
  5
596
  8
0
  6
CONTINUOUS
 62
     9
 10
-736.8956021581321
 20
794.5302731071207
 30
0.0
  0
VERTEX
  5
597
  8
0
  6
CONTINUOUS
 62
     9
 10
-736.4567217824587
 20
794.7052637301138
 30
0.0
  0
VERTEX
  5
598
  8
0
  6
CONTINUOUS
 62
     9
 10
-736.0740223936781
 20
794.9431597444244
 30
0.0
  0
VERTEX
  5
599
  8
0
  6
CONTINUOUS
 62
     9
 10
-735.7617264451831
 20
795.2351200986295
 30
0.0
  0
VERTEX
  5
59A
  8
0
  6
CONTINUOUS
 62
     9
 10
-735.5314399512565
 20
795.5702945205519
 30
0.0
  0
VERTEX
  5
59B
  8
0
  6
CONTINUOUS
 62
     9
 10
-735.3917211668186
 20
795.9362267514831
 30
0.0
  0
VERTEX
  5
59C
  8
0
  6
CONTINUOUS
 62
     9
 10
-735.3477625326148
 20
796.3193174645053
 30
0.0
  0
SEQEND
  5
6C2
  8
0
  6
CONTINUOUS
 62
     9
  0
POLYLINE
  5
1B4
  8
0
  6
CONTINUOUS
 62
     9
 66
     1
 10
0.0
 20
0.0
 30
0.0
  0
VERTEX
  5
59D
  8
0
  6
CONTINUOUS
 62
     9
 10
-735.3477625326148
 20
721.6806825354947
 30
0.0
  0
VERTEX
  5
59E
  8
0
  6
CONTINUOUS
 62
     9
 10
-735.3917211668186
 20
722.0637732485169
 30
0.0
  0
VERTEX
  5
59F
  8
0
  6
CONTINUOUS
 62
     9
 10
-735.5314399512565
 20
722.4297054794481
 30
0.0
  0
VERTEX
  5
5A0
  8
0
  6
CONTINUOUS
 62
     9
 10
-735.7617264451831
 20
722.7648799013705
 30
0.0
  0
VERTEX
  5
5A1
  8
0
  6
CONTINUOUS
 62
     9
 10
-736.0740223936781
 20
723.0568402555756
 30
0.0
  0
VERTEX
  5
5A2
  8
0
  6
CONTINUOUS
 62
     9
 10
-736.4567217824587
 20
723.2947362698862
 30
0.0
  0
VERTEX
  5
5A3
  8
0
  6
CONTINUOUS
 62
     9
 10
-736.8956021581321
 20
723.4697268928793
 30
0.0
  0
VERTEX
  5
5A4
  8
0
  6
CONTINUOUS
 62
     9
 10
-737.3743531845155
 20
723.5753088584073
 30
0.0
  0
VERTEX
  5
5A5
  8
0
  6
CONTINUOUS
 62
     9
 10
-737.8751827920128
 20
723.6075583698095
 30
0.0
  0
SEQEND
  5
6C3
  8
0
  6
CONTINUOUS
 62
     9
  0
POLYLINE
  5
1B5
  8
0
  6
CONTINUOUS
 62
     9
 66
     1
 10
0.0
 20
0.0
 30
0.0
  0
VERTEX
  5
5A6
  8
0
  6
CONTINUOUS
 62
     9
 10
-735.3477625326146
 20
801.6806825354947
 30
0.0
  0
VERTEX
  5
5A7
  8
0
  6
CONTINUOUS
 62
     9
 10
-735.3917211668185
 20
802.0637732485169
 30
0.0
  0
VERTEX
  5
5A8
  8
0
  6
CONTINUOUS
 62
     9
 10
-735.5314399512565
 20
802.4297054794481
 30
0.0
  0
VERTEX
  5
5A9
  8
0
  6
CONTINUOUS
 62
     9
 10
-735.7617264451831
 20
802.7648799013705
 30
0.0
  0
VERTEX
  5
5AA
  8
0
  6
CONTINUOUS
 62
     9
 10
-736.074022393678
 20
803.0568402555756
 30
0.0
  0
VERTEX
  5
5AB
  8
0
  6
CONTINUOUS
 62
     9
 10
-736.4567217824585
 20
803.2947362698862
 30
0.0
  0
VERTEX
  5
5AC
  8
0
  6
CONTINUOUS
 62
     9
 10
-736.8956021581321
 20
803.4697268928793
 30
0.0
  0
VERTEX
  5
5AD
  8
0
  6
CONTINUOUS
 62
     9
 10
-737.3743531845154
 20
803.5753088584073
 30
0.0
  0
VERTEX
  5
5AE
  8
0
  6
CONTINUOUS
 62
     9
 10
-737.8751827920127
 20
803.6075583698095
 30
0.0
  0
SEQEND
  5
6C4
  8
0
  6
CONTINUOUS
 62
     9
  0
POLYLINE
  5
1B6
  8
0
  6
CONTINUOUS
 62
     9
 66
     1
 10
0.0
 20
0.0
 30
0.0
  0
VERTEX
  5
5AF
  8
0
  6
CONTINUOUS
 62
     9
 10
-737.8751827920127
 20
714.3924416301905
 30
0.0
  0
VERTEX
  5
5B0
  8
0
  6
CONTINUOUS
 62
     9
 10
-737.3743531845154
 20
714.4246911415927
 30
0.0
  0
VERTEX
  5
5B1
  8
0
  6
CONTINUOUS
 62
     9
 10
-736.8956021581321
 20
714.5302731071207
 30
0.0
  0
VERTEX
  5
5B2
  8
0
  6
CONTINUOUS
 62
     9
 10
-736.4567217824585
 20
714.7052637301138
 30
0.0
  0
VERTEX
  5
5B3
  8
0
  6
CONTINUOUS
 62
     9
 10
-736.074022393678
 20
714.9431597444244
 30
0.0
  0
VERTEX
  5
5B4
  8
0
  6
CONTINUOUS
 62
     9
 10
-735.7617264451831
 20
715.2351200986295
 30
0.0
  0
VERTEX
  5
5B5
  8
0
  6
CONTINUOUS
 62
     9
 10
-735.5314399512565
 20
715.5702945205519
 30
0.0
  0
VERTEX
  5
5B6
  8
0
  6
CONTINUOUS
 62
     9
 10
-735.3917211668185
 20
715.9362267514831
 30
0.0
  0
VERTEX
  5
5B7
  8
0
  6
CONTINUOUS
 62
     9
 10
-735.3477625326146
 20
716.3193174645053
 30
0.0
  0
SEQEND
  5
6C5
  8
0
  6
CONTINUOUS
 62
     9
  0
POLYLINE
  5
1B7
  8
0
  6
CONTINUOUS
 62
     9
 66
     1
 10
0.0
 20
0.0
 30
0.0
  0
VERTEX
  5
5B8
  8
0
  6
CONTINUOUS
 62
     9
 10
-737.8751827920128
 20
834.3924416301905
 30
0.0
  0
VERTEX
  5
5B9
  8
0
  6
CONTINUOUS
 62
     9
 10
-737.3743531845155
 20
834.4246911415927
 30
0.0
  0
VERTEX
  5
5BA
  8
0
  6
CONTINUOUS
 62
     9
 10
-736.8956021581321
 20
834.5302731071207
 30
0.0
  0
VERTEX
  5
5BB
  8
0
  6
CONTINUOUS
 62
     9
 10
-736.4567217824587
 20
834.7052637301138
 30
0.0
  0
VERTEX
  5
5BC
  8
0
  6
CONTINUOUS
 62
     9
 10
-736.0740223936781
 20
834.9431597444245
 30
0.0
  0
VERTEX
  5
5BD
  8
0
  6
CONTINUOUS
 62
     9
 10
-735.7617264451831
 20
835.2351200986295
 30
0.0
  0
VERTEX
  5
5BE
  8
0
  6
CONTINUOUS
 62
     9
 10
-735.5314399512565
 20
835.5702945205519
 30
0.0
  0
VERTEX
  5
5BF
  8
0
  6
CONTINUOUS
 62
     9
 10
-735.3917211668186
 20
835.9362267514831
 30
0.0
  0
VERTEX
  5
5C0
  8
0
  6
CONTINUOUS
 62
     9
 10
-735.3477625326148
 20
836.3193174645053
 30
0.0
  0
SEQEND
  5
6C6
  8
0
  6
CONTINUOUS
 62
     9
  0
POLYLINE
  5
1B8
  8
0
  6
CONTINUOUS
 62
     9
 66
     1
 10
0.0
 20
0.0
 30
0.0
  0
VERTEX
  5
5C1
  8
0
  6
CONTINUOUS
 62
     9
 10
-735.3477625326146
 20
841.6806825354947
 30
0.0
  0
VERTEX
  5
5C2
  8
0
  6
CONTINUOUS
 62
     9
 10
-735.3917211668185
 20
842.0637732485169
 30
0.0
  0
VERTEX
  5
5C3
  8
0
  6
CONTINUOUS
 62
     9
 10
-735.5314399512565
 20
842.4297054794481
 30
0.0
  0
VERTEX
  5
5C4
  8
0
  6
CONTINUOUS
 62
     9
 10
-735.761726445183
 20
842.7648799013705
 30
0.0
  0
VERTEX
  5
5C5
  8
0
  6
CONTINUOUS
 62
     9
 10
-736.074022393678
 20
843.0568402555755
 30
0.0
  0
VERTEX
  5
5C6
  8
0
  6
CONTINUOUS
 62
     9
 10
-736.4567217824585
 20
843.2947362698862
 30
0.0
  0
VERTEX
  5
5C7
  8
0
  6
CONTINUOUS
 62
     9
 10
-736.8956021581321
 20
843.4697268928793
 30
0.0
  0
VERTEX
  5
5C8
  8
0
  6
CONTINUOUS
 62
     9
 10
-737.3743531845154
 20
843.5753088584073
 30
0.0
  0
VERTEX
  5
5C9
  8
0
  6
CONTINUOUS
 62
     9
 10
-737.8751827920127
 20
843.6075583698095
 30
0.0
  0
SEQEND
  5
6C7
  8
0
  6
CONTINUOUS
 62
     9
  0
LINE
  5
1B9
  8
0
  6
CONTINUOUS
 62
     9
 10
-735.3477625326146
 20
681.6806825354948
 30
0.0
 11
-735.3477625326146
 21
676.3193174645053
 31
0.0
  0
LINE
  5
1BA
  8
0
  6
CONTINUOUS
 62
     9
 10
-735.3477625326146
 20
721.6806825354948
 30
0.0
 11
-735.3477625326146
 21
716.3193174645053
 31
0.0
  0
LINE
  5
1BB
  8
0
  6
CONTINUOUS
 62
     9
 10
-735.3477625326146
 20
796.3193174645053
 30
0.0
 11
-735.3477625326146
 21
801.6806825354948
 31
0.0
  0
LINE
  5
1BC
  8
0
  6
CONTINUOUS
 62
     9
 10
-735.3477625326146
 20
836.3193174645052
 30
0.0
 11
-735.3477625326146
 21
841.6806825354947
 31
0.0
  0
LINE
  5
1BD
  8
0
  6
CONTINUOUS
 62
     7
 10
-689.9200000000002
 20
661.830368365212
 30
0.0
 11
-689.9200000000002
 21
738.2027567453523
 31
0.0
  0
LINE
  5
1BE
  8
0
  6
CONTINUOUS
 62
     9
 10
-690.121238212855
 20
739.0611632645357
 30
0.0
 11
-689.9200000000002
 21
738.2027567453523
 31
0.0
  0
LINE
  5
1BF
  8
0
  6
CONTINUOUS
 62
     7
 10
-689.9200000000002
 20
856.169631634788
 30
0.0
 11
-689.9200000000002
 21
779.7972432546477
 31
0.0
  0
LINE
  5
1C0
  8
0
  6
CONTINUOUS
 62
     9
 10
-690.121238212855
 20
778.9388367354643
 30
0.0
 11
-689.9200000000002
 21
779.7972432546477
 31
0.0
  0
POLYLINE
  5
1C1
  8
0
  6
CONTINUOUS
 62
     9
 66
     1
 10
0.0
 20
0.0
 30
0.0
  0
VERTEX
  5
5CA
  8
0
  6
CONTINUOUS
 62
     9
 10
-690.1212382128549
 20
778.0473051057165
 30
0.0
  0
VERTEX
  5
5CB
  8
0
  6
CONTINUOUS
 62
     9
 10
-690.0718898026705
 20
778.4874295547226
 30
0.0
  0
VERTEX
  5
5CC
  8
0
  6
CONTINUOUS
 62
     9
 10
-690.1212382128549
 20
778.9388367354643
 30
0.0
  0
SEQEND
  5
6C8
  8
0
  6
CONTINUOUS
 62
     9
  0
ARC
  5
1C2
  8
0
  6
CONTINUOUS
 62
     7
 10
-697.9200000000002
 20
779.830368365212
 30
0.0
 40
8.000000000000004
 50
273.0000000000001
 51
347.1215833319511
  0
POLYLINE
  5
1C3
  8
0
  6
CONTINUOUS
 62
     9
 66
     1
 10
0.0
 20
0.0
 30
0.0
  0
VERTEX
  5
5CD
  8
0
  6
CONTINUOUS
 62
     9
 10
-690.1212382128549
 20
739.0611632645357
 30
0.0
  0
VERTEX
  5
5CE
  8
0
  6
CONTINUOUS
 62
     9
 10
-690.0718898026705
 20
739.5125704452774
 30
0.0
  0
VERTEX
  5
5CF
  8
0
  6
CONTINUOUS
 62
     9
 10
-690.1212382128549
 20
739.9526948942835
 30
0.0
  0
SEQEND
  5
6C9
  8
0
  6
CONTINUOUS
 62
     9
  0
ARC
  5
1C4
  8
0
  6
CONTINUOUS
 62
     7
 10
-697.9200000000002
 20
738.169631634788
 30
0.0
 40
8.000000000000004
 50
12.87841666804889
 51
86.99999999999989
  0
ARC
  5
1C5
  8
0
  6
CONTINUOUS
 62
     7
 10
-697.9200000000002
 20
661.830368365212
 30
0.0
 40
8.000000000000009
 50
273.0000000000001
 51
0.0
  0
ARC
  5
1C6
  8
0
  6
CONTINUOUS
 62
     7
 10
-697.9200000000002
 20
856.169631634788
 30
0.0
 40
8.000000000000009
 50
0.0
 51
86.99999999999989
  0
LINE
  5
1C7
  8
0
  6
CONTINUOUS
 62
     9
 10
-742.0208299281519
 20
681.5551411919189
 30
0.0
 11
-742.0208299281519
 21
676.4448588080811
 31
0.0
  0
POLYLINE
  5
1C8
  8
0
  6
CONTINUOUS
 62
     9
 66
     1
 10
0.0
 20
0.0
 30
0.0
  0
VERTEX
  5
5D0
  8
0
  6
CONTINUOUS
 62
     9
 10
-742.0208299281518
 20
676.4448588080811
 30
0.0
  0
VERTEX
  5
5D1
  8
0
  6
CONTINUOUS
 62
     9
 10
-742.001669575633
 20
676.2502798530953
 30
0.0
  0
VERTEX
  5
5D2
  8
0
  6
CONTINUOUS
 62
     9
 10
-741.9449197361689
 20
676.0633356919569
 30
0.0
  0
VERTEX
  5
5D3
  8
0
  6
CONTINUOUS
 62
     9
 10
-741.8527461585018
 20
675.8911606899013
 30
0.0
  0
VERTEX
  5
5D4
  8
0
  6
CONTINUOUS
 62
     9
 10
-741.7286664703772
 20
675.7403255755441
 30
0.0
  0
VERTEX
  5
5D5
  8
0
  6
CONTINUOUS
 62
     9
 10
-741.5774159350311
 20
675.6165866816299
 30
0.0
  0
VERTEX
  5
5D6
  8
0
  6
CONTINUOUS
 62
     9
 10
-741.404766738953
 20
675.524666265637
 30
0.0
  0
VERTEX
  5
5D7
  8
0
  6
CONTINUOUS
 62
     9
 10
-741.2173077074634
 20
675.4680722938822
 30
0.0
  0
VERTEX
  5
5D8
  8
0
  6
CONTINUOUS
 62
     9
 10
-741.022192854837
 20
675.4489645667148
 30
0.0
  0
SEQEND
  5
6CA
  8
0
  6
CONTINUOUS
 62
     9
  0
POLYLINE
  5
1C9
  8
0
  6
CONTINUOUS
 62
     9
 66
     1
 10
0.0
 20
0.0
 30
0.0
  0
VERTEX
  5
5D9
  8
0
  6
CONTINUOUS
 62
     9
 10
-741.0221928548373
 20
682.5510354332852
 30
0.0
  0
VERTEX
  5
5DA
  8
0
  6
CONTINUOUS
 62
     9
 10
-741.2173077074635
 20
682.5319277061179
 30
0.0
  0
VERTEX
  5
5DB
  8
0
  6
CONTINUOUS
 62
     9
 10
-741.4047667389531
 20
682.475333734363
 30
0.0
  0
VERTEX
  5
5DC
  8
0
  6
CONTINUOUS
 62
     9
 10
-741.5774159350312
 20
682.3834133183702
 30
0.0
  0
VERTEX
  5
5DD
  8
0
  6
CONTINUOUS
 62
     9
 10
-741.7286664703774
 20
682.259674424456
 30
0.0
  0
VERTEX
  5
5DE
  8
0
  6
CONTINUOUS
 62
     9
 10
-741.8527461585019
 20
682.1088393100988
 30
0.0
  0
VERTEX
  5
5DF
  8
0
  6
CONTINUOUS
 62
     9
 10
-741.9449197361691
 20
681.9366643080432
 30
0.0
  0
VERTEX
  5
5E0
  8
0
  6
CONTINUOUS
 62
     9
 10
-742.0016695756331
 20
681.7497201469048
 30
0.0
  0
VERTEX
  5
5E1
  8
0
  6
CONTINUOUS
 62
     9
 10
-742.0208299281519
 20
681.555141191919
 30
0.0
  0
SEQEND
  5
6CB
  8
0
  6
CONTINUOUS
 62
     9
  0
POLYLINE
  5
1CA
  8
0
  6
CONTINUOUS
 62
     9
 66
     1
 10
0.0
 20
0.0
 30
0.0
  0
VERTEX
  5
5E2
  8
0
  6
CONTINUOUS
 62
     9
 10
-741.022192854837
 20
802.5510354332852
 30
0.0
  0
VERTEX
  5
5E3
  8
0
  6
CONTINUOUS
 62
     9
 10
-741.2173077074634
 20
802.5319277061178
 30
0.0
  0
VERTEX
  5
5E4
  8
0
  6
CONTINUOUS
 62
     9
 10
-741.404766738953
 20
802.475333734363
 30
0.0
  0
VERTEX
  5
5E5
  8
0
  6
CONTINUOUS
 62
     9
 10
-741.5774159350311
 20
802.3834133183701
 30
0.0
  0
VERTEX
  5
5E6
  8
0
  6
CONTINUOUS
 62
     9
 10
-741.7286664703772
 20
802.2596744244559
 30
0.0
  0
VERTEX
  5
5E7
  8
0
  6
CONTINUOUS
 62
     9
 10
-741.8527461585018
 20
802.1088393100987
 30
0.0
  0
VERTEX
  5
5E8
  8
0
  6
CONTINUOUS
 62
     9
 10
-741.9449197361689
 20
801.9366643080431
 30
0.0
  0
VERTEX
  5
5E9
  8
0
  6
CONTINUOUS
 62
     9
 10
-742.001669575633
 20
801.7497201469047
 30
0.0
  0
VERTEX
  5
5EA
  8
0
  6
CONTINUOUS
 62
     9
 10
-742.0208299281518
 20
801.5551411919189
 30
0.0
  0
SEQEND
  5
6CC
  8
0
  6
CONTINUOUS
 62
     9
  0
POLYLINE
  5
1CB
  8
0
  6
CONTINUOUS
 62
     9
 66
     1
 10
0.0
 20
0.0
 30
0.0
  0
VERTEX
  5
5EB
  8
0
  6
CONTINUOUS
 62
     9
 10
-741.0221928548373
 20
722.5510354332852
 30
0.0
  0
VERTEX
  5
5EC
  8
0
  6
CONTINUOUS
 62
     9
 10
-741.2173077074635
 20
722.5319277061179
 30
0.0
  0
VERTEX
  5
5ED
  8
0
  6
CONTINUOUS
 62
     9
 10
-741.4047667389531
 20
722.475333734363
 30
0.0
  0
VERTEX
  5
5EE
  8
0
  6
CONTINUOUS
 62
     9
 10
-741.5774159350312
 20
722.3834133183702
 30
0.0
  0
VERTEX
  5
5EF
  8
0
  6
CONTINUOUS
 62
     9
 10
-741.7286664703774
 20
722.259674424456
 30
0.0
  0
VERTEX
  5
5F0
  8
0
  6
CONTINUOUS
 62
     9
 10
-741.8527461585019
 20
722.1088393100988
 30
0.0
  0
VERTEX
  5
5F1
  8
0
  6
CONTINUOUS
 62
     9
 10
-741.9449197361691
 20
721.9366643080432
 30
0.0
  0
VERTEX
  5
5F2
  8
0
  6
CONTINUOUS
 62
     9
 10
-742.0016695756331
 20
721.7497201469048
 30
0.0
  0
VERTEX
  5
5F3
  8
0
  6
CONTINUOUS
 62
     9
 10
-742.0208299281519
 20
721.555141191919
 30
0.0
  0
SEQEND
  5
6CD
  8
0
  6
CONTINUOUS
 62
     9
  0
LINE
  5
1CC
  8
0
  6
CONTINUOUS
 62
     9
 10
-742.0208299281519
 20
721.555141191919
 30
0.0
 11
-742.0208299281519
 21
716.4448588080811
 31
0.0
  0
POLYLINE
  5
1CD
  8
0
  6
CONTINUOUS
 62
     9
 66
     1
 10
0.0
 20
0.0
 30
0.0
  0
VERTEX
  5
5F4
  8
0
  6
CONTINUOUS
 62
     9
 10
-742.0208299281518
 20
716.4448588080811
 30
0.0
  0
VERTEX
  5
5F5
  8
0
  6
CONTINUOUS
 62
     9
 10
-742.001669575633
 20
716.2502798530953
 30
0.0
  0
VERTEX
  5
5F6
  8
0
  6
CONTINUOUS
 62
     9
 10
-741.9449197361689
 20
716.0633356919569
 30
0.0
  0
VERTEX
  5
5F7
  8
0
  6
CONTINUOUS
 62
     9
 10
-741.8527461585018
 20
715.8911606899013
 30
0.0
  0
VERTEX
  5
5F8
  8
0
  6
CONTINUOUS
 62
     9
 10
-741.7286664703772
 20
715.7403255755441
 30
0.0
  0
VERTEX
  5
5F9
  8
0
  6
CONTINUOUS
 62
     9
 10
-741.5774159350311
 20
715.6165866816299
 30
0.0
  0
VERTEX
  5
5FA
  8
0
  6
CONTINUOUS
 62
     9
 10
-741.404766738953
 20
715.524666265637
 30
0.0
  0
VERTEX
  5
5FB
  8
0
  6
CONTINUOUS
 62
     9
 10
-741.2173077074634
 20
715.4680722938822
 30
0.0
  0
VERTEX
  5
5FC
  8
0
  6
CONTINUOUS
 62
     9
 10
-741.022192854837
 20
715.4489645667148
 30
0.0
  0
SEQEND
  5
6CE
  8
0
  6
CONTINUOUS
 62
     9
  0
POLYLINE
  5
1CE
  8
0
  6
CONTINUOUS
 62
     9
 66
     1
 10
0.0
 20
0.0
 30
0.0
  0
VERTEX
  5
5FD
  8
0
  6
CONTINUOUS
 62
     9
 10
-742.0208299281519
 20
796.444858808081
 30
0.0
  0
VERTEX
  5
5FE
  8
0
  6
CONTINUOUS
 62
     9
 10
-742.0016695756331
 20
796.2502798530952
 30
0.0
  0
VERTEX
  5
5FF
  8
0
  6
CONTINUOUS
 62
     9
 10
-741.9449197361691
 20
796.0633356919568
 30
0.0
  0
VERTEX
  5
600
  8
0
  6
CONTINUOUS
 62
     9
 10
-741.8527461585019
 20
795.8911606899012
 30
0.0
  0
VERTEX
  5
601
  8
0
  6
CONTINUOUS
 62
     9
 10
-741.7286664703774
 20
795.740325575544
 30
0.0
  0
VERTEX
  5
602
  8
0
  6
CONTINUOUS
 62
     9
 10
-741.5774159350312
 20
795.6165866816298
 30
0.0
  0
VERTEX
  5
603
  8
0
  6
CONTINUOUS
 62
     9
 10
-741.4047667389531
 20
795.524666265637
 30
0.0
  0
VERTEX
  5
604
  8
0
  6
CONTINUOUS
 62
     9
 10
-741.2173077074635
 20
795.4680722938821
 30
0.0
  0
VERTEX
  5
605
  8
0
  6
CONTINUOUS
 62
     9
 10
-741.0221928548373
 20
795.4489645667148
 30
0.0
  0
SEQEND
  5
6CF
  8
0
  6
CONTINUOUS
 62
     9
  0
LINE
  5
1CF
  8
0
  6
CONTINUOUS
 62
     9
 10
-742.0208299281519
 20
796.444858808081
 30
0.0
 11
-742.0208299281519
 21
801.5551411919188
 31
0.0
  0
POLYLINE
  5
1D0
  8
0
  6
CONTINUOUS
 62
     9
 66
     1
 10
0.0
 20
0.0
 30
0.0
  0
VERTEX
  5
606
  8
0
  6
CONTINUOUS
 62
     9
 10
-741.022192854837
 20
842.5510354332852
 30
0.0
  0
VERTEX
  5
607
  8
0
  6
CONTINUOUS
 62
     9
 10
-741.2173077074634
 20
842.5319277061178
 30
0.0
  0
VERTEX
  5
608
  8
0
  6
CONTINUOUS
 62
     9
 10
-741.404766738953
 20
842.475333734363
 30
0.0
  0
VERTEX
  5
609
  8
0
  6
CONTINUOUS
 62
     9
 10
-741.5774159350311
 20
842.3834133183701
 30
0.0
  0
VERTEX
  5
60A
  8
0
  6
CONTINUOUS
 62
     9
 10
-741.7286664703772
 20
842.2596744244559
 30
0.0
  0
VERTEX
  5
60B
  8
0
  6
CONTINUOUS
 62
     9
 10
-741.8527461585018
 20
842.1088393100987
 30
0.0
  0
VERTEX
  5
60C
  8
0
  6
CONTINUOUS
 62
     9
 10
-741.9449197361689
 20
841.9366643080431
 30
0.0
  0
VERTEX
  5
60D
  8
0
  6
CONTINUOUS
 62
     9
 10
-742.001669575633
 20
841.7497201469047
 30
0.0
  0
VERTEX
  5
60E
  8
0
  6
CONTINUOUS
 62
     9
 10
-742.0208299281518
 20
841.5551411919189
 30
0.0
  0
SEQEND
  5
6D0
  8
0
  6
CONTINUOUS
 62
     9
  0
POLYLINE
  5
1D1
  8
0
  6
CONTINUOUS
 62
     9
 66
     1
 10
0.0
 20
0.0
 30
0.0
  0
VERTEX
  5
60F
  8
0
  6
CONTINUOUS
 62
     9
 10
-742.0208299281519
 20
836.444858808081
 30
0.0
  0
VERTEX
  5
610
  8
0
  6
CONTINUOUS
 62
     9
 10
-742.0016695756331
 20
836.2502798530952
 30
0.0
  0
VERTEX
  5
611
  8
0
  6
CONTINUOUS
 62
     9
 10
-741.9449197361691
 20
836.0633356919568
 30
0.0
  0
VERTEX
  5
612
  8
0
  6
CONTINUOUS
 62
     9
 10
-741.8527461585019
 20
835.8911606899012
 30
0.0
  0
VERTEX
  5
613
  8
0
  6
CONTINUOUS
 62
     9
 10
-741.7286664703774
 20
835.740325575544
 30
0.0
  0
VERTEX
  5
614
  8
0
  6
CONTINUOUS
 62
     9
 10
-741.5774159350312
 20
835.6165866816298
 30
0.0
  0
VERTEX
  5
615
  8
0
  6
CONTINUOUS
 62
     9
 10
-741.4047667389531
 20
835.524666265637
 30
0.0
  0
VERTEX
  5
616
  8
0
  6
CONTINUOUS
 62
     9
 10
-741.2173077074635
 20
835.4680722938821
 30
0.0
  0
VERTEX
  5
617
  8
0
  6
CONTINUOUS
 62
     9
 10
-741.0221928548373
 20
835.4489645667148
 30
0.0
  0
SEQEND
  5
6D1
  8
0
  6
CONTINUOUS
 62
     9
  0
LINE
  5
1D2
  8
0
  6
CONTINUOUS
 62
     9
 10
-742.0208299281519
 20
836.444858808081
 30
0.0
 11
-742.0208299281518
 21
841.5551411919189
 31
0.0
  0
LINE
  5
1D3
  8
0
  6
CONTINUOUS
 62
     9
 10
-741.022192854837
 20
675.448964566715
 30
0.0
 11
-738.6195023239313
 21
675.448964566715
 31
0.0
  0
LINE
  5
1D4
  8
0
  6
CONTINUOUS
 62
     9
 10
-738.6195023239313
 20
682.5510354332852
 30
0.0
 11
-741.0221928548373
 21
682.5510354332852
 31
0.0
  0
LINE
  5
1D5
  8
0
  6
CONTINUOUS
 62
     9
 10
-741.022192854837
 20
802.551035433285
 30
0.0
 11
-738.6195023239313
 21
802.551035433285
 31
0.0
  0
LINE
  5
1D6
  8
0
  6
CONTINUOUS
 62
     9
 10
-738.6195023239312
 20
795.4489645667148
 30
0.0
 11
-741.0221928548373
 21
795.4489645667148
 31
0.0
  0
LINE
  5
1D7
  8
0
  6
CONTINUOUS
 62
     9
 10
-738.6195023239312
 20
722.5510354332852
 30
0.0
 11
-741.0221928548373
 21
722.5510354332852
 31
0.0
  0
LINE
  5
1D8
  8
0
  6
CONTINUOUS
 62
     9
 10
-741.022192854837
 20
715.448964566715
 30
0.0
 11
-738.6195023239313
 21
715.448964566715
 31
0.0
  0
LINE
  5
1D9
  8
0
  6
CONTINUOUS
 62
     9
 10
-738.6195023239312
 20
835.448964566715
 30
0.0
 11
-741.0221928548373
 21
835.448964566715
 31
0.0
  0
LINE
  5
1DA
  8
0
  6
CONTINUOUS
 62
     9
 10
-741.022192854837
 20
842.5510354332852
 30
0.0
 11
-738.6195023239313
 21
842.5510354332852
 31
0.0
  0
POLYLINE
  5
1DB
  8
0
  6
CONTINUOUS
 62
     9
 66
     1
 10
0.0
 20
0.0
 30
0.0
  0
VERTEX
  5
618
  8
0
  6
CONTINUOUS
 62
     9
 10
-738.6195023239313
 20
675.4489645667148
 30
0.0
  0
VERTEX
  5
619
  8
0
  6
CONTINUOUS
 62
     9
 10
-738.3988776094541
 20
675.467571823399
 30
0.0
  0
VERTEX
  5
61A
  8
0
  6
CONTINUOUS
 62
     9
 10
-738.187573484604
 20
675.522702082441
 30
0.0
  0
VERTEX
  5
61B
  8
0
  6
CONTINUOUS
 62
     9
 10
-737.9934427527965
 20
675.6123065097881
 30
0.0
  0
VERTEX
  5
61C
  8
0
  6
CONTINUOUS
 62
     9
 10
-737.8236999938459
 20
675.7330550902141
 30
0.0
  0
VERTEX
  5
61D
  8
0
  6
CONTINUOUS
 62
     9
 10
-737.6846534448407
 20
675.8804603823805
 30
0.0
  0
VERTEX
  5
61E
  8
0
  6
CONTINUOUS
 62
     9
 10
-737.581470563897
 20
676.049044287918
 30
0.0
  0
VERTEX
  5
61F
  8
0
  6
CONTINUOUS
 62
     9
 10
-737.5179859892667
 20
676.2325416368011
 30
0.0
  0
VERTEX
  5
620
  8
0
  6
CONTINUOUS
 62
     9
 10
-737.4965590307114
 20
676.4241330230714
 30
0.0
  0
SEQEND
  5
6D2
  8
0
  6
CONTINUOUS
 62
     9
  0
POLYLINE
  5
1DC
  8
0
  6
CONTINUOUS
 62
     9
 66
     1
 10
0.0
 20
0.0
 30
0.0
  0
VERTEX
  5
621
  8
0
  6
CONTINUOUS
 62
     9
 10
-737.4965590307114
 20
801.5758669769286
 30
0.0
  0
VERTEX
  5
622
  8
0
  6
CONTINUOUS
 62
     9
 10
-737.5179859892667
 20
801.7674583631989
 30
0.0
  0
VERTEX
  5
623
  8
0
  6
CONTINUOUS
 62
     9
 10
-737.581470563897
 20
801.950955712082
 30
0.0
  0
VERTEX
  5
624
  8
0
  6
CONTINUOUS
 62
     9
 10
-737.6846534448407
 20
802.1195396176195
 30
0.0
  0
VERTEX
  5
625
  8
0
  6
CONTINUOUS
 62
     9
 10
-737.8236999938459
 20
802.2669449097859
 30
0.0
  0
VERTEX
  5
626
  8
0
  6
CONTINUOUS
 62
     9
 10
-737.9934427527965
 20
802.3876934902119
 30
0.0
  0
VERTEX
  5
627
  8
0
  6
CONTINUOUS
 62
     9
 10
-738.187573484604
 20
802.477297917559
 30
0.0
  0
VERTEX
  5
628
  8
0
  6
CONTINUOUS
 62
     9
 10
-738.3988776094541
 20
802.532428176601
 30
0.0
  0
VERTEX
  5
629
  8
0
  6
CONTINUOUS
 62
     9
 10
-738.6195023239313
 20
802.5510354332852
 30
0.0
  0
SEQEND
  5
6D3
  8
0
  6
CONTINUOUS
 62
     9
  0
POLYLINE
  5
1DD
  8
0
  6
CONTINUOUS
 62
     9
 66
     1
 10
0.0
 20
0.0
 30
0.0
  0
VERTEX
  5
62A
  8
0
  6
CONTINUOUS
 62
     9
 10
-738.6195023239313
 20
715.4489645667148
 30
0.0
  0
VERTEX
  5
62B
  8
0
  6
CONTINUOUS
 62
     9
 10
-738.3988776094541
 20
715.467571823399
 30
0.0
  0
VERTEX
  5
62C
  8
0
  6
CONTINUOUS
 62
     9
 10
-738.187573484604
 20
715.522702082441
 30
0.0
  0
VERTEX
  5
62D
  8
0
  6
CONTINUOUS
 62
     9
 10
-737.9934427527965
 20
715.6123065097881
 30
0.0
  0
VERTEX
  5
62E
  8
0
  6
CONTINUOUS
 62
     9
 10
-737.8236999938459
 20
715.7330550902141
 30
0.0
  0
VERTEX
  5
62F
  8
0
  6
CONTINUOUS
 62
     9
 10
-737.6846534448407
 20
715.8804603823805
 30
0.0
  0
VERTEX
  5
630
  8
0
  6
CONTINUOUS
 62
     9
 10
-737.581470563897
 20
716.049044287918
 30
0.0
  0
VERTEX
  5
631
  8
0
  6
CONTINUOUS
 62
     9
 10
-737.5179859892667
 20
716.2325416368011
 30
0.0
  0
VERTEX
  5
632
  8
0
  6
CONTINUOUS
 62
     9
 10
-737.4965590307114
 20
716.4241330230714
 30
0.0
  0
SEQEND
  5
6D4
  8
0
  6
CONTINUOUS
 62
     9
  0
POLYLINE
  5
1DE
  8
0
  6
CONTINUOUS
 62
     9
 66
     1
 10
0.0
 20
0.0
 30
0.0
  0
VERTEX
  5
633
  8
0
  6
CONTINUOUS
 62
     9
 10
-737.4965590307114
 20
841.5758669769286
 30
0.0
  0
VERTEX
  5
634
  8
0
  6
CONTINUOUS
 62
     9
 10
-737.5179859892667
 20
841.7674583631989
 30
0.0
  0
VERTEX
  5
635
  8
0
  6
CONTINUOUS
 62
     9
 10
-737.581470563897
 20
841.950955712082
 30
0.0
  0
VERTEX
  5
636
  8
0
  6
CONTINUOUS
 62
     9
 10
-737.6846534448407
 20
842.1195396176195
 30
0.0
  0
VERTEX
  5
637
  8
0
  6
CONTINUOUS
 62
     9
 10
-737.8236999938459
 20
842.2669449097859
 30
0.0
  0
VERTEX
  5
638
  8
0
  6
CONTINUOUS
 62
     9
 10
-737.9934427527965
 20
842.3876934902119
 30
0.0
  0
VERTEX
  5
639
  8
0
  6
CONTINUOUS
 62
     9
 10
-738.187573484604
 20
842.477297917559
 30
0.0
  0
VERTEX
  5
63A
  8
0
  6
CONTINUOUS
 62
     9
 10
-738.3988776094541
 20
842.532428176601
 30
0.0
  0
VERTEX
  5
63B
  8
0
  6
CONTINUOUS
 62
     9
 10
-738.6195023239313
 20
842.5510354332852
 30
0.0
  0
SEQEND
  5
6D5
  8
0
  6
CONTINUOUS
 62
     9
  0
POLYLINE
  5
1DF
  8
0
  6
CONTINUOUS
 62
     9
 66
     1
 10
0.0
 20
0.0
 30
0.0
  0
VERTEX
  5
63C
  8
0
  6
CONTINUOUS
 62
     9
 10
-737.4965590307114
 20
681.5758669769288
 30
0.0
  0
VERTEX
  5
63D
  8
0
  6
CONTINUOUS
 62
     9
 10
-737.5179859892667
 20
681.767458363199
 30
0.0
  0
VERTEX
  5
63E
  8
0
  6
CONTINUOUS
 62
     9
 10
-737.581470563897
 20
681.9509557120821
 30
0.0
  0
VERTEX
  5
63F
  8
0
  6
CONTINUOUS
 62
     9
 10
-737.6846534448407
 20
682.1195396176196
 30
0.0
  0
VERTEX
  5
640
  8
0
  6
CONTINUOUS
 62
     9
 10
-737.8236999938459
 20
682.2669449097859
 30
0.0
  0
VERTEX
  5
641
  8
0
  6
CONTINUOUS
 62
     9
 10
-737.9934427527965
 20
682.3876934902119
 30
0.0
  0
VERTEX
  5
642
  8
0
  6
CONTINUOUS
 62
     9
 10
-738.1875734846038
 20
682.477297917559
 30
0.0
  0
VERTEX
  5
643
  8
0
  6
CONTINUOUS
 62
     9
 10
-738.398877609454
 20
682.5324281766011
 30
0.0
  0
VERTEX
  5
644
  8
0
  6
CONTINUOUS
 62
     9
 10
-738.6195023239313
 20
682.5510354332853
 30
0.0
  0
SEQEND
  5
6D6
  8
0
  6
CONTINUOUS
 62
     9
  0
POLYLINE
  5
1E0
  8
0
  6
CONTINUOUS
 62
     9
 66
     1
 10
0.0
 20
0.0
 30
0.0
  0
VERTEX
  5
645
  8
0
  6
CONTINUOUS
 62
     9
 10
-738.6195023239313
 20
795.4489645667148
 30
0.0
  0
VERTEX
  5
646
  8
0
  6
CONTINUOUS
 62
     9
 10
-738.398877609454
 20
795.467571823399
 30
0.0
  0
VERTEX
  5
647
  8
0
  6
CONTINUOUS
 62
     9
 10
-738.1875734846038
 20
795.5227020824411
 30
0.0
  0
VERTEX
  5
648
  8
0
  6
CONTINUOUS
 62
     9
 10
-737.9934427527965
 20
795.6123065097883
 30
0.0
  0
VERTEX
  5
649
  8
0
  6
CONTINUOUS
 62
     9
 10
-737.8236999938459
 20
795.7330550902142
 30
0.0
  0
VERTEX
  5
64A
  8
0
  6
CONTINUOUS
 62
     9
 10
-737.6846534448407
 20
795.8804603823805
 30
0.0
  0
VERTEX
  5
64B
  8
0
  6
CONTINUOUS
 62
     9
 10
-737.581470563897
 20
796.049044287918
 30
0.0
  0
VERTEX
  5
64C
  8
0
  6
CONTINUOUS
 62
     9
 10
-737.5179859892667
 20
796.2325416368011
 30
0.0
  0
VERTEX
  5
64D
  8
0
  6
CONTINUOUS
 62
     9
 10
-737.4965590307114
 20
796.4241330230714
 30
0.0
  0
SEQEND
  5
6D7
  8
0
  6
CONTINUOUS
 62
     9
  0
POLYLINE
  5
1E1
  8
0
  6
CONTINUOUS
 62
     9
 66
     1
 10
0.0
 20
0.0
 30
0.0
  0
VERTEX
  5
64E
  8
0
  6
CONTINUOUS
 62
     9
 10
-737.4965590307114
 20
721.5758669769288
 30
0.0
  0
VERTEX
  5
64F
  8
0
  6
CONTINUOUS
 62
     9
 10
-737.5179859892667
 20
721.767458363199
 30
0.0
  0
VERTEX
  5
650
  8
0
  6
CONTINUOUS
 62
     9
 10
-737.581470563897
 20
721.9509557120821
 30
0.0
  0
VERTEX
  5
651
  8
0
  6
CONTINUOUS
 62
     9
 10
-737.6846534448407
 20
722.1195396176196
 30
0.0
  0
VERTEX
  5
652
  8
0
  6
CONTINUOUS
 62
     9
 10
-737.8236999938459
 20
722.2669449097859
 30
0.0
  0
VERTEX
  5
653
  8
0
  6
CONTINUOUS
 62
     9
 10
-737.9934427527965
 20
722.3876934902119
 30
0.0
  0
VERTEX
  5
654
  8
0
  6
CONTINUOUS
 62
     9
 10
-738.1875734846038
 20
722.477297917559
 30
0.0
  0
VERTEX
  5
655
  8
0
  6
CONTINUOUS
 62
     9
 10
-738.398877609454
 20
722.5324281766011
 30
0.0
  0
VERTEX
  5
656
  8
0
  6
CONTINUOUS
 62
     9
 10
-738.6195023239313
 20
722.5510354332853
 30
0.0
  0
SEQEND
  5
6D8
  8
0
  6
CONTINUOUS
 62
     9
  0
POLYLINE
  5
1E2
  8
0
  6
CONTINUOUS
 62
     9
 66
     1
 10
0.0
 20
0.0
 30
0.0
  0
VERTEX
  5
657
  8
0
  6
CONTINUOUS
 62
     9
 10
-738.6195023239313
 20
835.4489645667147
 30
0.0
  0
VERTEX
  5
658
  8
0
  6
CONTINUOUS
 62
     9
 10
-738.398877609454
 20
835.4675718233989
 30
0.0
  0
VERTEX
  5
659
  8
0
  6
CONTINUOUS
 62
     9
 10
-738.1875734846038
 20
835.522702082441
 30
0.0
  0
VERTEX
  5
65A
  8
0
  6
CONTINUOUS
 62
     9
 10
-737.9934427527965
 20
835.6123065097881
 30
0.0
  0
VERTEX
  5
65B
  8
0
  6
CONTINUOUS
 62
     9
 10
-737.8236999938459
 20
835.7330550902141
 30
0.0
  0
VERTEX
  5
65C
  8
0
  6
CONTINUOUS
 62
     9
 10
-737.6846534448407
 20
835.8804603823804
 30
0.0
  0
VERTEX
  5
65D
  8
0
  6
CONTINUOUS
 62
     9
 10
-737.581470563897
 20
836.0490442879179
 30
0.0
  0
VERTEX
  5
65E
  8
0
  6
CONTINUOUS
 62
     9
 10
-737.5179859892667
 20
836.232541636801
 30
0.0
  0
VERTEX
  5
65F
  8
0
  6
CONTINUOUS
 62
     9
 10
-737.4965590307114
 20
836.4241330230712
 30
0.0
  0
SEQEND
  5
6D9
  8
0
  6
CONTINUOUS
 62
     9
  0
LINE
  5
1E3
  8
0
  6
CONTINUOUS
 62
     9
 10
-737.4965590307115
 20
676.4241330230714
 30
0.0
 11
-737.4965590307115
 21
681.5758669769288
 31
0.0
  0
LINE
  5
1E4
  8
0
  6
CONTINUOUS
 62
     9
 10
-737.4965590307115
 20
716.4241330230712
 30
0.0
 11
-737.4965590307114
 21
721.5758669769288
 31
0.0
  0
LINE
  5
1E5
  8
0
  6
CONTINUOUS
 62
     9
 10
-737.4965590307115
 20
801.5758669769288
 30
0.0
 11
-737.4965590307114
 21
796.4241330230712
 31
0.0
  0
LINE
  5
1E6
  8
0
  6
CONTINUOUS
 62
     9
 10
-737.4965590307114
 20
841.5758669769286
 30
0.0
 11
-737.4965590307114
 21
836.4241330230712
 31
0.0
  0
LINE
  5
1E7
  8
0
  6
CONTINUOUS
 62
     9
 10
-690.121238212855
 20
739.9526948942836
 30
0.0
 11
-689.9200000000002
 21
738.2027567453523
 31
0.0
  0
LINE
  5
1E8
  8
0
  6
CONTINUOUS
 62
     9
 10
-690.121238212855
 20
778.0473051057164
 30
0.0
 11
-689.9200000000002
 21
779.7972432546477
 31
0.0
  0
LINE
  5
1E9
  8
0
  6
CONTINUOUS
 62
     7
 10
-689.9200000000002
 20
750.1531860518428
 30
0.0
 11
-689.9200000000002
 21
738.2027567453523
 31
0.0
  0
LINE
  5
1EA
  8
0
  6
CONTINUOUS
 62
     7
 10
-689.9200000000002
 20
767.8468139481572
 30
0.0
 11
-689.9200000000002
 21
779.7972432546477
 31
0.0
  0
ARC
  5
1EB
  8
0
  6
CONTINUOUS
 62
     7
 10
-798.9200000000002
 20
633.0043443947026
 30
0.0
 40
0.500000000000056
 50
90.50000000000011
 51
180.0
  0
ARC
  5
1EC
  8
0
  6
CONTINUOUS
 62
     7
 10
-798.9200000000002
 20
884.9956556052974
 30
0.0
 40
0.4999999999999449
 50
180.0
 51
269.4999999999999
  0
LINE
  5
1ED
  8
0
  6
CONTINUOUS
 62
     7
 10
-774.4199999999997
 20
633.7181716947689
 30
0.0
 11
-774.4197614843318
 21
633.7181841948454
 31
0.0
  0
LINE
  5
1EE
  8
0
  6
CONTINUOUS
 62
     7
 10
-798.9243632677494
 20
633.5043253562345
 30
0.0
 11
-774.4199999999998
 21
633.7181716947689
 31
0.0
  0
LINE
  5
1EF
  8
0
  6
CONTINUOUS
 62
     7
 10
-774.4199999999997
 20
884.281828305231
 30
0.0
 11
-774.4197614843318
 21
884.2818158051545
 31
0.0
  0
LINE
  5
1F0
  8
0
  6
CONTINUOUS
 62
     7
 10
-798.9243632677494
 20
884.4956746437654
 30
0.0
 11
-774.4199999999998
 21
884.281828305231
 31
0.0
  0
LINE
  5
1F1
  8
0
  6
CONTINUOUS
 62
     7
 10
-689.9200000000002
 20
767.8468139481572
 30
0.0
 11
-689.9200000000002
 21
750.1531860518428
 31
0.0
  0
LINE
  5
1F2
  8
0
  6
CONTINUOUS
 62
     7
 10
-774.4197614843318
 20
633.7181841948454
 30
0.0
 11
-697.5013123500567
 21
637.7493092998684
 31
0.0
  0
LINE
  5
1F3
  8
0
  6
CONTINUOUS
 62
     7
 10
-774.4197614843318
 20
884.2818158051545
 30
0.0
 11
-697.5013123500567
 21
880.2506907001316
 31
0.0
  0
LINE
  5
1F4
  8
0
  6
CONTINUOUS
 62
     7
 10
-689.9200000000002
 20
661.830368365212
 30
0.0
 11
-689.9200000000002
 21
649.8468139481571
 31
0.0
  0
LINE
  5
1F5
  8
0
  6
CONTINUOUS
 62
     7
 10
-689.9200000000002
 20
856.169631634788
 30
0.0
 11
-689.9200000000002
 21
868.1531860518429
 31
0.0
  0
LINE
  5
1F6
  8
0
  6
CONTINUOUS
 62
     7
 10
-689.9200000000002
 20
645.738345577905
 30
0.0
 11
-689.9200000000002
 21
649.8468139481571
 31
0.0
  0
ARC
  5
1F7
  8
0
  6
CONTINUOUS
 62
     7
 10
-697.9200000000002
 20
645.738345577905
 30
0.0
 40
7.999999999999996
 50
273.0000000000001
 51
0.0
  0
LINE
  5
1F8
  8
0
  6
CONTINUOUS
 62
     7
 10
-689.9200000000002
 20
872.261654422095
 30
0.0
 11
-689.9200000000002
 21
868.1531860518429
 31
0.0
  0
ARC
  5
1F9
  8
0
  6
CONTINUOUS
 62
     7
 10
-697.9200000000002
 20
872.261654422095
 30
0.0
 40
7.999999999999996
 50
0.0
 51
86.99999999999989
  0
LINE
  5
1FA
  8
0
  6
CONTINUOUS
 62
     7
 10
-684.9200000000002
 20
697.770161922008
 30
0.0
 11
-684.9200000000002
 21
704.1254013652712
 31
0.0
  0
LINE
  5
1FB
  8
0
  6
CONTINUOUS
 62
     7
 10
-684.9200000000002
 20
813.8745986347288
 30
0.0
 11
-684.9200000000002
 21
704.1254013652712
 31
0.0
  0
LINE
  5
1FC
  8
0
  6
CONTINUOUS
 62
     7
 10
-684.9200000000002
 20
820.2298380779921
 30
0.0
 11
-684.9200000000002
 21
813.8745986347288
 31
0.0
  0
LINE
  5
1FD
  8
0
  6
CONTINUOUS
 62
     7
 10
-684.9200000000002
 20
662.8434298326581
 30
0.0
 11
-684.9200000000002
 21
697.770161922008
 31
0.0
  0
LINE
  5
1FE
  8
0
  6
CONTINUOUS
 62
     7
 10
-684.9200000000002
 20
855.1565701673419
 30
0.0
 11
-684.9200000000002
 21
820.229838077992
 31
0.0
  0
LINE
  5
1FF
  8
0
  6
CONTINUOUS
 62
     7
 10
-679.9200000000002
 20
832.7889965368698
 30
0.0
 11
-679.9200000000002
 21
685.21100346313
 31
0.0
  0
ARC
  5
200
  8
0
  6
CONTINUOUS
 62
     7
 10
-688.9200000000002
 20
658.0510354332852
 30
0.0
 40
1.000000000000001
 50
93.00000000000097
 51
180.0
  0
ARC
  5
201
  8
0
  6
CONTINUOUS
 62
     7
 10
-688.9200000000002
 20
859.9489645667148
 30
0.0
 40
1.000000000000001
 50
180.0
 51
266.999999999999
  0
LINE
  5
202
  8
0
  6
CONTINUOUS
 62
     7
 10
-688.9723359562432
 20
659.0496649680397
 30
0.0
 11
-685.8676640437571
 21
659.2123739283755
 31
0.0
  0
LINE
  5
203
  8
0
  6
CONTINUOUS
 62
     7
 10
-688.9723359562432
 20
858.9503350319602
 30
0.0
 11
-685.8676640437571
 21
858.7876260716245
 31
0.0
  0
ARC
  5
204
  8
0
  6
CONTINUOUS
 62
     7
 10
-685.9200000000002
 20
660.21100346313
 30
0.0
 40
1.000000000000031
 50
273.0000000000001
 51
359.9999999999991
  0
LINE
  5
205
  8
0
  6
CONTINUOUS
 62
     7
 10
-684.9200000000002
 20
660.21100346313
 30
0.0
 11
-684.9200000000002
 21
662.8434298326581
 31
0.0
  0
ARC
  5
206
  8
0
  6
CONTINUOUS
 62
     7
 10
-685.9200000000002
 20
857.78899653687
 30
0.0
 40
1.000000000000031
 50
0.0000000000007958
 51
86.99999999999989
  0
LINE
  5
207
  8
0
  6
CONTINUOUS
 62
     7
 10
-684.9200000000002
 20
857.78899653687
 30
0.0
 11
-684.9200000000002
 21
855.1565701673419
 31
0.0
  0
LINE
  5
208
  8
0
  6
CONTINUOUS
 62
     7
 10
-774.4197614843318
 20
633.7181841948454
 30
0.0
 11
-774.4199999999997
 21
633.7181716947689
 31
0.0
  0
LINE
  5
209
  8
0
  6
CONTINUOUS
 62
     7
 10
-774.4197614843318
 20
884.2818158051545
 30
0.0
 11
-774.4199999999997
 21
884.281828305231
 31
0.0
  0
ARC
  5
20A
  8
0
  6
CONTINUOUS
 62
     7
 10
-798.9200000000002
 20
753.5086513684421
 30
0.0
 40
0.4999999999999449
 50
91.00000000000477
 51
179.9999999999992
  0
ARC
  5
20B
  8
0
  6
CONTINUOUS
 62
     7
 10
-798.9200000000002
 20
764.4913486315579
 30
0.0
 40
0.5000000000000481
 50
180.0000000000008
 51
268.9999999999952
  0
LINE
  5
20C
  8
0
  6
CONTINUOUS
 62
     7
 10
-798.9287262032188
 20
754.0085752160204
 30
0.0
 11
-790.8938213903441
 21
754.1488250012211
 31
0.0
  0
LINE
  5
20D
  8
0
  6
CONTINUOUS
 62
     7
 10
-790.8938213903441
 20
763.8511749987788
 30
0.0
 11
-798.9287262032188
 21
763.9914247839796
 31
0.0
  0
ARC
  5
20E
  8
0
  6
CONTINUOUS
 62
     7
 10
-790.9200000000002
 20
762.3514034560443
 30
0.0
 40
1.500000000000057
 50
359.9999999999998
 51
88.99999999999784
  0
ARC
  5
20F
  8
0
  6
CONTINUOUS
 62
     7
 10
-790.9200000000002
 20
755.6485965439557
 30
0.0
 40
1.500000000000033
 50
271.0000000000022
 51
0.0000000000001137
  0
ARC
  5
210
  8
0
  6
CONTINUOUS
 62
     7
 10
-683.9200000000002
 20
683.0510354332852
 30
0.0
 40
1.000000000000001
 50
93.00000000000011
 51
180.0
  0
ARC
  5
211
  8
0
  6
CONTINUOUS
 62
     7
 10
-683.9200000000002
 20
834.9489645667148
 30
0.0
 40
1.000000000000025
 50
180.0
 51
266.9999999999998
  0
LINE
  5
212
  8
0
  6
CONTINUOUS
 62
     7
 10
-683.972335956243
 20
684.0496649680397
 30
0.0
 11
-680.8676640437571
 21
684.2123739283755
 31
0.0
  0
LINE
  5
213
  8
0
  6
CONTINUOUS
 62
     7
 10
-680.8676640437571
 20
833.7876260716245
 30
0.0
 11
-683.972335956243
 21
833.9503350319602
 31
0.0
  0
ARC
  5
214
  8
0
  6
CONTINUOUS
 62
     7
 10
-680.9200000000002
 20
685.21100346313
 30
0.0
 40
0.99999999999992
 50
273.0000000000017
 51
0.0
  0
ARC
  5
215
  8
0
  6
CONTINUOUS
 62
     7
 10
-680.9200000000002
 20
832.7889965368698
 30
0.0
 40
1.000000000000001
 50
0.0
 51
86.9999999999983
  0
ENDBLK
  8
0
  0
ENDSEC
  0
SECTION
  2
ENTITIES
  0
TEXT
  5
6F
  8
0
  6
CONTINUOUS
 62
     7
 10
-967.8531324246593
 20
558.7159090909089
 30
0.0
 40
5.0
  1
ＤＬＣ－２５１２ＳＡ
  0
INSERT
  5
164
  8
0
  6
CONTINUOUS
 62
     7
  2
D_FRAME_VIEW_1330
 10
0.0
 20
0.0
 30
0.0
  0
LINE
  5
165
  8
0
  6
CENTER
 62
     1
 10
-799.7003812870508
 20
759.0
 30
0.0
 11
-678.6763734269404
 21
759.0
 31
0.0
  0
LINE
  5
167
  8
0
  6
CENTER
 62
    10
 10
-865.0
 20
759.0000000000001
 30
0.0
 11
-1204.5
 21
759.0000000000001
 31
0.0
  0
LINE
  5
168
  8
0
  6
CENTER
 62
    10
 10
-1037.5
 20
586.5
 30
0.0
 11
-1037.5
 21
931.4999999999999
 31
0.0
  0
INSERT
  5
216
  8
0
  6
CONTINUOUS
 62
     7
  2
D_FRAME_VIEW_4144
 10
0.0
 20
0.0
 30
0.0
  0
POINT
  5
217
  8
0
 62
     1
 10
-1037.5
 20
759.0000000000001
 30
0.0
  0
LINE
  5
218
  8
0
  6
CENTER
 62
     1
 10
-752.92291557001
 20
839.0027071849177
 30
0.0
 11
-726.8813809073961
 21
839.0027071849177
 31
0.0
  0
LINE
  5
219
  8
0
  6
CENTER
 62
     1
 10
-752.9229155700101
 20
718.9972928150846
 30
0.0
 11
-726.8813809073962
 21
718.9972928150846
 31
0.0
  0
LINE
  5
21A
  8
0
  6
CENTER
 62
     1
 10
-739.9021482387031
 20
705.9765254837777
 30
0.0
 11
-739.9021482387031
 21
732.0180601463916
 31
0.0
  0
LINE
  5
21B
  8
0
  6
CENTER
 62
     1
 10
-752.92291557001
 20
678.9972928150823
 30
0.0
 11
-726.8813809073961
 21
678.9972928150823
 31
0.0
  0
LINE
  5
21C
  8
0
  6
CENTER
 62
     1
 10
-739.9021482387031
 20
785.9819398536085
 30
0.0
 11
-739.9021482387031
 21
812.0234745162224
 31
0.0
  0
LINE
  5
21D
  8
0
  6
CENTER
 62
     1
 10
-739.902148238703
 20
665.9765254837754
 30
0.0
 11
-739.902148238703
 21
692.0180601463893
 31
0.0
  0
LINE
  5
21E
  8
0
  6
CENTER
 62
     1
 10
-739.902148238703
 20
825.9819398536107
 30
0.0
 11
-739.902148238703
 21
852.0234745162246
 31
0.0
  0
LINE
  5
21F
  8
0
  6
CENTER
 62
     1
 10
-752.9229155700101
 20
799.0027071849155
 30
0.0
 11
-726.8813809073962
 21
799.0027071849155
 31
0.0
  0
CIRCLE
  5
220
  8
0
  6
CENTER
 62
     1
 10
-1037.5
 20
759.0000000000001
 30
0.0
 40
40.0
  0
LINE
  5
221
  8
0
  6
CONTINUOUS
 62
     9
 10
-1138.66414977386
 20
638.2486240672457
 30
0.0
 11
-1054.335850226194
 21
638.2486240672457
 31
0.0
  0
LINE
  5
222
  8
0
  6
CONTINUOUS
 62
     9
 10
-1138.664149773806
 20
879.7513759327543
 30
0.0
 11
-1054.335850226194
 21
879.7513759327543
 31
0.0
  0
LINE
  5
223
  8
0
  6
CONTINUOUS
 62
     9
 10
-1158.251375932754
 20
742.1641497738873
 30
0.0
 11
-1158.251375932754
 21
657.8358502261938
 31
0.0
  0
LINE
  5
224
  8
0
  6
CONTINUOUS
 62
     9
 10
-1158.251375932754
 20
775.8358502261126
 30
0.0
 11
-1158.251375932754
 21
860.1641497738061
 31
0.0
  0
LINE
  5
225
  8
0
  6
CONTINUOUS
 62
     9
 10
-936.3358502261533
 20
879.7513759327543
 30
0.0
 11
-1020.664149773806
 21
879.7513759327543
 31
0.0
  0
LINE
  5
226
  8
0
  6
CONTINUOUS
 62
     9
 10
-916.7486240672457
 20
742.1641497738061
 30
0.0
 11
-916.7486240672457
 21
657.8358502261905
 31
0.0
  0
LINE
  5
227
  8
0
  6
CONTINUOUS
 62
     9
 10
-936.3358502261938
 20
638.2486240672457
 30
0.0
 11
-1020.664149773806
 21
638.2486240672457
 31
0.0
  0
LINE
  5
228
  8
0
  6
CONTINUOUS
 62
     9
 10
-916.7486240672457
 20
775.8358502261822
 30
0.0
 11
-916.7486240672457
 21
860.1641497738062
 31
0.0
  0
ENDSEC
  0
EOF
