  0
SECTION
  2
HEADER
  9
$ACADVER
  1
AC1014
  9
$ACADMAINTVER
 70
     9
  9
$DWGCODEPAGE
  3
ANSI_932
  9
$INSBASE
 10
0.0
 20
0.0
 30
0.0
  9
$EXTMIN
 10
-350.2491994714447
 20
35.85569275978497
 30
0.0
  9
$EXTMAX
 10
-60.0
 20
325.9166666666667
 30
0.0
  9
$LIMMIN
 10
0.0
 20
0.0
  9
$LIMMAX
 10
12.0
 20
9.0
  9
$ORTHOMODE
 70
     0
  9
$REGENMODE
 70
     1
  9
$FILLMODE
 70
     1
  9
$QTEXTMODE
 70
     0
  9
$MIRRTEXT
 70
     1
  9
$DRAGMODE
 70
     2
  9
$LTSCALE
 40
1.0
  9
$OSMODE
 70
    37
  9
$ATTMODE
 70
     1
  9
$TEXTSIZE
 40
0.2
  9
$TRACEWID
 40
0.05
  9
$TEXTSTYLE
  7
STANDARD
  9
$CLAYER
  8
0
  9
$CELTYPE
  6
BYLAYER
  9
$CECOLOR
 62
   256
  9
$CELTSCALE
 40
1.0
  9
$DELOBJ
 70
     1
  9
$DISPSILH
 70
     0
  9
$DIMSCALE
 40
1.0
  9
$DIMASZ
 40
3.0
  9
$DIMEXO
 40
0.0625
  9
$DIMDLI
 40
0.38
  9
$DIMRND
 40
0.0
  9
$DIMDLE
 40
0.0
  9
$DIMEXE
 40
1.5
  9
$DIMTP
 40
0.0
  9
$DIMTM
 40
0.0
  9
$DIMTXT
 40
3.0
  9
$DIMCEN
 40
0.09
  9
$DIMTSZ
 40
0.0
  9
$DIMTOL
 70
     0
  9
$DIMLIM
 70
     0
  9
$DIMTIH
 70
     1
  9
$DIMTOH
 70
     1
  9
$DIMSE1
 70
     0
  9
$DIMSE2
 70
     0
  9
$DIMTAD
 70
     1
  9
$DIMZIN
 70
     0
  9
$DIMBLK
  1

  9
$DIMASO
 70
     1
  9
$DIMSHO
 70
     1
  9
$DIMPOST
  1

  9
$DIMAPOST
  1

  9
$DIMALT
 70
     0
  9
$DIMALTD
 70
     2
  9
$DIMALTF
 40
25.4
  9
$DIMLFAC
 40
1.0
  9
$DIMTOFL
 70
     0
  9
$DIMTVP
 40
0.0
  9
$DIMTIX
 70
     0
  9
$DIMSOXD
 70
     0
  9
$DIMSAH
 70
     0
  9
$DIMBLK1
  1

  9
$DIMBLK2
  1

  9
$DIMSTYLE
  2
STANDARD
  9
$DIMCLRD
 70
     0
  9
$DIMCLRE
 70
     0
  9
$DIMCLRT
 70
     0
  9
$DIMTFAC
 40
1.0
  9
$DIMGAP
 40
1.5
  9
$DIMJUST
 70
     0
  9
$DIMSD1
 70
     0
  9
$DIMSD2
 70
     0
  9
$DIMTOLJ
 70
     1
  9
$DIMTZIN
 70
     0
  9
$DIMALTZ
 70
     0
  9
$DIMALTTZ
 70
     0
  9
$DIMFIT
 70
     3
  9
$DIMUPT
 70
     0
  9
$DIMUNIT
 70
     2
  9
$DIMDEC
 70
     2
  9
$DIMTDEC
 70
     4
  9
$DIMALTU
 70
     2
  9
$DIMALTTD
 70
     2
  9
$DIMTXSTY
  7
ＭＳ_ゴシック
  9
$DIMAUNIT
 70
     0
  9
$LUNITS
 70
     2
  9
$LUPREC
 70
     4
  9
$SKETCHINC
 40
0.1
  9
$FILLETRAD
 40
0.5
  9
$AUNITS
 70
     0
  9
$AUPREC
 70
     0
  9
$MENU
  1
.
  9
$ELEVATION
 40
0.0
  9
$PELEVATION
 40
0.0
  9
$THICKNESS
 40
0.0
  9
$LIMCHECK
 70
     0
  9
$CHAMFERA
 40
0.0
  9
$CHAMFERB
 40
0.0
  9
$CHAMFERC
 40
0.0
  9
$CHAMFERD
 40
0.0
  9
$SKPOLY
 70
     0
  9
$TDCREATE
 40
2460017.489399387
  9
$TDUPDATE
 40
2460017.489399606
  9
$TDINDWG
 40
0.0000000116
  9
$TDUSRTIMER
 40
0.0000000116
  9
$USRTIMER
 70
     1
  9
$ANGBASE
 50
0.0
  9
$ANGDIR
 70
     0
  9
$PDMODE
 70
     0
  9
$PDSIZE
 40
0.0
  9
$PLINEWID
 40
0.0
  9
$COORDS
 70
     1
  9
$SPLFRAME
 70
     0
  9
$SPLINETYPE
 70
     6
  9
$SPLINESEGS
 70
     8
  9
$ATTDIA
 70
     0
  9
$ATTREQ
 70
     1
  9
$HANDLING
 70
     1
  9
$HANDSEED
  5
1BB
  9
$SURFTAB1
 70
     6
  9
$SURFTAB2
 70
     6
  9
$SURFTYPE
 70
     6
  9
$SURFU
 70
     6
  9
$SURFV
 70
     6
  9
$UCSNAME
  2

  9
$UCSORG
 10
0.0
 20
0.0
 30
0.0
  9
$UCSXDIR
 10
1.0
 20
0.0
 30
0.0
  9
$UCSYDIR
 10
0.0
 20
1.0
 30
0.0
  9
$PUCSNAME
  2

  9
$PUCSORG
 10
0.0
 20
0.0
 30
0.0
  9
$PUCSXDIR
 10
1.0
 20
0.0
 30
0.0
  9
$PUCSYDIR
 10
0.0
 20
1.0
 30
0.0
  9
$USERI1
 70
     0
  9
$USERI2
 70
     0
  9
$USERI3
 70
     0
  9
$USERI4
 70
     0
  9
$USERI5
 70
     0
  9
$USERR1
 40
0.0
  9
$USERR2
 40
0.0
  9
$USERR3
 40
0.0
  9
$USERR4
 40
0.0
  9
$USERR5
 40
0.0
  9
$WORLDVIEW
 70
     1
  9
$SHADEDGE
 70
     3
  9
$SHADEDIF
 70
    70
  9
$TILEMODE
 70
     1
  9
$MAXACTVP
 70
    64
  9
$PINSBASE
 10
0.0
 20
0.0
 30
0.0
  9
$PLIMCHECK
 70
     0
  9
$PEXTMIN
 10
1.000000000000000E+20
 20
1.000000000000000E+20
 30
1.000000000000000E+20
  9
$PEXTMAX
 10
-1.000000000000000E+20
 20
-1.000000000000000E+20
 30
-1.000000000000000E+20
  9
$PLIMMIN
 10
0.0
 20
0.0
  9
$PLIMMAX
 10
12.0
 20
9.0
  9
$UNITMODE
 70
     0
  9
$VISRETAIN
 70
     1
  9
$PLINEGEN
 70
     0
  9
$PSLTSCALE
 70
     1
  9
$TREEDEPTH
 70
  3020
  9
$PICKSTYLE
 70
     1
  9
$CMLSTYLE
  2
STANDARD
  9
$CMLJUST
 70
     0
  9
$CMLSCALE
 40
1.0
  9
$PROXYGRAPHICS
 70
     1
  9
$MEASUREMENT
 70
     1
  0
ENDSEC
  0
SECTION
  2
CLASSES
  0
CLASS
  1
ACDBDICTIONARYWDFLT
  2
AcDbDictionaryWithDefault
  3
ObjectDBX Classes
 90
        0
280
     0
281
     0
  0
CLASS
  1
VISUALSTYLE
  2
AcDbVisualStyle
  3
ObjectDBX Classes
 90
     4095
280
     0
281
     0
  0
CLASS
  1
MATERIAL
  2
AcDbMaterial
  3
ObjectDBX Classes
 90
     1153
280
     0
281
     0
  0
CLASS
  1
SCALE
  2
AcDbScale
  3
ObjectDBX Classes
 90
     1153
280
     0
281
     0
  0
CLASS
  1
TABLESTYLE
  2
AcDbTableStyle
  3
ObjectDBX Classes
 90
     4095
280
     0
281
     0
  0
CLASS
  1
MLEADERSTYLE
  2
AcDbMLeaderStyle
  3
ACDB_MLEADERSTYLE_CLASS
 90
     4095
280
     0
281
     0
  0
CLASS
  1
SUN
  2
AcDbSun
  3
SCENEOE
 90
     1153
280
     0
281
     0
  0
CLASS
  1
DICTIONARYVAR
  2
AcDbDictionaryVar
  3
ObjectDBX Classes
 90
        0
280
     0
281
     0
  0
CLASS
  1
XRECORD
  2
AcDbXrecord
  3
ObjectDBX Classes
 90
        0
280
     0
281
     0
  0
CLASS
  1
LWPOLYLINE
  2
AcDbPolyline
  3
ObjectDBX Classes
 90
        0
280
     0
281
     1
  0
CLASS
  1
HATCH
  2
AcDbHatch
  3
ObjectDBX Classes
 90
        0
280
     0
281
     1
  0
CLASS
  1
ACDBPLACEHOLDER
  2
AcDbPlaceHolder
  3
ObjectDBX Classes
 90
        0
280
     0
281
     0
  0
CLASS
  1
LAYOUT
  2
AcDbLayout
  3
ObjectDBX Classes
 90
        0
280
     0
281
     0
  0
ENDSEC
  0
SECTION
  2
TABLES
  0
TABLE
  2
VPORT
  5
8
102
{ACAD_XDICTIONARY
360
1B0
102
}
330
0
100
AcDbSymbolTable
 70
     1
  0
VPORT
  5
29
330
8
100
AcDbSymbolTableRecord
100
AcDbViewportTableRecord
  2
*ACTIVE
 70
     0
 10
0.0
 20
0.0
 11
1.0
 21
1.0
 12
-205.1245997357224
 22
180.8861797132258
 13
0.0
 23
0.0
 14
0.5
 24
0.5
 15
0.5
 25
0.5
 16
0.0
 26
0.0
 36
1.0
 17
0.0
 27
0.0
 37
0.0
 40
290.0609739068817
 41
1.6
 42
50.0
 43
0.0
 44
0.0
 50
0.0
 51
0.0
 71
     0
 72
   100
 73
     1
 74
     3
 75
     0
 76
     0
 77
     0
 78
     0
  0
ENDTAB
  0
TABLE
  2
LTYPE
  5
5
330
0
100
AcDbSymbolTable
 70
     2
  0
LTYPE
  5
14
330
5
100
AcDbSymbolTableRecord
100
AcDbLinetypeTableRecord
  2
BYBLOCK
 70
     0
  3

 72
    65
 73
     0
 40
0.0
  0
LTYPE
  5
15
330
5
100
AcDbSymbolTableRecord
100
AcDbLinetypeTableRecord
  2
BYLAYER
 70
     0
  3

 72
    65
 73
     0
 40
0.0
  0
LTYPE
  5
16
330
5
100
AcDbSymbolTableRecord
100
AcDbLinetypeTableRecord
  2
CONTINUOUS
 70
     0
  3
Solid line
 72
    65
 73
     0
 40
0.0
  0
LTYPE
  5
182
330
5
100
AcDbSymbolTableRecord
100
AcDbLinetypeTableRecord
  2
CENTER
 70
     0
  3

 72
    65
 73
     0
 40
0.0
  0
ENDTAB
  0
TABLE
  2
LAYER
  5
2
330
0
100
AcDbSymbolTable
 70
     2
  0
LAYER
  5
10
330
2
100
AcDbSymbolTableRecord
100
AcDbLayerTableRecord
  2
0
 70
     0
 62
     7
  6
CONTINUOUS
  0
LAYER
  5
6E
330
2
100
AcDbSymbolTableRecord
100
AcDbLayerTableRecord
  2
1
 70
     0
 62
     7
  6
CONTINUOUS
  0
ENDTAB
  0
TABLE
  2
STYLE
  5
3
330
0
100
AcDbSymbolTable
 70
     2
  0
STYLE
  5
11
330
3
100
AcDbSymbolTableRecord
100
AcDbTextStyleTableRecord
  2
STANDARD
 70
     0
 40
0.0
 41
1.0
 50
0.0
 71
     0
 42
0.2
  3
txt
  4

  0
STYLE
  5
6F
330
3
100
AcDbSymbolTableRecord
100
AcDbTextStyleTableRecord
  2
ＭＳ_ゴシック
 70
     0
 40
0.0
 41
1.0
 50
0.0
 71
     0
 42
0.2
  3
ＭＳ ゴシック.shx
  4

  0
ENDTAB
  0
TABLE
  2
VIEW
  5
6
330
0
100
AcDbSymbolTable
 70
     0
  0
ENDTAB
  0
TABLE
  2
UCS
  5
7
330
0
100
AcDbSymbolTable
 70
     0
  0
ENDTAB
  0
TABLE
  2
APPID
  5
9
330
0
100
AcDbSymbolTable
 70
     2
  0
APPID
  5
12
330
9
100
AcDbSymbolTableRecord
100
AcDbRegAppTableRecord
  2
ACAD
 70
     0
  0
APPID
  5
1BA
330
9
100
AcDbSymbolTableRecord
100
AcDbRegAppTableRecord
  2
ACAD_MLEADERVER
 70
     0
  0
ENDTAB
  0
TABLE
  2
DIMSTYLE
  5
A
330
0
100
AcDbSymbolTable
 70
     1
  0
DIMSTYLE
105
27
330
A
100
AcDbSymbolTableRecord
100
AcDbDimStyleTableRecord
  2
STANDARD
 70
     0
  3

  4

  5

  6

  7

 40
1.0
 41
0.18
 42
0.0625
 43
0.38
 44
0.18
 45
0.0
 46
0.0
 47
0.0
 48
0.0
140
0.18
141
0.09
142
0.0
143
25.4
144
1.0
145
0.0
146
1.0
147
0.09
 71
     0
 72
     0
 73
     1
 74
     1
 75
     0
 76
     0
 77
     0
 78
     0
170
     0
171
     2
172
     0
173
     0
174
     0
175
     0
176
     0
177
     0
178
     0
270
     2
271
     4
272
     4
273
     2
274
     2
340
11
275
     0
280
     0
281
     0
282
     0
283
     1
284
     0
285
     0
286
     0
287
     3
288
     0
  0
ENDTAB
  0
TABLE
  2
BLOCK_RECORD
  5
1
330
0
100
AcDbSymbolTable
 70
     0
  0
BLOCK_RECORD
  5
1F
330
1
100
AcDbSymbolTableRecord
100
AcDbBlockTableRecord
  2
*MODEL_SPACE
  0
BLOCK_RECORD
  5
1B
330
1
100
AcDbSymbolTableRecord
100
AcDbBlockTableRecord
  2
*PAPER_SPACE
  0
ENDTAB
  0
ENDSEC
  0
SECTION
  2
BLOCKS
  0
BLOCK
  5
20
330
1F
100
AcDbEntity
  8
0
100
AcDbBlockBegin
  2
*MODEL_SPACE
 70
     0
 10
0.0
 20
0.0
 30
0.0
  3
*MODEL_SPACE
  1

  0
ENDBLK
  5
21
330
1F
100
AcDbEntity
  8
0
100
AcDbBlockEnd
  0
BLOCK
  5
1C
330
1B
100
AcDbEntity
 67
     1
  8
0
100
AcDbBlockBegin
  2
*PAPER_SPACE
 70
     0
 10
0.0
 20
0.0
 30
0.0
  3
*PAPER_SPACE
  1

  0
ENDBLK
  5
1D
330
1B
100
AcDbEntity
 67
     1
  8
0
100
AcDbBlockEnd
  0
ENDSEC
  0
SECTION
  2
ENTITIES
  0
MTEXT
  5
70
330
1F
100
AcDbEntity
  8
1
 62
     7
100
AcDbMText
 10
-124.3100131299237
 20
38.51478366887588
 30
0.0
 40
3.0
 41
0.0
 71
     1
 72
     1
  1
{\fＭＳ ゴシック;DLR-125}
  0
ARC
  5
71
330
1F
100
AcDbEntity
  8
1
  6
CONTINUOUS
 62
     7
100
AcDbCircle
 10
-327.4805532938252
 20
136.6443873350782
 30
0.0
 40
21.04632001645801
100
AcDbArc
 50
179.4724575445319
 51
191.3266317719755
  0
ARC
  5
72
330
1F
100
AcDbEntity
  8
1
  6
CONTINUOUS
 62
     7
100
AcDbCircle
 10
-346.5248852968523
 20
136.8194006943231
 30
0.0
 40
2.00118389445811
100
AcDbArc
 50
147.6533810441024
 51
179.4627383409277
  0
ARC
  5
73
330
1F
100
AcDbEntity
  8
1
  6
CONTINUOUS
 62
     7
100
AcDbCircle
 10
-214.0540452583025
 20
136.6675536538596
 30
0.0
 40
21.08347694982481
100
AcDbArc
 50
353.9807025483059
 51
11.27740312501578
  0
LINE
  5
74
330
1F
100
AcDbEntity
  8
1
  6
CONTINUOUS
 62
     7
100
AcDbLine
 10
-193.0868092471721
 20
134.4566682322802
 30
0.0
 11
-193.3107855709852
 21
133.7259937394551
 31
0.0
  0
CIRCLE
  5
75
330
1F
100
AcDbEntity
  8
1
  6
CONTINUOUS
 62
     7
100
AcDbCircle
 10
-270.7491994714447
 20
136.6666666666667
 30
0.0
 40
40.0
  0
CIRCLE
  5
76
330
1F
100
AcDbEntity
  8
1
  6
CONTINUOUS
 62
     7
100
AcDbCircle
 10
-270.7491994714447
 20
136.6666666666667
 30
0.0
 40
53.05
  0
ARC
  5
77
330
1F
100
AcDbEntity
  8
1
  6
CONTINUOUS
 62
     7
100
AcDbCircle
 10
-270.7491994714447
 20
136.6666666666667
 30
0.0
 40
38.65000000000001
100
AcDbArc
 50
84.80439006090943
 51
95.19560993909046
  0
LINE
  5
78
330
1F
100
AcDbEntity
  8
1
  6
CONTINUOUS
 62
     7
100
AcDbLine
 10
-267.2491994714447
 20
176.2622787973056
 30
0.0
 11
-267.2491994714447
 21
175.1578669597207
 31
0.0
  0
ARC
  5
79
330
1F
100
AcDbEntity
  8
1
  6
CONTINUOUS
 62
     7
100
AcDbCircle
 10
-270.7491994714447
 20
136.6666666666667
 30
0.0
 40
39.75
100
AcDbArc
 50
95.05145299854249
 51
84.94854700145748
  0
LINE
  5
7A
330
1F
100
AcDbEntity
  8
1
  6
CONTINUOUS
 62
     7
100
AcDbLine
 10
-274.2491994714447
 20
175.1578669597207
 30
0.0
 11
-274.2491994714447
 21
176.2622787973056
 31
0.0
  0
ARC
  5
7B
330
1F
100
AcDbEntity
  8
1
  6
CONTINUOUS
 62
     7
100
AcDbCircle
 10
-270.7491994714447
 20
136.6666666666667
 30
0.0
 40
77.5
100
AcDbArc
 50
277.0
 51
270.0
  0
ARC
  5
7C
330
1F
100
AcDbEntity
  8
1
  6
CONTINUOUS
 62
     7
100
AcDbCircle
 10
-270.7491994714447
 20
136.6666666666667
 30
0.0
 40
77.50000000000001
100
AcDbArc
 50
270.0
 51
277.0
  0
CIRCLE
  5
7D
330
1F
100
AcDbEntity
  8
1
  6
CONTINUOUS
 62
     7
100
AcDbCircle
 10
-263.8879554377349
 20
80.78631832926025
 30
0.0
 40
0.5000000000000004
  0
CIRCLE
  5
7E
330
1F
100
AcDbEntity
  8
1
  6
CONTINUOUS
 62
     7
100
AcDbCircle
 10
-270.7491994714447
 20
136.6666666666667
 30
0.0
 40
53.29999999999998
  0
LINE
  5
7F
330
1F
100
AcDbEntity
  8
1
  6
CONTINUOUS
 62
     7
100
AcDbLine
 10
-79.21830316105799
 20
124.9948039396943
 30
0.0
 11
-76.58333333333333
 21
124.9948039396943
 31
0.0
  0
LINE
  5
80
330
1F
100
AcDbEntity
  8
1
  6
CONTINUOUS
 62
     7
100
AcDbLine
 10
-79.26725192941845
 20
123.9986754611208
 30
0.0
 11
-79.21830316105799
 21
124.9948039396943
 31
0.0
  0
LINE
  5
81
330
1F
100
AcDbEntity
  8
1
  6
CONTINUOUS
 62
     7
100
AcDbLine
 10
-81.09028342406695
 20
127.6994479728642
 30
0.0
 11
-81.2721357255808
 21
123.9986754611208
 31
0.0
  0
LINE
  5
82
330
1F
100
AcDbEntity
  8
1
  6
CONTINUOUS
 62
     7
100
AcDbLine
 10
-76.58333333333333
 20
124.9948039396943
 30
0.0
 11
-76.58333333333333
 21
127.9356472184591
 31
0.0
  0
LINE
  5
83
330
1F
100
AcDbEntity
  8
1
  6
CONTINUOUS
 62
     7
100
AcDbLine
 10
-81.72562964103768
 20
124.4718776412651
 30
0.0
 11
-81.58863147192142
 21
123.2355452041512
 31
0.0
  0
LINE
  5
84
330
1F
100
AcDbEntity
  8
1
  6
CONTINUOUS
 62
     7
100
AcDbLine
 10
-81.72562964103768
 20
124.4718776412651
 30
0.0
 11
-81.83475505298306
 21
127.6590756611363
 31
0.0
  0
LINE
  5
85
330
1F
100
AcDbEntity
  8
1
  6
CONTINUOUS
 62
     7
100
AcDbLine
 10
-81.3280771751356
 20
123.5238403797577
 30
0.0
 11
-81.2721357255808
 21
123.9986754611208
 31
0.0
  0
LINE
  5
86
330
1F
100
AcDbEntity
  8
1
  6
CONTINUOUS
 62
     7
100
AcDbLine
 10
-81.3280771751356
 20
123.5238403797577
 30
0.0
 11
-81.54381210352557
 21
123.2281415486265
 31
0.0
  0
LINE
  5
87
330
1F
100
AcDbEntity
  8
1
  6
CONTINUOUS
 62
     7
100
AcDbLine
 10
-79.26725192941845
 20
123.9986754611208
 30
0.0
 11
-79.32319337897326
 21
123.5238403797577
 31
0.0
  0
LINE
  5
88
330
1F
100
AcDbEntity
  8
1
  6
CONTINUOUS
 62
     7
100
AcDbLine
 10
-81.54381210352557
 20
123.2281415486265
 30
0.0
 11
-79.55994647072356
 21
123.199332832372
 31
0.0
  0
LINE
  5
89
330
1F
100
AcDbEntity
  8
1
  6
CONTINUOUS
 62
     7
100
AcDbLine
 10
-79.55994647072356
 20
123.199332832372
 30
0.0
 11
-79.32319337897326
 21
123.5238403797577
 31
0.0
  0
LINE
  5
8A
330
1F
100
AcDbEntity
  8
1
  6
CONTINUOUS
 62
     7
100
AcDbLine
 10
-81.58863147192142
 20
123.2355452041512
 30
0.0
 11
-81.54381210352558
 21
123.2281415486265
 31
0.0
  0
LINE
  5
8B
330
1F
100
AcDbEntity
  8
1
  6
CONTINUOUS
 62
     7
100
AcDbLine
 10
-79.55994647072356
 20
123.199332832372
 30
0.0
 11
-79.59997275086216
 21
123.1992418591476
 31
0.0
  0
ARC
  5
8C
330
1F
100
AcDbEntity
  8
1
  6
CONTINUOUS
 62
     7
100
AcDbCircle
 10
190.920864908795
 20
136.7643116181327
 30
0.0
 40
272.8448699996331
100
AcDbArc
 50
177.8150071861632
 51
180.4849200928265
  0
ARC
  5
8D
330
1F
100
AcDbEntity
  8
1
  6
CONTINUOUS
 62
     7
100
AcDbCircle
 10
197.9707444837048
 20
136.7215120920002
 30
0.0
 40
277.9089001236321
100
AcDbArc
 50
177.8483845488938
 51
180.4669423355017
  0
LINE
  5
8E
330
1F
100
AcDbEntity
  8
1
  6
CONTINUOUS
 62
     7
100
AcDbLine
 10
-79.21830316105799
 20
147.3333333333334
 30
0.0
 11
-79.21830316105799
 21
132.6666666666667
 31
0.0
  0
LINE
  5
8F
330
1F
100
AcDbEntity
  8
1
  6
CONTINUOUS
 62
     7
100
AcDbLine
 10
-79.78984238981566
 20
132.6666666666667
 30
0.0
 11
-79.21830316105799
 21
132.6666666666667
 31
0.0
  0
ARC
  5
90
330
1F
100
AcDbEntity
  8
1
  6
CONTINUOUS
 62
     7
100
AcDbCircle
 10
-66.665468541382
 20
134.3356511436896
 30
0.0
 40
13.26401024416728
100
AcDbArc
 50
179.4772422142159
 51
186.6325578114516
  0
LWPOLYLINE
  5
91
330
1F
100
AcDbEntity
  8
1
  6
CONTINUOUS
 62
     7
100
AcDbPolyline
 90
        3
 70
     0
 43
0.0
 10
-79.8407066542954
 20
132.803636644604
 10
-79.81222671822002
 20
132.6924567431189
 10
-79.78984238981566
 20
132.6666666666667
  0
LINE
  5
92
330
1F
100
AcDbEntity
  8
1
  6
CONTINUOUS
 62
     7
100
AcDbLine
 10
-79.55994647072355
 20
148.6666666666667
 30
0.0
 11
-79.61238544237126
 21
148.5715609745269
 31
0.0
  0
ARC
  5
93
330
1F
100
AcDbEntity
  8
1
  6
CONTINUOUS
 62
     7
100
AcDbCircle
 10
-70.1593356298554
 20
146.9908532586972
 30
0.0
 40
9.584299016662072
100
AcDbArc
 50
170.5070181510188
 51
179.0168181704508
  0
LINE
  5
94
330
1F
100
AcDbEntity
  8
1
  6
CONTINUOUS
 62
     7
100
AcDbLine
 10
-79.55994647072355
 20
148.6666666666667
 30
0.0
 11
-79.32319337897326
 21
148.6666666666667
 31
0.0
  0
LINE
  5
95
330
1F
100
AcDbEntity
  8
1
  6
CONTINUOUS
 62
     7
100
AcDbLine
 10
-79.26725192941844
 20
148.2666666666667
 30
0.0
 11
-79.32319337897326
 21
148.6666666666667
 31
0.0
  0
LINE
  5
96
330
1F
100
AcDbEntity
  8
1
  6
CONTINUOUS
 62
     7
100
AcDbLine
 10
-79.26725192941844
 20
148.2666666666667
 30
0.0
 11
-79.21830316105799
 21
147.3333333333334
 31
0.0
  0
LINE
  5
97
330
1F
100
AcDbEntity
  8
1
  6
CONTINUOUS
 62
     7
100
AcDbLine
 10
-79.78984238981566
 20
132.6666666666667
 30
0.0
 11
-81.77516023116623
 21
132.6666666666667
 31
0.0
  0
LINE
  5
98
330
1F
100
AcDbEntity
  8
1
  6
CONTINUOUS
 62
     7
100
AcDbLine
 10
-81.77516023116623
 20
132.6666666666667
 30
0.0
 11
-81.82153974159979
 21
132.7798404577072
 31
0.0
  0
ARC
  5
99
330
1F
100
AcDbEntity
  8
1
  6
CONTINUOUS
 62
     7
100
AcDbCircle
 10
-69.01989474074196
 20
134.3283622465114
 30
0.0
 40
12.89496159197032
100
AcDbArc
 50
179.4367292302363
 51
186.8971439232348
  0
LINE
  5
9A
330
1F
100
AcDbEntity
  8
1
  6
CONTINUOUS
 62
     7
100
AcDbLine
 10
-81.54381210352557
 20
148.6666666666667
 30
0.0
 11
-79.55994647072355
 21
148.6666666666667
 31
0.0
  0
ARC
  5
9B
330
1F
100
AcDbEntity
  8
1
  6
CONTINUOUS
 62
     7
100
AcDbCircle
 10
-71.37108885470207
 20
146.9375340163489
 30
0.0
 40
10.35707898330353
100
AcDbArc
 50
171.0493271551022
 51
178.7314998691271
  0
LWPOLYLINE
  5
9C
330
1F
100
AcDbEntity
  8
1
  6
CONTINUOUS
 62
     7
100
AcDbPolyline
 90
        3
 70
     0
 43
0.0
 10
81.60204608613473
 20
148.5489306760772
 10
81.56367694198688
 20
148.6531782172706
 10
81.54381210352557
 20
148.6666666666667
210
0.0
220
0.0
230
-1.0
  0
LINE
  5
9D
330
1F
100
AcDbEntity
  8
1
  6
CONTINUOUS
 62
     7
100
AcDbLine
 10
-76.58333333333333
 20
147.3333333333334
 30
0.0
 11
-76.58333333333333
 21
132.6666666666667
 31
0.0
  0
LINE
  5
9E
330
1F
100
AcDbEntity
  8
1
  6
CONTINUOUS
 62
     7
100
AcDbLine
 10
-79.21830316105799
 20
147.3333333333334
 30
0.0
 11
-76.58333333333333
 21
147.3333333333334
 31
0.0
  0
LINE
  5
9F
330
1F
100
AcDbEntity
  8
1
  6
CONTINUOUS
 62
     7
100
AcDbLine
 10
-79.21830316105799
 20
132.6666666666667
 30
0.0
 11
-76.58333333333333
 21
132.6666666666667
 31
0.0
  0
LINE
  5
A0
330
1F
100
AcDbEntity
  8
1
  6
CONTINUOUS
 62
     7
100
AcDbLine
 10
-108.5833333333333
 20
59.16666666666669
 30
0.0
 11
-108.5833333333333
 21
146.1115407805656
 31
0.0
  0
LINE
  5
A1
330
1F
100
AcDbEntity
  8
1
  6
CONTINUOUS
 62
     7
100
AcDbLine
 10
-108.5833333333333
 20
146.1115407805656
 30
0.0
 11
-108.5833333333333
 21
214.1666666666667
 31
0.0
  0
LINE
  5
A2
330
1F
100
AcDbEntity
  8
1
  6
CONTINUOUS
 62
     7
100
AcDbLine
 10
-112.5833333333333
 20
61.16666666666669
 30
0.0
 11
-112.5833333333333
 21
61.72943221774688
 31
0.0
  0
LINE
  5
A3
330
1F
100
AcDbEntity
  8
1
  6
CONTINUOUS
 62
     7
100
AcDbLine
 10
-112.5833333333333
 20
61.7294322177469
 30
0.0
 11
-112.5833333333333
 21
212.1666666666667
 31
0.0
  0
LINE
  5
A4
330
1F
100
AcDbEntity
  8
1
  6
CONTINUOUS
 62
     7
100
AcDbLine
 10
-103.5833333333333
 20
171.9701229863335
 30
0.0
 11
-103.5833333333333
 21
171.0919923297386
 31
0.0
  0
LINE
  5
A5
330
1F
100
AcDbEntity
  8
1
  6
CONTINUOUS
 62
     7
100
AcDbLine
 10
-103.5833333333333
 20
171.0919923297386
 30
0.0
 11
-103.5833333333333
 21
169.9701229863335
 31
0.0
  0
LINE
  5
A6
330
1F
100
AcDbEntity
  8
1
  6
CONTINUOUS
 62
     7
100
AcDbLine
 10
-103.5833333333333
 20
81.09153602311132
 30
0.0
 11
-103.5833333333333
 21
79.09898987147
 31
0.0
  0
LINE
  5
A7
330
1F
100
AcDbEntity
  8
1
  6
CONTINUOUS
 62
     7
100
AcDbLine
 10
-103.5833333333333
 20
79.09898987147
 30
0.0
 11
-103.5833333333333
 21
79.09153602311132
 31
0.0
  0
LINE
  5
A8
330
1F
100
AcDbEntity
  8
1
  6
CONTINUOUS
 62
     7
100
AcDbLine
 10
-105.5833333333333
 20
142.8126961555164
 30
0.0
 11
-81.881564865269
 21
141.5705391050244
 31
0.0
  0
LINE
  5
A9
330
1F
100
AcDbEntity
  8
1
  6
CONTINUOUS
 62
     7
100
AcDbLine
 10
-105.5833333333333
 20
130.5206371778169
 30
0.0
 11
-105.5833333333333
 21
142.8126961555164
 31
0.0
  0
LINE
  5
AA
330
1F
100
AcDbEntity
  8
1
  6
CONTINUOUS
 62
     7
100
AcDbLine
 10
-105.5833333333333
 20
130.520637177817
 30
0.0
 11
-76.08333333333333
 21
132.0666666666667
 31
0.0
  0
LINE
  5
AB
330
1F
100
AcDbEntity
  8
1
  6
CONTINUOUS
 62
     7
100
AcDbLine
 10
-76.08333333333333
 20
141.2666666666667
 30
0.0
 11
-76.08333333333333
 21
132.0666666666667
 31
0.0
  0
LINE
  5
AC
330
1F
100
AcDbEntity
  8
1
  6
CONTINUOUS
 62
     7
100
AcDbLine
 10
-74.58333333333331
 20
141.2666666666667
 30
0.0
 11
-76.08333333333333
 21
141.2666666666667
 31
0.0
  0
LINE
  5
AD
330
1F
100
AcDbEntity
  8
1
  6
CONTINUOUS
 62
     7
100
AcDbLine
 10
-74.5571653552117
 20
141.2659814340439
 30
0.0
 11
-74.58333333333331
 21
141.2666666666667
 31
0.0
  0
LINE
  5
AE
330
1F
100
AcDbEntity
  8
1
  6
CONTINUOUS
 62
     7
100
AcDbLine
 10
-106.0571653552119
 20
144.5060440403263
 30
0.0
 11
-105.5849424014752
 21
144.9175960417705
 31
0.0
  0
LINE
  5
AF
330
1F
100
AcDbEntity
  8
1
  6
CONTINUOUS
 62
     7
100
AcDbLine
 10
-105.5849424014752
 20
144.9175960417705
 30
0.0
 11
-81.83794041223949
 21
143.6730684028847
 31
0.0
  0
LINE
  5
B0
330
1F
100
AcDbEntity
  8
1
  6
CONTINUOUS
 62
     7
100
AcDbLine
 10
-74.55716535521185
 20
130.0418341826468
 30
0.0
 11
-105.5849424014752
 21
128.4157372915629
 31
0.0
  0
LINE
  5
B1
330
1F
100
AcDbEntity
  8
1
  6
CONTINUOUS
 62
     7
100
AcDbLine
 10
-105.5849424014752
 20
128.4157372915629
 30
0.0
 11
-106.0571653552119
 21
128.8272892930071
 31
0.0
  0
LINE
  5
B2
330
1F
100
AcDbEntity
  8
1
  6
CONTINUOUS
 62
     7
100
AcDbLine
 10
-105.5833333333333
 20
198.28496104546
 30
0.0
 11
-105.5833333333333
 21
144.9175117140825
 31
0.0
  0
LINE
  5
B3
330
1F
100
AcDbEntity
  8
1
  6
CONTINUOUS
 62
     7
100
AcDbLine
 10
-105.5833333333333
 20
128.4158216192509
 30
0.0
 11
-105.5833333333333
 21
75.04837228787333
 31
0.0
  0
LINE
  5
B4
330
1F
100
AcDbEntity
  8
1
  6
CONTINUOUS
 62
     7
100
AcDbLine
 10
-74.08333333333333
 20
140.7666666666667
 30
0.0
 11
-74.08333333333333
 21
130.5411489500241
 31
0.0
  0
LWPOLYLINE
  5
B5
330
1F
100
AcDbEntity
  8
1
  6
CONTINUOUS
 62
     7
100
AcDbPolyline
 90
       38
 70
     0
 43
0.0
 10
74.5571653552117
 20
141.2659814340439
 10
74.54004461583632
 20
141.2647892288313
 10
74.52298097131329
 20
141.2630108943944
 10
74.50577165563818
 20
141.2606139934552
 10
74.48873180347995
 20
141.2576356581004
 10
74.47175294156595
 20
141.2540572839164
 10
74.45501172933588
 20
141.2499197742071
 10
74.43827833819252
 20
141.2451633211844
 10
74.42181505004694
 20
141.2398599085502
 10
74.40637610924264
 20
141.2343055667189
 10
74.39122992601574
 20
141.2282901939018
 10
74.37624851846802
 20
141.2217664130539
 10
74.36162206834071
 20
141.2148230177043
 10
74.34728075925891
 20
141.2074377003674
 10
74.33331917645836
 20
141.1996711947747
 10
74.31960229587861
 20
141.1914559554712
 10
74.30627022718555
 20
141.182882998893
 10
74.28862671802261
 20
141.1705825129665
 10
74.27172069001556
 20
141.1576878432345
 10
74.25549938878589
 20
141.1441913742057
 10
74.24003508763501
 20
141.1301860120948
 10
74.22507382743508
 20
141.1154504484478
 10
74.21089729416516
 20
141.100270318818
 10
74.1974631597008
 20
141.084635547378
 10
74.18481088576452
 20
141.0686266951219
 10
74.16966521439558
 20
141.0475201647302
 10
74.15578577106035
 20
141.0259022390606
 10
74.14311377476243
 20
141.0037462740808
 10
74.13169112301851
 20
140.9811877935096
 10
74.12133385555383
 20
140.95786416281
 10
74.11224394516277
 20
140.9342219958958
 10
74.10438705555542
 20
140.9102301125806
 10
74.09778348248486
 20
140.8860037620772
 10
74.0916189907019
 20
140.8573143652064
 10
74.08715297009302
 20
140.8283517307804
 10
74.0843946256552
 20
140.799226856784
 10
74.0833440424655
 20
140.7699391301869
 10
74.08333333333333
 20
140.7666666666667
210
0.0
220
0.0
230
-1.0
  0
ARC
  5
B6
330
1F
100
AcDbEntity
  8
1
  6
CONTINUOUS
 62
     7
100
AcDbCircle
 10
-74.58333333333333
 20
130.5411489500241
 30
0.0
 40
0.5000000000000004
100
AcDbArc
 50
273.0000000000002
 51
0.0000000000001137
  0
LINE
  5
B7
330
1F
100
AcDbEntity
  8
1
  6
CONTINUOUS
 62
     7
100
AcDbLine
 10
-105.5833333333333
 20
146.9175117140825
 30
0.0
 11
-81.78053604248547
 21
145.6700599673448
 31
0.0
  0
LINE
  5
B8
330
1F
100
AcDbEntity
  8
1
  6
CONTINUOUS
 62
     7
100
AcDbLine
 10
-74.55716535521185
 20
128.0418341826468
 30
0.0
 11
-105.5833333333333
 21
126.4158216192509
 31
0.0
  0
ARC
  5
B9
330
1F
100
AcDbEntity
  8
1
  6
CONTINUOUS
 62
     7
100
AcDbCircle
 10
-74.58333333333333
 20
128.5411489500241
 30
0.0
 40
0.5000000000000004
100
AcDbArc
 50
273.0000000000001
 51
0.0
  0
LINE
  5
BA
330
1F
100
AcDbEntity
  8
1
  6
CONTINUOUS
 62
     7
100
AcDbLine
 10
-74.08333333333333
 20
130.5411489500241
 30
0.0
 11
-74.08333333333333
 21
128.5411489500241
 31
0.0
  0
LINE
  5
BB
330
1F
100
AcDbEntity
  8
1
  6
CONTINUOUS
 62
     7
100
AcDbLine
 10
-101.5833333333333
 20
175.8978574818115
 30
0.0
 11
-101.5833333333333
 21
146.7078805969503
 31
0.0
  0
LINE
  5
BC
330
1F
100
AcDbEntity
  8
1
  6
CONTINUOUS
 62
     7
100
AcDbLine
 10
-76.58333333333333
 20
141.2666666666667
 30
0.0
 11
-76.08333333333333
 21
141.2666666666667
 31
0.0
  0
LINE
  5
BD
330
1F
100
AcDbEntity
  8
1
  6
CONTINUOUS
 62
     7
100
AcDbLine
 10
-102.0833333333333
 20
86.57596981203231
 30
0.0
 11
-105.5833333333333
 21
86.57596981203231
 31
0.0
  0
LINE
  5
BE
330
1F
100
AcDbEntity
  8
1
  6
CONTINUOUS
 62
     7
100
AcDbLine
 10
-101.5833333333333
 20
126.625452736383
 30
0.0
 11
-101.5833333333333
 21
86.93000922190203
 31
0.0
  0
LWPOLYLINE
  5
BF
330
1F
100
AcDbEntity
  8
1
  6
CONTINUOUS
 62
     7
100
AcDbPolyline
 90
       42
 70
     0
 43
0.0
 10
-102.0833333333333
 20
86.57596981203231
 10
-102.0661180503204
 20
86.57617872917814
 10
-102.0489027673074
 20
86.57680623263964
 10
-102.0314925335048
 20
86.57786903840939
 10
-102.0141882933432
 20
86.57935551609815
 10
-101.9968852486955
 20
86.58127684712977
 10
-101.9797572405829
 20
86.58361371738756
 10
-101.9625790725664
 20
86.5864015672633
 10
-101.9456110692297
 20
86.58960263378611
 10
-101.9296050598945
 20
86.59304126161996
 10
-101.9138448829755
 20
86.5968371972044
 10
-101.8981927002082
 20
86.60102414160501
 10
-101.8828590075266
 20
86.60554431180472
 10
-101.8677694829355
 20
86.61041452059749
 10
-101.8530333349909
 20
86.61559331498687
 10
-101.8385019643714
 20
86.62113021002007
 10
-101.8243366081713
 20
86.62696129608004
 10
-101.8067624257156
 20
86.63482961682146
 10
-101.7898179480095
 20
86.6431320239139
 10
-101.7733273074084
 20
86.65194831408175
 10
-101.7575388064428
 20
86.66113649277402
 10
-101.7423559355638
 20
86.67073612378267
 10
-101.7278913058098
 20
86.68065862184665
 10
-101.7139748726256
 20
86.69101094153086
 10
-101.7007744869917
 20
86.701660277155
 10
-101.6854344345817
 20
86.71521367047094
 10
-101.6711850380648
 20
86.72915277886773
 10
-101.6579761464865
 20
86.74349557614278
 10
-101.6458602045302
 20
86.75815488413743
 10
-101.6346439605238
 20
86.77336928567959
 10
-101.6245491795577
 20
86.78884651374985
 10
-101.6155431366359
 20
86.80460724297554
 10
-101.607654209864
 20
86.82057418840519
 10
-101.6020972751174
 20
86.83359561869193
 10
-101.5972636510989
 20
86.84671771793029
 10
-101.5931440939778
 20
86.85995176702
 10
-101.5897461316235
 20
86.87326146851773
 10
-101.587047474436
 20
86.8867556346638
 10
-101.5850812117784
 20
86.90030240919204
 10
-101.5838456214433
 20
86.91391366712998
 10
-101.5833452442729
 20
86.92755388867265
 10
-101.5833333333333
 20
86.93000922190203
  0
LINE
  5
C0
330
1F
100
AcDbEntity
  8
1
  6
CONTINUOUS
 62
     7
100
AcDbLine
 10
-101.5833333333333
 20
188.6666666666667
 30
0.0
 11
-101.5833333333333
 21
175.8978574818115
 31
0.0
  0
LINE
  5
C1
330
1F
100
AcDbEntity
  8
1
  6
CONTINUOUS
 62
     7
100
AcDbLine
 10
-101.5833333333333
 20
86.93000922190203
 30
0.0
 11
-101.5833333333333
 21
84.91565076364604
 31
0.0
  0
LINE
  5
C2
330
1F
100
AcDbEntity
  8
1
  6
CONTINUOUS
 62
     7
100
AcDbLine
 10
-101.5833333333333
 20
84.91565076364604
 30
0.0
 11
-101.5833333333333
 21
82.66666666666669
 31
0.0
  0
LINE
  5
C3
330
1F
100
AcDbEntity
  8
1
  6
CONTINUOUS
 62
     7
100
AcDbLine
 10
-74.55716535518222
 20
143.291499150685
 30
0.0
 11
-76.58333333333286
 21
143.3976861148743
 31
0.0
  0
ARC
  5
C4
330
1F
100
AcDbEntity
  8
1
  6
CONTINUOUS
 62
     7
100
AcDbCircle
 10
-74.58333333333333
 20
142.7921843833092
 30
0.0
 40
0.5000000000000004
100
AcDbArc
 50
0.0000000000000035
 51
86.99999999999986
  0
LINE
  5
C5
330
1F
100
AcDbEntity
  8
1
  6
CONTINUOUS
 62
     7
100
AcDbLine
 10
-74.08333333333333
 20
140.7666666666667
 30
0.0
 11
-74.08333333333333
 21
142.7921843833092
 31
0.0
  0
LINE
  5
C6
330
1F
100
AcDbEntity
  8
1
  6
CONTINUOUS
 62
     7
100
AcDbLine
 10
-76.58333333333333
 20
145.3976861148743
 30
0.0
 11
-74.55716535521185
 21
145.2914991506865
 31
0.0
  0
LINE
  5
C7
330
1F
100
AcDbEntity
  8
1
  6
CONTINUOUS
 62
     7
100
AcDbLine
 10
-74.08333333333333
 20
144.7921843833092
 30
0.0
 11
-74.08333333333333
 21
142.7921843833092
 31
0.0
  0
ARC
  5
C8
330
1F
100
AcDbEntity
  8
1
  6
CONTINUOUS
 62
     7
100
AcDbCircle
 10
-74.58333333333333
 20
144.7921843833092
 30
0.0
 40
0.5000000000000004
100
AcDbArc
 50
0.0000000000000035
 51
86.99999999999986
  0
LINE
  5
C9
330
1F
100
AcDbEntity
  8
1
  6
CONTINUOUS
 62
     7
100
AcDbLine
 10
-105.0399038941398
 20
138.6666666666667
 30
0.0
 11
-105.5833333333333
 21
138.6666666666667
 31
0.0
  0
LINE
  5
CA
330
1F
100
AcDbEntity
  8
1
  6
CONTINUOUS
 62
     7
100
AcDbLine
 10
-105.5833333333333
 20
134.6666666666667
 30
0.0
 11
-105.0399038941398
 21
134.6666666666667
 31
0.0
  0
LINE
  5
CB
330
1F
100
AcDbEntity
  8
1
  6
CONTINUOUS
 62
     7
100
AcDbLine
 10
-76.08333333333333
 20
138.6666666666667
 30
0.0
 11
-76.58333333333333
 21
138.6666666666667
 31
0.0
  0
LINE
  5
CC
330
1F
100
AcDbEntity
  8
1
  6
CONTINUOUS
 62
     7
100
AcDbLine
 10
-81.91548447496466
 20
138.6666666666667
 30
0.0
 11
-105.1267627725269
 21
138.6666666666667
 31
0.0
  0
LINE
  5
CD
330
1F
100
AcDbEntity
  8
1
  6
CONTINUOUS
 62
     7
100
AcDbLine
 10
-105.1267627725269
 20
134.6666666666667
 30
0.0
 11
-81.91550558119617
 21
134.6666666666667
 31
0.0
  0
LINE
  5
CE
330
1F
100
AcDbEntity
  8
1
  6
CONTINUOUS
 62
     7
100
AcDbLine
 10
-76.58333333333333
 20
134.6666666666667
 30
0.0
 11
-76.08333333333333
 21
134.6666666666667
 31
0.0
  0
LINE
  5
CF
330
1F
100
AcDbEntity
  8
1
  6
CONTINUOUS
 62
     7
100
AcDbLine
 10
-108.5833333333333
 20
214.1666666666667
 30
0.0
 11
-110.5833333333333
 21
214.1666666666667
 31
0.0
  0
LINE
  5
D0
330
1F
100
AcDbEntity
  8
1
  6
CONTINUOUS
 62
     7
100
AcDbLine
 10
-110.5833333333333
 20
59.16666666666669
 30
0.0
 11
-108.5833333333333
 21
59.16666666666669
 31
0.0
  0
ARC
  5
D1
330
1F
100
AcDbEntity
  8
1
  6
CONTINUOUS
 62
     7
100
AcDbCircle
 10
-110.5833333333333
 20
61.16666666666669
 30
0.0
 40
2.000000000000002
100
AcDbArc
 50
180.0
 51
270.0
  0
ARC
  5
D2
330
1F
100
AcDbEntity
  8
1
  6
CONTINUOUS
 62
     7
100
AcDbCircle
 10
-110.5833333333333
 20
212.1666666666667
 30
0.0
 40
2.000000000000002
100
AcDbArc
 50
90.00000000000001
 51
180.0
  0
ARC
  5
D3
330
1F
100
AcDbEntity
  8
1
  6
CONTINUOUS
 62
     7
100
AcDbCircle
 10
-104.0833333333333
 20
169.9701229863335
 30
0.0
 40
0.5000000000000004
100
AcDbArc
 50
270.0000000000064
 51
0.0
  0
ARC
  5
D4
330
1F
100
AcDbEntity
  8
1
  6
CONTINUOUS
 62
     7
100
AcDbCircle
 10
-104.0833333333333
 20
171.9701229863335
 30
0.0
 40
0.5000000000000004
100
AcDbArc
 50
0.0000000000000035
 51
89.99999999999363
  0
LINE
  5
D5
330
1F
100
AcDbEntity
  8
1
  6
CONTINUOUS
 62
     7
100
AcDbLine
 10
-104.0833333333335
 20
172.4701229863335
 30
0.0
 11
-105.5833333333334
 21
172.4701229863335
 31
0.0
  0
LINE
  5
D6
330
1F
100
AcDbEntity
  8
1
  6
CONTINUOUS
 62
     7
100
AcDbLine
 10
-105.5833333333334
 20
169.4701229863335
 30
0.0
 11
-104.0833333333335
 21
169.4701229863335
 31
0.0
  0
ARC
  5
D7
330
1F
100
AcDbEntity
  8
1
  6
CONTINUOUS
 62
     7
100
AcDbCircle
 10
-104.0833333333333
 20
79.09153602311132
 30
0.0
 40
0.5000000000000004
100
AcDbArc
 50
270.0000000000064
 51
0.0
  0
ARC
  5
D8
330
1F
100
AcDbEntity
  8
1
  6
CONTINUOUS
 62
     7
100
AcDbCircle
 10
-104.0833333333333
 20
81.09153602311132
 30
0.0
 40
0.5000000000000004
100
AcDbArc
 50
0.0000000000000035
 51
89.99999999999363
  0
LINE
  5
D9
330
1F
100
AcDbEntity
  8
1
  6
CONTINUOUS
 62
     7
100
AcDbLine
 10
-104.0833333333335
 20
81.59153602311132
 30
0.0
 11
-105.5833333333334
 21
81.59153602311132
 31
0.0
  0
LINE
  5
DA
330
1F
100
AcDbEntity
  8
1
  6
CONTINUOUS
 62
     7
100
AcDbLine
 10
-105.5833333333334
 20
78.59153602311132
 30
0.0
 11
-104.0833333333335
 21
78.59153602311132
 31
0.0
  0
LINE
  5
DB
330
1F
100
AcDbEntity
  8
1
  6
CONTINUOUS
 62
     7
100
AcDbLine
 10
-108.5833333333333
 20
74.41666666666669
 30
0.0
 11
-106.0571653552119
 21
74.54905752049595
 31
0.0
  0
LINE
  5
DC
330
1F
100
AcDbEntity
  8
1
  6
CONTINUOUS
 62
     7
100
AcDbLine
 10
-106.0571653552119
 20
198.7842758128374
 30
0.0
 11
-108.5833333333333
 21
198.9166666666667
 31
0.0
  0
ARC
  5
DD
330
1F
100
AcDbEntity
  8
1
  6
CONTINUOUS
 62
     7
100
AcDbCircle
 10
-106.0833333333333
 20
198.2849610454601
 30
0.0
 40
0.4999999999999867
100
AcDbArc
 50
0.0000000000031841
 51
87.0000000000002
  0
ARC
  5
DE
330
1F
100
AcDbEntity
  8
1
  6
CONTINUOUS
 62
     7
100
AcDbCircle
 10
-106.0833333333333
 20
75.04837228787332
 30
0.0
 40
0.5000000000000002
100
AcDbArc
 50
272.9999999999998
 51
359.9999999999968
  0
ARC
  5
DF
330
1F
100
AcDbEntity
  8
1
  6
CONTINUOUS
 62
     7
100
AcDbCircle
 10
-102.0833333333333
 20
175.8978574818115
 30
0.0
 40
0.5000000000000004
100
AcDbArc
 50
0.0000000000007986
 51
90.0
  0
LINE
  5
E0
330
1F
100
AcDbEntity
  8
1
  6
CONTINUOUS
 62
     7
100
AcDbLine
 10
-102.0833333333333
 20
176.3978574818115
 30
0.0
 11
-105.5833333333333
 21
176.3978574818115
 31
0.0
  0
ARC
  5
E1
330
1F
100
AcDbEntity
  8
1
  6
CONTINUOUS
 62
     7
100
AcDbCircle
 10
-102.0833333333333
 20
188.6666666666667
 30
0.0
 40
0.5000000000000004
100
AcDbArc
 50
0.0000000000000035
 51
90.0
  0
LINE
  5
E2
330
1F
100
AcDbEntity
  8
1
  6
CONTINUOUS
 62
     7
100
AcDbLine
 10
-102.0833333333333
 20
189.1666666666667
 30
0.0
 11
-105.5833333333333
 21
189.1666666666667
 31
0.0
  0
ARC
  5
E3
330
1F
100
AcDbEntity
  8
1
  6
CONTINUOUS
 62
     7
100
AcDbCircle
 10
-102.0833333333333
 20
82.66666666666669
 30
0.0
 40
0.5000000000000004
100
AcDbArc
 50
270.0
 51
0.0
  0
LINE
  5
E4
330
1F
100
AcDbEntity
  8
1
  6
CONTINUOUS
 62
     7
100
AcDbLine
 10
-105.5833333333333
 20
82.16666666666669
 30
0.0
 11
-102.0833333333333
 21
82.16666666666669
 31
0.0
  0
LINE
  5
E5
330
1F
100
AcDbEntity
  8
1
  6
CONTINUOUS
 62
     7
100
AcDbLine
 10
-338.5819406635646
 20
320.781696838942
 30
0.0
 11
-338.5819406635646
 21
323.4166666666667
 31
0.0
  0
LINE
  5
E6
330
1F
100
AcDbEntity
  8
1
  6
CONTINUOUS
 62
     7
100
AcDbLine
 10
-336.5911482668302
 20
321.4166666666667
 30
0.0
 11
-336.5911482668302
 21
318.9166666666667
 31
0.0
  0
LINE
  5
E7
330
1F
100
AcDbEntity
  8
1
  6
CONTINUOUS
 62
     7
100
AcDbLine
 10
-336.5911482668302
 20
318.9166666666667
 30
0.0
 11
-346.4391857347381
 21
318.2248397688338
 31
0.0
  0
LINE
  5
E8
330
1F
100
AcDbEntity
  8
1
  6
CONTINUOUS
 62
     7
100
AcDbLine
 10
-346.717703752302
 20
320.2101576101844
 30
0.0
 11
-338.5819406635646
 21
320.781696838942
 31
0.0
  0
LINE
  5
E9
330
1F
100
AcDbEntity
  8
1
  6
CONTINUOUS
 62
     7
100
AcDbLine
 10
-331.2409615092301
 20
321.4166666666667
 30
0.0
 11
-336.5911482668302
 21
321.4166666666667
 31
0.0
  0
LINE
  5
EA
330
1F
100
AcDbEntity
  8
1
  6
CONTINUOUS
 62
     7
100
AcDbLine
 10
-338.5819406635646
 20
323.4166666666667
 30
0.0
 11
-331.144954497479
 21
323.4166666666667
 31
0.0
  0
LINE
  5
EB
330
1F
100
AcDbEntity
  8
1
  6
CONTINUOUS
 62
     7
100
AcDbLine
 10
-335.4409992365875
 20
318.9166666666667
 30
0.0
 11
-336.5911482668302
 21
318.9166666666667
 31
0.0
  0
LINE
  5
EC
330
1F
100
AcDbEntity
  8
1
  6
CONTINUOUS
 62
     7
100
AcDbLine
 10
-335.4409992365875
 20
321.4166666666667
 30
0.0
 11
-335.4409992365875
 21
318.9166666666667
 31
0.0
  0
LINE
  5
ED
330
1F
100
AcDbEntity
  8
1
  6
CONTINUOUS
 62
     7
100
AcDbLine
 10
-344.3443485501198
 20
318.2743703589623
 30
0.0
 11
-341.6124526982228
 21
318.4561878964744
 31
0.0
  0
LINE
  5
EE
330
1F
100
AcDbEntity
  8
1
  6
CONTINUOUS
 62
     7
100
AcDbLine
 10
-344.3443485501198
 20
318.2743703589623
 30
0.0
 11
-348.2388151574733
 21
318.0806876341081
 31
0.0
  0
LINE
  5
EF
330
1F
100
AcDbEntity
  8
1
  6
CONTINUOUS
 62
     7
100
AcDbLine
 10
-346.4391857347381
 20
318.2248397688338
 30
0.0
 11
-348.2474491572623
 21
318.0857667930744
 31
0.0
  0
LINE
  5
F0
330
1F
100
AcDbEntity
  8
1
  6
CONTINUOUS
 62
     7
100
AcDbLine
 10
-335.4409992365875
 20
318.9166666666667
 30
0.0
 11
-337.7835242631061
 21
318.7278642744192
 31
0.0
  0
LINE
  5
F1
330
1F
100
AcDbEntity
  8
1
  6
CONTINUOUS
 62
     7
100
AcDbLine
 10
-338.5415029207917
 20
318.6719228248644
 30
0.0
 11
-337.7835242631061
 21
318.7278642744192
 31
0.0
  0
LINE
  5
F2
330
1F
100
AcDbEntity
  8
1
  6
CONTINUOUS
 62
     7
100
AcDbLine
 10
-338.5415029207917
 20
318.6719228248644
 30
0.0
 11
-341.6124526982228
 21
318.4561878964744
 31
0.0
  0
LINE
  5
F3
330
1F
100
AcDbEntity
  8
1
  6
CONTINUOUS
 62
     7
100
AcDbLine
 10
-348.5259812120607
 20
320.0710732888327
 30
0.0
 11
-346.717703752302
 21
320.2101576101844
 31
0.0
  0
LINE
  5
F4
330
1F
100
AcDbEntity
  8
1
  6
CONTINUOUS
 62
     7
100
AcDbLine
 10
-348.2484873244073
 20
318.0841583604484
 30
0.0
 11
-348.2474491572623
 21
318.0857667930744
 31
0.0
  0
LINE
  5
F5
330
1F
100
AcDbEntity
  8
1
  6
CONTINUOUS
 62
     7
100
AcDbLine
 10
-196.0639343370463
 20
318.2743703589623
 30
0.0
 11
-198.6640462606242
 21
318.4561878964744
 31
0.0
  0
LINE
  5
F6
330
1F
100
AcDbEntity
  8
1
  6
CONTINUOUS
 62
     7
100
AcDbLine
 10
-198.363472521079
 20
320.4400535292764
 30
0.0
 11
-195.7567881659297
 21
320.2577764025779
 31
0.0
  0
LINE
  5
F7
330
1F
100
AcDbEntity
  8
1
  6
CONTINUOUS
 62
     7
100
AcDbLine
 10
-201.7491994714447
 20
318.6719228248644
 30
0.0
 11
-198.6640462606242
 21
318.4561878964744
 31
0.0
  0
LINE
  5
F8
330
1F
100
AcDbEntity
  8
1
  6
CONTINUOUS
 62
     7
100
AcDbLine
 10
-198.363472521079
 20
320.4400535292764
 30
0.0
 11
-201.7491994714447
 21
320.6768066210267
 31
0.0
  0
LINE
  5
F9
330
1F
100
AcDbEntity
  8
1
  6
CONTINUOUS
 62
     7
100
AcDbLine
 10
-201.7491994714447
 20
318.6719228248644
 30
0.0
 11
-202.5491994714447
 21
318.7278642744192
 31
0.0
  0
LINE
  5
FA
330
1F
100
AcDbEntity
  8
1
  6
CONTINUOUS
 62
     7
100
AcDbLine
 10
-202.5491994714447
 20
320.7327480705815
 30
0.0
 11
-201.7491994714447
 21
320.6768066210267
 31
0.0
  0
LINE
  5
FB
330
1F
100
AcDbEntity
  8
1
  6
CONTINUOUS
 62
     7
100
AcDbLine
 10
-205.2491994714447
 20
321.4166666666667
 30
0.0
 11
-205.2491994714447
 21
318.9166666666667
 31
0.0
  0
LINE
  5
FC
330
1F
100
AcDbEntity
  8
1
  6
CONTINUOUS
 62
     7
100
AcDbLine
 10
-208.2491994714447
 20
321.4166666666667
 30
0.0
 11
-205.2491994714447
 21
321.4166666666667
 31
0.0
  0
LINE
  5
FD
330
1F
100
AcDbEntity
  8
1
  6
CONTINUOUS
 62
     7
100
AcDbLine
 10
-208.2491994714447
 20
323.4166666666667
 30
0.0
 11
-208.2491994714447
 21
321.4166666666667
 31
0.0
  0
LINE
  5
FE
330
1F
100
AcDbEntity
  8
1
  6
CONTINUOUS
 62
     7
100
AcDbLine
 10
-203.2491994714447
 20
323.4166666666667
 30
0.0
 11
-208.2491994714447
 21
323.4166666666667
 31
0.0
  0
LINE
  5
FF
330
1F
100
AcDbEntity
  8
1
  6
CONTINUOUS
 62
     7
100
AcDbLine
 10
-203.2491994714448
 20
320.781696838942
 30
0.0
 11
-203.2491994714447
 21
323.4166666666667
 31
0.0
  0
LINE
  5
100
330
1F
100
AcDbEntity
  8
1
  6
CONTINUOUS
 62
     7
100
AcDbLine
 10
-205.2491994714447
 20
318.9166666666667
 30
0.0
 11
-202.5491994714447
 21
318.7278642744192
 31
0.0
  0
LINE
  5
101
330
1F
100
AcDbEntity
  8
1
  6
CONTINUOUS
 62
     7
100
AcDbLine
 10
-202.5491994714447
 20
320.7327480705815
 30
0.0
 11
-203.2491994714448
 21
320.781696838942
 31
0.0
  0
LINE
  5
102
330
1F
100
AcDbEntity
  8
1
  6
CONTINUOUS
 62
     7
100
AcDbLine
 10
-192.9745062489244
 20
320.0632202981935
 30
0.0
 11
-195.7567881659297
 21
320.2577764025779
 31
0.0
  0
LINE
  5
103
330
1F
100
AcDbEntity
  8
1
  6
CONTINUOUS
 62
     7
100
AcDbLine
 10
-196.0639343370463
 20
318.2743703589623
 30
0.0
 11
-193.253505079089
 21
318.0778460007606
 31
0.0
  0
LINE
  5
104
330
1F
100
AcDbEntity
  8
1
  6
CONTINUOUS
 62
     7
100
AcDbLine
 10
-218.2491994714447
 20
321.4166666666667
 30
0.0
 11
-214.2491994714447
 21
321.4166666666667
 31
0.0
  0
LINE
  5
105
330
1F
100
AcDbEntity
  8
1
  6
CONTINUOUS
 62
     7
100
AcDbLine
 10
-214.2491994714447
 20
323.4166666666667
 30
0.0
 11
-218.2491994714447
 21
323.4166666666667
 31
0.0
  0
LINE
  5
106
330
1F
100
AcDbEntity
  8
1
  6
CONTINUOUS
 62
     7
100
AcDbLine
 10
-214.2491994714447
 20
321.4166666666667
 30
0.0
 11
-208.2491994714447
 21
321.4166666666667
 31
0.0
  0
LINE
  5
107
330
1F
100
AcDbEntity
  8
1
  6
CONTINUOUS
 62
     7
100
AcDbLine
 10
-208.2491994714447
 20
323.4166666666667
 30
0.0
 11
-214.2491994714447
 21
323.4166666666667
 31
0.0
  0
LINE
  5
108
330
1F
100
AcDbEntity
  8
1
  6
CONTINUOUS
 62
     7
100
AcDbLine
 10
-305.0836347793699
 20
300.7166666666741
 30
0.0
 11
-305.0295468832895
 21
298.4166666666661
 31
0.0
  0
LINE
  5
109
330
1F
100
AcDbEntity
  8
1
  6
CONTINUOUS
 62
     7
100
AcDbLine
 10
-307.1259818421603
 20
298.716666666667
 30
0.0
 11
-307.1218667872915
 21
298.4166666666674
 31
0.0
  0
LINE
  5
10A
330
1F
100
AcDbEntity
  8
1
  6
CONTINUOUS
 62
     7
100
AcDbLine
 10
-308.1586941973349
 20
298.7166666666667
 30
0.0
 11
-307.1259818421603
 21
298.7166666666667
 31
0.0
  0
LINE
  5
10B
330
1F
100
AcDbEntity
  8
1
  6
CONTINUOUS
 62
     7
100
AcDbLine
 10
-308.1653476383103
 20
299.2166666666676
 30
0.0
 11
-308.1586941973349
 21
298.716666666667
 31
0.0
  0
LINE
  5
10C
330
1F
100
AcDbEntity
  8
1
  6
CONTINUOUS
 62
     7
100
AcDbLine
 10
-305.6017954710852
 20
300.7166666666667
 30
0.0
 11
-308.1653476383103
 21
299.2166666666667
 31
0.0
  0
LINE
  5
10D
330
1F
100
AcDbEntity
  8
1
  6
CONTINUOUS
 62
     7
100
AcDbLine
 10
-305.0836347793708
 20
300.7166666666667
 30
0.0
 11
-305.6017954710852
 21
300.7166666666667
 31
0.0
  0
LINE
  5
10E
330
1F
100
AcDbEntity
  8
1
  6
CONTINUOUS
 62
     7
100
AcDbLine
 10
-234.3724171007291
 20
298.7166666666667
 30
0.0
 11
-233.3397047455545
 21
298.7166666666667
 31
0.0
  0
LINE
  5
10F
330
1F
100
AcDbEntity
  8
1
  6
CONTINUOUS
 62
     7
100
AcDbLine
 10
-234.3765321555979
 20
298.4166666666666
 30
0.0
 11
-234.3724171007291
 21
298.7166666666667
 31
0.0
  0
LINE
  5
110
330
1F
100
AcDbEntity
  8
1
  6
CONTINUOUS
 62
     7
100
AcDbLine
 10
-236.4688520595999
 20
298.416666666665
 30
0.0
 11
-236.4147641635195
 21
300.7166666666733
 31
0.0
  0
LINE
  5
111
330
1F
100
AcDbEntity
  8
1
  6
CONTINUOUS
 62
     7
100
AcDbLine
 10
-235.8966034718042
 20
300.7166666666667
 30
0.0
 11
-236.4147641635186
 21
300.7166666666667
 31
0.0
  0
LINE
  5
112
330
1F
100
AcDbEntity
  8
1
  6
CONTINUOUS
 62
     7
100
AcDbLine
 10
-233.3330513045791
 20
299.2166666666667
 30
0.0
 11
-235.8966034718042
 21
300.7166666666667
 31
0.0
  0
LINE
  5
113
330
1F
100
AcDbEntity
  8
1
  6
CONTINUOUS
 62
     7
100
AcDbLine
 10
-233.3397047455545
 20
298.7166666666666
 30
0.0
 11
-233.333051304579
 21
299.2166666666667
 31
0.0
  0
LINE
  5
114
330
1F
100
AcDbEntity
  8
1
  6
CONTINUOUS
 62
     7
100
AcDbLine
 10
-233.1726778567613
 20
298.4166666666699
 30
0.0
 11
-233.1727705112668
 21
298.7166666666677
 31
0.0
  0
LINE
  5
115
330
1F
100
AcDbEntity
  8
1
  6
CONTINUOUS
 62
     7
100
AcDbLine
 10
-308.3256284316225
 20
298.7166666666678
 30
0.0
 11
-308.3257210861281
 21
298.4166666666711
 31
0.0
  0
LINE
  5
116
330
1F
100
AcDbEntity
  8
1
  6
CONTINUOUS
 62
     7
100
AcDbLine
 10
-232.1721594942861
 20
298.7166666666667
 30
0.0
 11
-233.3397047455545
 21
298.7166666666667
 31
0.0
  0
LINE
  5
117
330
1F
100
AcDbEntity
  8
1
  6
CONTINUOUS
 62
     7
100
AcDbLine
 10
-232.172310308326
 20
299.2166666666667
 30
0.0
 11
-233.333051304579
 21
299.2166666666667
 31
0.0
  0
LINE
  5
118
330
1F
100
AcDbEntity
  8
1
  6
CONTINUOUS
 62
     7
100
AcDbLine
 10
-232.1721594942861
 20
298.7166666666649
 30
0.0
 11
-232.172310308326
 21
299.2166666666673
 31
0.0
  0
LINE
  5
119
330
1F
100
AcDbEntity
  8
1
  6
CONTINUOUS
 62
     7
100
AcDbLine
 10
-308.1653476383103
 20
299.2166666666667
 30
0.0
 11
-309.3260886345633
 21
299.2166666666667
 31
0.0
  0
LINE
  5
11A
330
1F
100
AcDbEntity
  8
1
  6
CONTINUOUS
 62
     7
100
AcDbLine
 10
-309.3260886345633
 20
299.2166666666674
 30
0.0
 11
-309.3262394486033
 21
298.716666666666
 31
0.0
  0
LINE
  5
11B
330
1F
100
AcDbEntity
  8
1
  6
CONTINUOUS
 62
     7
100
AcDbLine
 10
-308.1586941973349
 20
298.7166666666667
 30
0.0
 11
-309.3262394486032
 21
298.7166666666667
 31
0.0
  0
LINE
  5
11C
330
1F
100
AcDbEntity
  8
1
  6
CONTINUOUS
 62
     7
100
AcDbLine
 10
-235.8966034718042
 20
300.7166666666667
 30
0.0
 11
-234.6743988297001
 21
300.7166666666667
 31
0.0
  0
LINE
  5
11D
330
1F
100
AcDbEntity
  8
1
  6
CONTINUOUS
 62
     7
100
AcDbLine
 10
-232.1723103083261
 20
299.2166666666667
 30
0.0
 11
-234.6743988297001
 21
300.7166666666667
 31
0.0
  0
LINE
  5
11E
330
1F
100
AcDbEntity
  8
1
  6
CONTINUOUS
 62
     7
100
AcDbLine
 10
-306.8240001131892
 20
300.7166666666667
 30
0.0
 11
-309.3260886345633
 21
299.2166666666667
 31
0.0
  0
LINE
  5
11F
330
1F
100
AcDbEntity
  8
1
  6
CONTINUOUS
 62
     7
100
AcDbLine
 10
-306.8240001131892
 20
300.7166666666667
 30
0.0
 11
-305.6017954710852
 21
300.7166666666667
 31
0.0
  0
LINE
  5
120
330
1F
100
AcDbEntity
  8
1
  6
CONTINUOUS
 62
     7
100
AcDbLine
 10
-193.2491994714447
 20
291.4166666666666
 30
0.0
 11
-193.8268727192423
 21
291.4166666666666
 31
0.0
  0
LINE
  5
121
330
1F
100
AcDbEntity
  8
1
  6
CONTINUOUS
 62
     7
100
AcDbLine
 10
-193.8268727192422
 20
291.4166666666666
 30
0.0
 11
-348.2491994714448
 21
291.4166666666666
 31
0.0
  0
LINE
  5
122
330
1F
100
AcDbEntity
  8
1
  6
CONTINUOUS
 62
     7
100
AcDbLine
 10
-195.2491994714447
 20
287.4166666666666
 30
0.0
 11
-346.2491994714447
 21
287.4166666666666
 31
0.0
  0
LINE
  5
123
330
1F
100
AcDbEntity
  8
1
  6
CONTINUOUS
 62
     7
100
AcDbLine
 10
-226.226975398749
 20
296.4166666666666
 30
0.0
 11
-224.2344292471077
 21
296.4166666666666
 31
0.0
  0
LINE
  5
124
330
1F
100
AcDbEntity
  8
1
  6
CONTINUOUS
 62
     7
100
AcDbLine
 10
-224.2344292471077
 20
296.4166666666666
 30
0.0
 11
-224.226975398749
 21
296.4166666666666
 31
0.0
  0
LINE
  5
125
330
1F
100
AcDbEntity
  8
1
  6
CONTINUOUS
 62
     7
100
AcDbLine
 10
-324.2179761182338
 20
296.4166666666666
 30
0.0
 11
-322.2254299665925
 21
296.4166666666666
 31
0.0
  0
LINE
  5
126
330
1F
100
AcDbEntity
  8
1
  6
CONTINUOUS
 62
     7
100
AcDbLine
 10
-322.2254299665925
 20
296.4166666666666
 30
0.0
 11
-322.2179761182338
 21
296.4166666666666
 31
0.0
  0
LINE
  5
127
330
1F
100
AcDbEntity
  8
1
  6
CONTINUOUS
 62
     7
100
AcDbLine
 10
-208.6564228092939
 20
294.4166666666666
 30
0.0
 11
-208.9613427750199
 21
294.4166666666666
 31
0.0
  0
LINE
  5
128
330
1F
100
AcDbEntity
  8
1
  6
CONTINUOUS
 62
     7
100
AcDbLine
 10
-331.2959466447459
 20
323.9166666666667
 30
0.0
 11
-331.1209527445413
 21
323.9166666666667
 31
0.0
  0
LINE
  5
129
330
1F
100
AcDbEntity
  8
1
  6
CONTINUOUS
 62
     7
100
AcDbLine
 10
-208.9613427750199
 20
294.4166666666666
 30
0.0
 11
-210.2089694145419
 21
320.4428346447881
 31
0.0
  0
LINE
  5
12A
330
1F
100
AcDbEntity
  8
1
  6
CONTINUOUS
 62
     7
100
AcDbLine
 10
-210.2094872118749
 20
320.4535259670502
 30
0.0
 11
-210.2561548002256
 21
321.4167286645016
 31
0.0
  0
LINE
  5
12B
330
1F
100
AcDbEntity
  8
1
  6
CONTINUOUS
 62
     7
100
AcDbLine
 10
-210.353168478531
 20
323.4166800273286
 30
0.0
 11
-210.3774461983481
 21
323.9166666666667
 31
0.0
  0
LINE
  5
12C
330
1F
100
AcDbEntity
  8
1
  6
CONTINUOUS
 62
     7
100
AcDbLine
 10
-210.3774461983481
 20
323.9166666666667
 30
0.0
 11
-210.2024522981436
 21
323.9166666666667
 31
0.0
  0
LINE
  5
12D
330
1F
100
AcDbEntity
  8
1
  6
CONTINUOUS
 62
     7
100
AcDbLine
 10
-210.4562860290206
 20
325.4166666666667
 30
0.0
 11
-210.3774461983481
 21
323.9166666666667
 31
0.0
  0
LINE
  5
12E
330
1F
100
AcDbEntity
  8
1
  6
CONTINUOUS
 62
     7
100
AcDbLine
 10
-210.4576091437293
 20
325.4428346447883
 30
0.0
 11
-210.4562860290206
 21
325.4166666666667
 31
0.0
  0
LINE
  5
12F
330
1F
100
AcDbEntity
  8
1
  6
CONTINUOUS
 62
     7
100
AcDbLine
 10
-332.5370561678695
 20
294.4166666666666
 30
0.0
 11
-332.8419761335956
 21
294.4166666666666
 31
0.0
  0
LINE
  5
130
330
1F
100
AcDbEntity
  8
1
  6
CONTINUOUS
 62
     7
100
AcDbLine
 10
-332.5370561678695
 20
294.4166666666666
 30
0.0
 11
-331.1209527445413
 21
323.9166666666666
 31
0.0
  0
LWPOLYLINE
  5
131
330
1F
100
AcDbEntity
  8
1
  6
CONTINUOUS
 62
     7
100
AcDbPolyline
 90
       36
 70
     0
 43
0.0
 10
-209.1282490695742
 20
293.9428346447881
 10
-209.1288203011765
 20
293.9460727555835
 10
-209.1338067578097
 20
293.9704653727267
 10
-209.1399929608235
 20
293.9947910427932
 10
-209.1477914872614
 20
294.0202506992131
 10
-209.156912242131
 20
294.0455287478645
 10
-209.1674264692282
 20
294.0707359336772
 10
-209.1792899623147
 20
294.0956763948035
 10
-209.1927932852141
 20
294.1207978620889
 10
-209.2077234929743
 20
294.1455415102195
 10
-209.2242265005396
 20
294.1700339044532
 10
-209.242210638709
 20
294.1940194127577
 10
-209.2563418083489
 20
294.2112342872777
 10
-209.2712858430625
 20
294.2281072420836
 10
-209.2871380966751
 20
294.2446929134757
 10
-209.3038261537284
 20
294.2608608518681
 10
-209.3217007407519
 20
294.2768665069001
 10
-209.3404540240911
 20
294.2923476873399
 10
-209.3602452219969
 20
294.3073659310765
 10
-209.3809295979062
 20
294.3217399143306
 10
-209.3947644844483
 20
294.3306533082398
 10
-209.4089670144966
 20
294.3392529726305
 10
-209.4235990987876
 20
294.3475556166696
 10
-209.4385922395742
 20
294.3555016275307
 10
-209.4541773321661
 20
294.3631823814554
 10
-209.4701172074929
 20
294.370450013549
 10
-209.4864986966143
 20
294.3773197682865
 10
-209.5032119288039
 20
294.383721909403
 10
-209.519819197684
 20
294.3894920876195
 10
-209.5367055170459
 20
294.3947691667794
 10
-209.553975607143
 20
294.3995621023138
 10
-209.5714794115234
 20
294.4038072029472
 10
-209.5896363246164
 20
294.4075662797212
 10
-209.607971795888
 20
294.4107032029728
 10
-209.626624068025
 20
294.4132170874199
 10
-209.6453746547297
 20
294.4150575985248
  0
LWPOLYLINE
  5
132
330
1F
100
AcDbEntity
  8
1
  6
CONTINUOUS
 62
     7
100
AcDbPolyline
 90
       39
 70
     0
 43
0.0
 10
-331.8530242881601
 20
294.4150575985248
 10
-331.8664986845386
 20
294.4138048221945
 10
-331.8799288755969
 20
294.4122021450419
 10
-331.8933669907714
 20
294.4102446545158
 10
-331.9067275074362
 20
294.4079472901755
 10
-331.9246788800157
 20
294.4043064518445
 10
-331.9424629985883
 20
294.400068218325
 10
-331.9558524168477
 20
294.3964580093923
 10
-331.9690914507811
 20
294.3925297763391
 10
-331.982225993202
 20
294.3882750192316
 10
-331.9951870140855
 20
294.383721909403
 10
-332.0074201510895
 20
294.3790953750611
 10
-332.0194787671065
 20
294.3742159566922
 10
-332.0313965992178
 20
294.3690755970266
 10
-332.0431268581124
 20
294.3637003832504
 10
-332.058620700189
 20
294.3561065882693
 10
-332.0737756163882
 20
294.3481163117433
 10
-332.0960258165967
 20
294.3353280939094
 10
-332.1174693449832
 20
294.3217399143306
 10
-332.1325482082933
 20
294.3113900903837
 10
-332.1471583053469
 20
294.3006931401194
 10
-332.1613604599484
 20
294.2896221793647
 10
-332.1750884984095
 20
294.2782462071598
 10
-332.1928791691232
 20
294.2624333232009
 10
-332.209838081521
 20
294.2461209224755
 10
-332.226127343914
 20
294.2291762974735
 10
-332.2415693938192
 20
294.2118056484313
 10
-332.2561883041804
 20
294.1940194127577
 10
-332.2735630230316
 20
294.1708895611998
 10
-332.2896171717833
 20
294.1471947013579
 10
-332.3043228699149
 20
294.1230371553978
 10
-332.3178235195524
 20
294.0982019867009
 10
-332.3299563487985
 20
294.0730006028829
 10
-332.3408302013407
 20
294.0472099723327
 10
-332.3503102057465
 20
294.0211398978406
 10
-332.358405982066
 20
293.9947910427932
 10
-332.3645850590159
 20
293.9704964500673
 10
-332.369578641713
 20
293.9460727555833
 10
-332.3701498733152
 20
293.9428346447881
  0
LINE
  5
133
330
1F
100
AcDbEntity
  8
1
  6
CONTINUOUS
 62
     7
100
AcDbLine
 10
-331.8530242881601
 20
294.4150575985248
 30
0.0
 11
-331.8125907804375
 21
294.4166666666666
 31
0.0
  0
LINE
  5
134
330
1F
100
AcDbEntity
  8
1
  6
CONTINUOUS
 62
     7
100
AcDbLine
 10
-331.8125907804375
 20
294.4166666666666
 30
0.0
 11
-209.685808162452
 21
294.4166666666666
 31
0.0
  0
LINE
  5
135
330
1F
100
AcDbEntity
  8
1
  6
CONTINUOUS
 62
     7
100
AcDbLine
 10
-209.6858081624519
 20
294.4166666666666
 30
0.0
 11
-209.6453746547297
 21
294.4150575985248
 31
0.0
  0
LINE
  5
136
330
1F
100
AcDbEntity
  8
1
  6
CONTINUOUS
 62
     7
100
AcDbLine
 10
-302.9904863065199
 20
297.9166666666667
 30
0.0
 11
-303.0305235198248
 21
298.4166666666667
 31
0.0
  0
LINE
  5
137
330
1F
100
AcDbEntity
  8
1
  6
CONTINUOUS
 62
     7
100
AcDbLine
 10
-303.0305235198248
 20
298.4166666666667
 30
0.0
 11
-235.2632316620857
 21
298.4166666666667
 31
0.0
  0
LINE
  5
138
330
1F
100
AcDbEntity
  8
1
  6
CONTINUOUS
 62
     7
100
AcDbLine
 10
-235.230237282304
 20
297.9166666666667
 30
0.0
 11
-235.2632316620857
 21
298.4166666666667
 31
0.0
  0
LINE
  5
139
330
1F
100
AcDbEntity
  8
1
  6
CONTINUOUS
 62
     7
100
AcDbLine
 10
-302.9904863065199
 20
297.9166666666667
 30
0.0
 11
-302.9904863065199
 21
294.4166666666667
 31
0.0
  0
LINE
  5
13A
330
1F
100
AcDbEntity
  8
1
  6
CONTINUOUS
 62
     7
100
AcDbLine
 10
-235.230237282304
 20
297.9166666666667
 30
0.0
 11
-235.230237282304
 21
294.4166666666667
 31
0.0
  0
LINE
  5
13B
330
1F
100
AcDbEntity
  8
1
  6
CONTINUOUS
 62
     7
100
AcDbLine
 10
-323.2778010116437
 20
298.4166666666667
 30
0.0
 11
-304.453890706346
 21
298.4166666666667
 31
0.0
  0
LINE
  5
13C
330
1F
100
AcDbEntity
  8
1
  6
CONTINUOUS
 62
     7
100
AcDbLine
 10
-304.453890706346
 20
298.4166666666667
 30
0.0
 11
-303.0305235198248
 21
298.4166666666667
 31
0.0
  0
LINE
  5
13D
330
1F
100
AcDbEntity
  8
1
  6
CONTINUOUS
 62
     7
100
AcDbLine
 10
-235.2632316620857
 20
298.4166666666667
 30
0.0
 11
-233.642412124307
 21
298.4166666666667
 31
0.0
  0
LWPOLYLINE
  5
13E
330
1F
100
AcDbEntity
  8
1
  6
CONTINUOUS
 62
     7
100
AcDbPolyline
 90
       41
 70
     0
 43
0.0
 10
217.3512699373569
 20
298.4166666666667
 10
217.3302914456741
 20
298.4162358208113
 10
217.3093484368697
 20
298.4149441134096
 10
217.2883335582073
 20
298.4127742972901
 10
217.2674269363826
 20
298.4097356610854
 10
217.2462186620318
 20
298.4057378015517
 10
217.225199702003
 20
298.400843478561
 10
217.2042568181732
 20
298.3950136816717
 10
217.1835839354083
 20
298.3882912450368
 10
217.1639243029356
 20
298.3809662347551
 10
217.1445866242146
 20
298.3728313759227
 10
217.1254732069492
 20
298.3638332636897
 10
217.1067550739687
 20
298.3540415093587
 10
217.0880665651734
 20
298.3432288065572
 10
217.0698616463891
 20
298.3316225127231
 10
217.0520440275758
 20
298.319145946852
 10
217.034787021307
 20
298.3059068679752
 10
217.0188518955741
 20
298.2925648916963
 10
217.0034878648236
 20
298.2785708394604
 10
216.9886208189557
 20
298.2638421702052
 10
216.974387999358
 20
298.2485014259724
 10
216.960521802899
 20
298.232213871088
 10
216.947372082792
 20
298.2153441610769
 10
216.9348737868049
 20
298.1977888577255
 10
216.9231527837469
 20
298.1797067633808
 10
216.9127218777148
 20
298.1620046635326
 10
216.9030369930146
 20
298.1438847907364
 10
216.8940560766617
 20
298.1252468722126
 10
216.8858650688209
 20
298.1062495312456
 10
216.87832594943
 20
298.0864972940504
 10
216.8716409811348
 20
298.0664406964943
 10
216.8657831811236
 20
298.0459640975146
 10
216.8608154611114
 20
298.0252541860369
 10
216.8581192674121
 20
298.011955756044
 10
216.855790077106
 20
297.9985883498207
 10
216.8538242814708
 20
297.9851211990314
 10
216.8522307251746
 20
297.9716050794013
 10
216.8510010425241
 20
297.9579244481717
 10
216.8501523668825
 20
297.9442149835538
 10
216.8496844462867
 20
297.9304446616557
 10
216.8496004959537
 20
297.9166666666666
210
0.0
220
0.0
230
-1.0
  0
LINE
  5
13F
330
1F
100
AcDbEntity
  8
1
  6
CONTINUOUS
 62
     7
100
AcDbLine
 10
-233.642412124307
 20
298.4166666666667
 30
0.0
 11
-217.3512699373568
 21
298.4166666666667
 31
0.0
  0
LINE
  5
140
330
1F
100
AcDbEntity
  8
1
  6
CONTINUOUS
 62
     7
100
AcDbLine
 10
-216.877374219245
 20
294.416666666667
 30
0.0
 11
-216.8496004959536
 21
297.9166666666671
 31
0.0
  0
LINE
  5
141
330
1F
100
AcDbEntity
  8
1
  6
CONTINUOUS
 62
     7
100
AcDbLine
 10
-220.3071294648449
 20
325.4210299344159
 30
0.0
 11
-220.3819971923196
 21
320.4852939272432
 31
0.0
  0
LINE
  5
142
330
1F
100
AcDbEntity
  8
1
  6
CONTINUOUS
 62
     7
100
AcDbLine
 10
-220.3829810292915
 20
320.4210316793283
 30
0.0
 11
-220.3846704248911
 21
320.3107193448283
 31
0.0
  0
LINE
  5
143
330
1F
100
AcDbEntity
  8
1
  6
CONTINUOUS
 62
     7
100
AcDbLine
 10
-220.7336906725658
 20
298.4166666666667
 30
0.0
 11
-220.3829810560088
 21
320.4210299344159
 31
0.0
  0
LINE
  5
144
330
1F
100
AcDbEntity
  8
1
  6
CONTINUOUS
 62
     7
100
AcDbLine
 10
-321.1912694780445
 20
325.4210299344159
 30
0.0
 11
-320.7647082703236
 21
298.4166666666665
 31
0.0
  0
LINE
  5
145
330
1F
100
AcDbEntity
  8
1
  6
CONTINUOUS
 62
     7
100
AcDbLine
 10
-213.4935898472467
 20
320.4210299344159
 30
0.0
 11
-213.2666532070262
 21
294.4166666666667
 31
0.0
  0
LINE
  5
146
330
1F
100
AcDbEntity
  8
1
  6
CONTINUOUS
 62
     7
100
AcDbLine
 10
-215.2317457358631
 20
294.4166666666666
 30
0.0
 11
-215.0048090956426
 21
320.4210299344159
 31
0.0
  0
LINE
  5
147
330
1F
100
AcDbEntity
  8
1
  6
CONTINUOUS
 62
     7
100
AcDbLine
 10
-328.2317457358633
 20
294.4166666666666
 30
0.0
 11
-327.9611747566889
 21
325.4210299344158
 31
0.0
  0
LINE
  5
148
330
1F
100
AcDbEntity
  8
1
  6
CONTINUOUS
 62
     7
100
AcDbLine
 10
-326.5372241862006
 20
325.4210299344159
 30
0.0
 11
-326.2666532070263
 21
294.4166666666667
 31
0.0
  0
LINE
  5
149
330
1F
100
AcDbEntity
  8
1
  6
CONTINUOUS
 62
     7
100
AcDbLine
 10
-214.5048281341105
 20
320.9166666666667
 30
0.0
 11
-213.9935708087787
 21
320.9166666666667
 31
0.0
  0
ARC
  5
14A
330
1F
100
AcDbEntity
  8
1
  6
CONTINUOUS
 62
     7
100
AcDbCircle
 10
-213.9935708087787
 20
320.4166666666667
 30
0.0
 40
0.5000000000000018
100
AcDbArc
 50
0.5000000000000812
 51
90.00000000000082
  0
ARC
  5
14B
330
1F
100
AcDbEntity
  8
1
  6
CONTINUOUS
 62
     7
100
AcDbCircle
 10
-214.5048281341105
 20
320.4166666666667
 30
0.0
 40
0.5000000000000004
100
AcDbArc
 50
90.0
 51
179.4999999999999
  0
ARC
  5
14C
330
1F
100
AcDbEntity
  8
1
  6
CONTINUOUS
 62
     7
100
AcDbCircle
 10
-327.0372051477327
 20
325.4166666666667
 30
0.0
 40
0.5000000000000004
100
AcDbArc
 50
0.4999999999996589
 51
90.0
  0
ARC
  5
14D
330
1F
100
AcDbEntity
  8
1
  6
CONTINUOUS
 62
     7
100
AcDbCircle
 10
-327.4611937951569
 20
325.4166666666667
 30
0.0
 40
0.5000000000000004
100
AcDbArc
 50
90.0
 51
179.5000000000004
  0
LINE
  5
14E
330
1F
100
AcDbEntity
  8
1
  6
CONTINUOUS
 62
     7
100
AcDbLine
 10
-327.4611937951569
 20
325.9166666666667
 30
0.0
 11
-327.0372051477327
 21
325.9166666666667
 31
0.0
  0
LINE
  5
14F
330
1F
100
AcDbEntity
  8
1
  6
CONTINUOUS
 62
     7
100
AcDbLine
 10
-220.3868377237087
 20
320.4243542892881
 30
0.0
 11
-220.3829810560088
 21
320.4210299344159
 31
0.0
  0
LINE
  5
150
330
1F
100
AcDbEntity
  8
1
  6
CONTINUOUS
 62
     7
100
AcDbLine
 10
-213.9935708087787
 20
320.9166666666667
 30
0.0
 11
-210.8593808651338
 21
320.9166666666667
 31
0.0
  0
LINE
  5
151
330
1F
100
AcDbEntity
  8
1
  6
CONTINUOUS
 62
     7
100
AcDbLine
 10
-219.8868968267435
 20
320.9166666666667
 30
0.0
 11
-214.5048281341105
 21
320.9166666666667
 31
0.0
  0
LINE
  5
152
330
1F
100
AcDbEntity
  8
1
  6
CONTINUOUS
 62
     7
100
AcDbLine
 10
-321.1912694780446
 20
325.4210299344159
 30
0.0
 11
-321.1877310386836
 21
325.4242117807781
 31
0.0
  0
LINE
  5
153
330
1F
100
AcDbEntity
  8
1
  6
CONTINUOUS
 62
     7
100
AcDbLine
 10
-327.0372051477327
 20
325.9166666666667
 30
0.0
 11
-321.6876741066954
 21
325.9166666666667
 31
0.0
  0
LINE
  5
154
330
1F
100
AcDbEntity
  8
1
  6
CONTINUOUS
 62
     7
100
AcDbLine
 10
-330.4029756470938
 20
325.9166666666667
 30
0.0
 11
-327.4611937951569
 21
325.9166666666667
 31
0.0
  0
LWPOLYLINE
  5
155
330
1F
100
AcDbEntity
  8
1
  6
CONTINUOUS
 62
     7
100
AcDbPolyline
 90
       37
 70
     0
 43
0.0
 10
210.7078797133343
 20
320.9166666666667
 10
210.6871424821563
 20
320.9162388777094
 10
210.6664406123098
 20
320.9149566646104
 10
210.6456672049378
 20
320.9128032962695
 10
210.6250015112853
 20
320.9097886573393
 10
210.60403624394
 20
320.905823295172
 10
210.5832589611597
 20
320.9009705389921
 10
210.5625574316837
 20
320.8951924781286
 10
210.5421233092364
 20
320.8885324858034
 10
210.5226944199075
 20
320.8812800149132
 10
210.5035833582739
 20
320.8732293261513
 10
210.4846939336156
 20
320.8643288231462
 10
210.4661935072221
 20
320.8546477355946
 10
210.4477241969599
 20
320.8439648571422
 10
210.4297290513714
 20
320.8325033368974
 10
210.412113886795
 20
320.8201896595552
 10
210.3950465149262
 20
320.8071292905684
 10
210.3791801589401
 20
320.7938868398193
 10
210.3638774539346
 20
320.7799986176714
 10
210.3490648921623
 20
320.7653844468927
 10
210.3348767608164
 20
320.750164946234
 10
210.3210498422145
 20
320.7340142194602
 10
210.3079263050811
 20
320.7172884775734
 10
210.2954418466519
 20
320.6998878824831
 10
210.283718771482
 20
320.6819669051946
 10
210.2731783177129
 20
320.664262262905
 10
210.2633809968405
 20
320.6461369582703
 10
210.2542840938981
 20
320.6274918156137
 10
210.2459733627761
 20
320.6084842030813
 10
210.2383094323752
 20
320.5887228080507
 10
210.2314948706065
 20
320.5686535089325
 10
210.225502054595
 20
320.5481621027073
 10
210.2203941691527
 20
320.5274330322134
 10
210.2161917875101
 20
320.5065639152641
 10
210.2128856624016
 20
320.4855346169936
 10
210.2104678711651
 20
320.4642266771835
 10
210.2089694145419
 20
320.4428346447882
210
0.0
220
0.0
230
-1.0
  0
LINE
  5
156
330
1F
100
AcDbEntity
  8
1
  6
CONTINUOUS
 62
     7
100
AcDbLine
 10
-210.8593808651337
 20
320.9166666666667
 30
0.0
 11
-210.7078797133342
 21
320.9166666666667
 31
0.0
  0
LINE
  5
157
330
1F
100
AcDbEntity
  8
1
  6
CONTINUOUS
 62
     7
100
AcDbLine
 10
-330.7166488028222
 20
325.9166666666667
 30
0.0
 11
-330.4029756470937
 21
325.9166666666667
 31
0.0
  0
LINE
  5
158
330
1F
100
AcDbEntity
  8
1
  6
CONTINUOUS
 62
     7
100
AcDbLine
 10
-220.101466703784
 20
325.420988432942
 30
0.0
 11
-220.1078060089547
 21
325.4210439327195
 31
0.0
  0
LINE
  5
159
330
1F
100
AcDbEntity
  8
1
  6
CONTINUOUS
 62
     7
100
AcDbLine
 10
-218.7491994714448
 20
323.9166666666667
 30
0.0
 11
-210.3774461983481
 21
323.9166666666667
 31
0.0
  0
LINE
  5
15A
330
1F
100
AcDbEntity
  8
1
  6
CONTINUOUS
 62
     7
100
AcDbLine
 10
-218.7491994714448
 20
320.9166666666667
 30
0.0
 11
-218.7491994714448
 21
323.9166666666667
 31
0.0
  0
LINE
  5
15B
330
1F
100
AcDbEntity
  8
1
  6
CONTINUOUS
 62
     7
100
AcDbLine
 10
-210.9220736896446
 20
325.9166666666667
 30
0.0
 11
-210.7817501400672
 21
325.9166666666667
 31
0.0
  0
LWPOLYLINE
  5
15C
330
1F
100
AcDbEntity
  8
1
  6
CONTINUOUS
 62
     7
100
AcDbPolyline
 90
       39
 70
     0
 43
0.0
 10
-210.4576091437293
 20
325.4428346447883
 10
-210.4587215745617
 20
325.4600481993032
 10
-210.4603784411097
 20
325.477166793819
 10
-210.4625935893323
 20
325.4943015788054
 10
-210.4653430104009
 20
325.5112681965201
 10
-210.4677885829041
 20
325.5240612769087
 10
-210.470529945213
 20
325.5367240154382
 10
-210.4735746591942
 20
325.549300933424
 10
-210.4769027297878
 20
325.5617216618074
 10
-210.4818187564917
 20
325.5781849499531
 10
-210.486988414393
 20
325.5936822553508
 10
-210.4925795250936
 20
325.6088601600002
 10
-210.4986122075417
 20
325.623795490814
 10
-210.5050322535339
 20
325.6383779316592
 10
-210.5119025612987
 20
325.6527617985404
 10
-210.5191292991042
 20
325.6667636295788
 10
-210.5267336046749
 20
325.680446197363
 10
-210.5346591259896
 20
325.6937297728144
 10
-210.5460726800069
 20
325.7113732819774
 10
-210.5580637420129
 20
325.7283115436591
 10
-210.570568178843
 20
325.7445006112141
 10
-210.5836896159041
 20
325.760099438101
 10
-210.5972560296583
 20
325.7749261725649
 10
-210.611378188215
 20
325.7891235547752
 10
-210.6258828631975
 20
325.8025368402992
 10
-210.6407603593614
 20
325.8151891142355
 10
-210.6603809071183
 20
325.8303347856045
 10
-210.6805222901078
 20
325.8442395213689
 10
-210.7010933795723
 20
325.8568862252375
 10
-210.7222738242208
 20
325.8684052031685
 10
-210.743796280003
 20
325.8786661444461
 10
-210.7658468838146
 20
325.8877693252446
 10
-210.7881619021013
 20
325.8956129444446
 10
-210.8107385504822
 20
325.9022165175152
 10
-210.8375107903734
 20
325.9083860408518
 10
-210.8644989737459
 20
325.912847029907
 10
-210.8917020412393
 20
325.9156071784377
 10
-210.9190178931547
 20
325.9166559575345
 10
-210.9220736896445
 20
325.9166666666667
  0
LINE
  5
15D
330
1F
100
AcDbEntity
  8
1
  6
CONTINUOUS
 62
     7
100
AcDbLine
 10
-219.6078251697799
 20
325.9166666666667
 30
0.0
 11
-210.9220736896445
 21
325.9166666666667
 31
0.0
  0
LINE
  5
15E
330
1F
100
AcDbEntity
  8
1
  6
CONTINUOUS
 62
     7
100
AcDbLine
 10
-219.6078251697799
 20
325.9166666666667
 30
0.0
 11
-219.810724836194
 21
325.9166666666667
 31
0.0
  0
LINE
  5
15F
330
1F
100
AcDbEntity
  8
1
  6
CONTINUOUS
 62
     7
100
AcDbLine
 10
-220.3106679042058
 20
325.4242117807781
 30
0.0
 11
-220.3071294648448
 21
325.4210299344159
 31
0.0
  0
LINE
  5
160
330
1F
100
AcDbEntity
  8
1
  6
CONTINUOUS
 62
     7
100
AcDbLine
 10
-348.5268689094831
 20
320.0695733433218
 30
0.0
 11
-348.2484871075063
 21
318.0841568042483
 31
0.0
  0
LINE
  5
161
330
1F
100
AcDbEntity
  8
1
  6
CONTINUOUS
 62
     7
100
AcDbLine
 10
-193.2535041868582
 20
318.0778459383674
 30
0.0
 11
-192.9766416127796
 21
320.0480305140533
 31
0.0
  0
LINE
  5
162
330
1F
100
AcDbEntity
  8
1
  6
CONTINUOUS
 62
     7
100
AcDbLine
 10
-192.9766416127796
 20
320.0480305140533
 30
0.0
 11
-192.974507042167
 21
320.0632203536719
 31
0.0
  0
LINE
  5
163
330
1F
100
AcDbEntity
  8
1
  6
CONTINUOUS
 62
     7
100
AcDbLine
 10
-218.2491994714447
 20
323.4166666666667
 30
0.0
 11
-218.2491994714447
 21
321.4166666666667
 31
0.0
  0
LINE
  5
164
330
1F
100
AcDbEntity
  8
1
  6
CONTINUOUS
 62
     7
100
AcDbLine
 10
-216.2491994714447
 20
323.9166666666667
 30
0.0
 11
-216.2491994714447
 21
323.4166666666667
 31
0.0
  0
LINE
  5
165
330
1F
100
AcDbEntity
  8
1
  6
CONTINUOUS
 62
     7
100
AcDbLine
 10
-216.2491994714447
 20
321.4166666666667
 30
0.0
 11
-216.2491994714447
 21
320.9166666666667
 31
0.0
  0
LINE
  5
166
330
1F
100
AcDbEntity
  8
1
  6
CONTINUOUS
 62
     7
100
AcDbLine
 10
-212.2491994714447
 20
320.9166666666667
 30
0.0
 11
-212.2491994714447
 21
321.4166666666667
 31
0.0
  0
LINE
  5
167
330
1F
100
AcDbEntity
  8
1
  6
CONTINUOUS
 62
     7
100
AcDbLine
 10
-212.2491994714447
 20
323.4166666666667
 30
0.0
 11
-212.2491994714447
 21
323.9166666666667
 31
0.0
  0
LINE
  5
168
330
1F
100
AcDbEntity
  8
1
  6
CONTINUOUS
 62
     7
100
AcDbLine
 10
-348.2491994714447
 20
291.4166666666666
 30
0.0
 11
-348.2491994714447
 21
289.4166666666666
 31
0.0
  0
LINE
  5
169
330
1F
100
AcDbEntity
  8
1
  6
CONTINUOUS
 62
     7
100
AcDbLine
 10
-193.2491994714447
 20
289.4166666666666
 30
0.0
 11
-193.2491994714447
 21
291.4166666666666
 31
0.0
  0
ARC
  5
16A
330
1F
100
AcDbEntity
  8
1
  6
CONTINUOUS
 62
     7
100
AcDbCircle
 10
-195.2491994714447
 20
289.4166666666666
 30
0.0
 40
2.000000000000002
100
AcDbArc
 50
270.0
 51
0.0
  0
ARC
  5
16B
330
1F
100
AcDbEntity
  8
1
  6
CONTINUOUS
 62
     7
100
AcDbCircle
 10
-346.2491994714447
 20
289.4166666666666
 30
0.0
 40
2.000000000000002
100
AcDbArc
 50
180.0
 51
270.0
  0
ARC
  5
16C
330
1F
100
AcDbEntity
  8
1
  6
CONTINUOUS
 62
     7
100
AcDbCircle
 10
-224.226975398749
 20
295.9166666666667
 30
0.0
 40
0.5000000000000004
100
AcDbArc
 50
0.0000000000063611
 51
90.0
  0
ARC
  5
16D
330
1F
100
AcDbEntity
  8
1
  6
CONTINUOUS
 62
     7
100
AcDbCircle
 10
-226.226975398749
 20
295.9166666666667
 30
0.0
 40
0.5000000000000004
100
AcDbArc
 50
90.0
 51
179.9999999999936
  0
LINE
  5
16E
330
1F
100
AcDbEntity
  8
1
  6
CONTINUOUS
 62
     7
100
AcDbLine
 10
-226.726975398749
 20
295.9166666666665
 30
0.0
 11
-226.726975398749
 21
294.4166666666665
 31
0.0
  0
LINE
  5
16F
330
1F
100
AcDbEntity
  8
1
  6
CONTINUOUS
 62
     7
100
AcDbLine
 10
-223.726975398749
 20
294.4166666666665
 30
0.0
 11
-223.726975398749
 21
295.9166666666665
 31
0.0
  0
LINE
  5
170
330
1F
100
AcDbEntity
  8
1
  6
CONTINUOUS
 62
     7
100
AcDbLine
 10
-324.7179761182338
 20
295.9166666666665
 30
0.0
 11
-324.7179761182338
 21
294.4166666666665
 31
0.0
  0
LINE
  5
171
330
1F
100
AcDbEntity
  8
1
  6
CONTINUOUS
 62
     7
100
AcDbLine
 10
-321.7179761182338
 20
294.4166666666665
 30
0.0
 11
-321.7179761182338
 21
295.9166666666665
 31
0.0
  0
ARC
  5
172
330
1F
100
AcDbEntity
  8
1
  6
CONTINUOUS
 62
     7
100
AcDbCircle
 10
-322.2179761182338
 20
295.9166666666667
 30
0.0
 40
0.5000000000000004
100
AcDbArc
 50
0.0000000000063611
 51
90.0
  0
ARC
  5
173
330
1F
100
AcDbEntity
  8
1
  6
CONTINUOUS
 62
     7
100
AcDbCircle
 10
-324.2179761182338
 20
295.9166666666667
 30
0.0
 40
0.5000000000000004
100
AcDbArc
 50
90.0
 51
179.9999999999936
  0
LINE
  5
174
330
1F
100
AcDbEntity
  8
1
  6
CONTINUOUS
 62
     7
100
AcDbLine
 10
-210.2024522981436
 20
323.9166666666667
 30
0.0
 11
-210.2824353726898
 21
325.4428346447881
 31
0.0
  0
LINE
  5
175
330
1F
100
AcDbEntity
  8
1
  6
CONTINUOUS
 62
     7
100
AcDbLine
 10
-208.4991994714447
 20
291.4166666666666
 30
0.0
 11
-208.6564228092938
 21
294.4166666666666
 31
0.0
  0
LINE
  5
176
330
1F
100
AcDbEntity
  8
1
  6
CONTINUOUS
 62
     7
100
AcDbLine
 10
-332.8419761335956
 20
294.4166666666666
 30
0.0
 11
-332.9991994714447
 21
291.4166666666666
 31
0.0
  0
LINE
  5
177
330
1F
100
AcDbEntity
  8
1
  6
CONTINUOUS
 62
     7
100
AcDbLine
 10
-331.2159635701997
 20
325.4428346447881
 30
0.0
 11
-331.2959466447459
 21
323.9166666666667
 31
0.0
  0
ARC
  5
178
330
1F
100
AcDbEntity
  8
1
  6
CONTINUOUS
 62
     7
100
AcDbCircle
 10
-323.2778010116437
 20
297.9166666666667
 30
0.0
 40
0.5000000000000004
100
AcDbArc
 50
90.0
 51
180.0
  0
LINE
  5
179
330
1F
100
AcDbEntity
  8
1
  6
CONTINUOUS
 62
     7
100
AcDbLine
 10
-323.7778010116436
 20
297.9166666666667
 30
0.0
 11
-323.7778010116436
 21
296.4166666666667
 31
0.0
  0
ARC
  5
17A
330
1F
100
AcDbEntity
  8
1
  6
CONTINUOUS
 62
     7
100
AcDbCircle
 10
-219.8868968267435
 20
320.4166666666667
 30
0.0
 40
0.5000000000000004
100
AcDbArc
 50
89.99999999999763
 51
179.1190286262764
  0
ARC
  5
17B
330
1F
100
AcDbEntity
  8
1
  6
CONTINUOUS
 62
     7
100
AcDbCircle
 10
-321.6876741066954
 20
325.4166666666667
 30
0.0
 40
0.4999999999999706
100
AcDbArc
 50
0.8646392063874856
 51
89.99999999999682
  0
ARC
  5
17C
330
1F
100
AcDbEntity
  8
1
  6
CONTINUOUS
 62
     7
100
AcDbCircle
 10
-330.7166488028223
 20
325.4166666666667
 30
0.0
 40
0.5000000000000004
100
AcDbArc
 50
90.0
 51
177.0000000000006
  0
LINE
  5
17D
330
1F
100
AcDbEntity
  8
1
  6
CONTINUOUS
 62
     7
100
AcDbLine
 10
-220.1014666669784
 20
325.4209884326198
 30
0.0
 11
-220.141514981495
 21
320.8468493532846
 31
0.0
  0
ARC
  5
17E
330
1F
100
AcDbEntity
  8
1
  6
CONTINUOUS
 62
     7
100
AcDbCircle
 10
-219.6078251697799
 20
325.4166666666667
 30
0.0
 40
0.5000000000000004
100
AcDbArc
 50
90.0000000000024
 51
179.4983958512859
  0
ARC
  5
17F
330
1F
100
AcDbEntity
  8
1
  6
CONTINUOUS
 62
     7
100
AcDbCircle
 10
-210.7817501400671
 20
325.4166666666667
 30
0.0
 40
0.4999999999999876
100
AcDbArc
 50
3.000000000000166
 51
90.00000000000001
  0
ARC
  5
180
330
1F
100
AcDbEntity
  8
1
  6
CONTINUOUS
 62
     7
100
AcDbCircle
 10
-219.810724836194
 20
325.4166666666667
 30
0.0
 40
0.5000000000000004
100
AcDbArc
 50
90.0000000000024
 51
179.1353607936125
  0
LINE
  5
181
330
1F
100
AcDbEntity
  8
0
  6
CENTER
 62
     1
100
AcDbLine
 10
-134.9999999999999
 20
136.6666666666667
 30
0.0
 11
-60.0
 21
136.6666666666667
 31
0.0
  0
LINE
  5
183
330
1F
100
AcDbEntity
  8
0
  6
CENTER
 62
     1
100
AcDbLine
 10
-270.7491994714447
 20
277.4166666666663
 30
0.0
 11
-270.7491994714447
 21
309.9999999999999
 31
0.0
  0
LINE
  5
184
330
1F
100
AcDbEntity
  8
0
  6
CENTER
 62
     1
100
AcDbLine
 10
-270.7491994714447
 20
57.16666666666671
 30
0.0
 11
-270.7491994714447
 21
216.1666666666667
 31
0.0
  0
LINE
  5
185
330
1F
100
AcDbEntity
  8
0
  6
CENTER
 62
     1
100
AcDbLine
 10
-350.2491994714447
 20
136.6666666666667
 30
0.0
 11
-191.2491994714447
 21
136.6666666666667
 31
0.0
  0
POINT
  5
186
330
1F
100
AcDbEntity
  8
0
 62
     1
100
AcDbPoint
 10
-270.7491994714447
 20
216.1666666666667
 30
0.0
  0
POINT
  5
187
330
1F
100
AcDbEntity
  8
0
 62
     1
100
AcDbPoint
 10
-191.2491994714447
 20
136.6666666666667
 30
0.0
  0
ENDSEC
  0
SECTION
  2
OBJECTS
  0
DICTIONARY
  5
C
330
0
100
AcDbDictionary
  3
ACAD_GROUP
350
D
  3
ACAD_LAYOUT
350
1A
  3
ACAD_MATERIAL
350
43
  3
ACAD_MLEADERSTYLE
350
6B
  3
ACAD_MLINESTYLE
350
17
  3
ACAD_PLOTSETTINGS
350
19
  3
ACAD_SCALELIST
350
47
  3
ACAD_VISUALSTYLE
350
2A
  3
ACDBHEADERROUNDTRIPXREC
350
188
  3
ACDBVARIABLEDICTIONARY
350
1A9
  0
DICTIONARY
  5
1B0
330
8
100
AcDbDictionary
280
     1
  3
ACAD_XREC_ROUNDTRIP
360
1B1
  0
DICTIONARY
  5
D
102
{ACAD_REACTORS
330
C
102
}
330
C
100
AcDbDictionary
  0
DICTIONARY
  5
1A
102
{ACAD_REACTORS
330
C
102
}
330
C
100
AcDbDictionary
  0
DICTIONARY
  5
43
102
{ACAD_REACTORS
330
C
102
}
330
C
100
AcDbDictionary
  3
BYBLOCK
350
45
  3
BYLAYER
350
44
  3
GLOBAL
350
46
  0
DICTIONARY
  5
6B
102
{ACAD_REACTORS
330
C
102
}
330
C
100
AcDbDictionary
  3
STANDARD
350
6C
  0
DICTIONARY
  5
17
102
{ACAD_REACTORS
330
C
102
}
330
C
100
AcDbDictionary
  3
STANDARD
350
18
  0
DICTIONARY
  5
19
102
{ACAD_REACTORS
330
C
102
}
330
C
100
AcDbDictionary
  0
DICTIONARY
  5
47
102
{ACAD_REACTORS
330
C
102
}
330
C
100
AcDbDictionary
  3
A0
350
48
  3
A1
350
49
  3
A2
350
4A
  3
A3
350
4B
  3
A4
350
4C
  3
A5
350
4D
  3
A6
350
4E
  3
A7
350
4F
  3
A8
350
50
  3
A9
350
51
  3
B0
350
52
  3
B1
350
53
  3
B2
350
54
  3
B3
350
55
  3
B4
350
56
  3
B5
350
57
  3
B6
350
58
  3
B7
350
59
  3
B8
350
5A
  3
B9
350
5B
  3
C0
350
5C
  3
C1
350
5D
  3
C2
350
5E
  3
C3
350
5F
  3
C4
350
60
  3
C5
350
61
  3
C6
350
62
  3
C7
350
63
  3
C8
350
64
  3
C9
350
65
  3
D0
350
66
  3
D1
350
67
  3
D2
350
68
  0
DICTIONARY
  5
2A
102
{ACAD_REACTORS
330
C
102
}
330
C
100
AcDbDictionary
  3
2DWIREFRAME
350
2F
  3
BASIC
350
32
  3
BRIGHTEN
350
36
  3
COLORCHANGE
350
3A
  3
CONCEPTUAL
350
34
  3
DIM
350
35
  3
EDGECOLOROFF
350
3D
  3
FACEPATTERN
350
39
  3
FLAT
350
2B
  3
FLATWITHEDGES
350
2C
  3
GOURAUD
350
2D
  3
GOURAUDWITHEDGES
350
2E
  3
HIDDEN
350
31
  3
JITTEROFF
350
3B
  3
LINEPATTERN
350
38
  3
OVERHANGOFF
350
3C
  3
REALISTIC
350
33
  3
SHADED
350
42
  3
SHADED_WITH_EDGES
350
41
  3
SHADES_OF_GRAY
350
3E
  3
SKETCHY
350
3F
  3
THICKEN
350
37
  3
WIREFRAME
350
30
  3
X-RAY
350
40
  0
DICTIONARY
  5
188
102
{ACAD_REACTORS
330
C
102
}
330
C
100
AcDbDictionary
  3
CEPSNID
350
192
  3
CEPSNTYPE
350
191
  3
DIMSTYLEDATA
350
1A8
  3
FINGERPRINTGUID
350
193
  3
HYPERLINKBASE
350
18B
  3
INSUNITS
350
190
  3
LAYOUTDICT
350
18D
  3
LWETCUNION
350
18F
  3
PLOTSETDICT
350
18E
  3
PSVPSCALE
350
195
  3
PUCSBASE
350
198
  3
PUCSORGBACK
350
19E
  3
PUCSORGBOTTOM
350
19A
  3
PUCSORGFRONT
350
19D
  3
PUCSORGLEFT
350
19B
  3
PUCSORGRIGHT
350
19C
  3
PUCSORGTOP
350
199
  3
PUCSORTHOREF
350
196
  3
PUCSORTHOVIEW
350
197
  3
STYLESHEET
350
18C
  3
TSTACKALIGN
350
189
  3
TSTACKSIZE
350
18A
  3
UCSBASE
350
1A1
  3
UCSORGBACK
350
1A7
  3
UCSORGBOTTOM
350
1A3
  3
UCSORGFRONT
350
1A6
  3
UCSORGLEFT
350
1A4
  3
UCSORGRIGHT
350
1A5
  3
UCSORGTOP
350
1A2
  3
UCSORTHOREF
350
19F
  3
UCSORTHOVIEW
350
1A0
  3
VERSIONGUID
350
194
  0
DICTIONARY
  5
1A9
102
{ACAD_REACTORS
330
C
102
}
330
C
100
AcDbDictionary
  3
CANNOSCALE
350
1B2
  3
CMLEADERSTYLE
350
1AB
  3
CTABLESTYLE
350
1AA
  3
DIMASSOC
350
1AE
  3
HIDETEXT
350
1AF
  3
MSLTSCALE
350
1B3
  0
XRECORD
  5
1B1
102
{ACAD_REACTORS
330
1B0
102
}
330
1B0
100
AcDbXrecord
102
VTR_0.000_0.000_1.000_1.000_VISUALSTYLE
340
2F
102
VTR_0.000_0.000_1.000_1.000_GRIDDISPLAY
 70
     3
102
VTR_0.000_0.000_1.000_1.000_GRIDMAJOR
 70
     5
102
VTR_0.000_0.000_1.000_1.000_DEFAULTLIGHTING
280
     1
102
VTR_0.000_0.000_1.000_1.000_DEFAULTLIGHTINGTYPE
 70
     1
102
VTR_0.000_0.000_1.000_1.000_BRIGHTNESS
141
0.0
102
VTR_0.000_0.000_1.000_1.000_CONTRAST
142
0.0
  0
MATERIAL
  5
45
102
{ACAD_REACTORS
330
43
102
}
102
{ACAD_XDICTIONARY
360
1B6
102
}
330
43
100
AcDbMaterial
  1
BYBLOCK
  0
MATERIAL
  5
44
102
{ACAD_REACTORS
330
43
102
}
102
{ACAD_XDICTIONARY
360
1B4
102
}
330
43
100
AcDbMaterial
  1
BYLAYER
  0
MATERIAL
  5
46
102
{ACAD_REACTORS
330
43
102
}
102
{ACAD_XDICTIONARY
360
1B8
102
}
330
43
100
AcDbMaterial
  1
GLOBAL
  0
ACAD_PROXY_OBJECT
  5
6C
102
{ACAD_REACTORS
330
6B
102
}
330
6B
100
AcDbProxyObject
 90
      499
 91
      505
 93
      610
310
40901902A4063FBFFFFFE056BD1B81E855B9FC0AD7A3703D0AD73F4214DD185B99185C9900AD7A3703D0AC73F90141901A02B5E8DC0F42B1CFC02B5E8DC0F42B1CFE5764000000000000300FC0
340
14
340
0
340
11
340
0
 94
        0
1001
ACAD_MLEADERVER
1070
     2
  0
MLINESTYLE
  5
18
102
{ACAD_REACTORS
330
17
102
}
330
17
100
AcDbMlineStyle
  2
Standard
 70
     0
  3

 62
   256
 51
90.0
 52
90.0
 71
     2
 49
0.5
 62
   256
  6
BYLAYER
 49
-0.5
 62
   256
  6
BYLAYER
  0
ACAD_PROXY_OBJECT
  5
48
102
{ACAD_REACTORS
330
47
102
}
330
47
100
AcDbProxyObject
 90
      499
 91
      503
 93
       41
310
903313A31580
  0
ACAD_PROXY_OBJECT
  5
49
102
{ACAD_REACTORS
330
47
102
}
330
47
100
AcDbProxyObject
 90
      499
 91
      503
 93
      105
310
903313A324000000000000004000
  0
ACAD_PROXY_OBJECT
  5
4A
102
{ACAD_REACTORS
330
47
102
}
330
47
100
AcDbProxyObject
 90
      499
 91
      503
 93
      105
310
903313A344000000000000104000
  0
ACAD_PROXY_OBJECT
  5
4B
102
{ACAD_REACTORS
330
47
102
}
330
47
100
AcDbProxyObject
 90
      499
 91
      503
 93
      105
310
903313A354000000000000144000
  0
ACAD_PROXY_OBJECT
  5
4C
102
{ACAD_REACTORS
330
47
102
}
330
47
100
AcDbProxyObject
 90
      499
 91
      503
 93
      105
310
903313A384000000000000204000
  0
ACAD_PROXY_OBJECT
  5
4D
102
{ACAD_REACTORS
330
47
102
}
330
47
100
AcDbProxyObject
 90
      499
 91
      503
 93
      113
310
904313A31304000000000000244000
  0
ACAD_PROXY_OBJECT
  5
4E
102
{ACAD_REACTORS
330
47
102
}
330
47
100
AcDbProxyObject
 90
      499
 91
      503
 93
      113
310
904313A31364000000000000304000
  0
ACAD_PROXY_OBJECT
  5
4F
102
{ACAD_REACTORS
330
47
102
}
330
47
100
AcDbProxyObject
 90
      499
 91
      503
 93
      113
310
904313A32304000000000000344000
  0
ACAD_PROXY_OBJECT
  5
50
102
{ACAD_REACTORS
330
47
102
}
330
47
100
AcDbProxyObject
 90
      499
 91
      503
 93
      113
310
904313A333040000000000003E4000
  0
ACAD_PROXY_OBJECT
  5
51
102
{ACAD_REACTORS
330
47
102
}
330
47
100
AcDbProxyObject
 90
      499
 91
      503
 93
      113
310
904313A34304000000000000444000
  0
ACAD_PROXY_OBJECT
  5
52
102
{ACAD_REACTORS
330
47
102
}
330
47
100
AcDbProxyObject
 90
      499
 91
      503
 93
      113
310
904313A35304000000000000494000
  0
ACAD_PROXY_OBJECT
  5
53
102
{ACAD_REACTORS
330
47
102
}
330
47
100
AcDbProxyObject
 90
      499
 91
      503
 93
      121
310
905313A3130304000000000000594000
  0
ACAD_PROXY_OBJECT
  5
54
102
{ACAD_REACTORS
330
47
102
}
330
47
100
AcDbProxyObject
 90
      499
 91
      503
 93
      105
310
903323A310000000000000010100
  0
ACAD_PROXY_OBJECT
  5
55
102
{ACAD_REACTORS
330
47
102
}
330
47
100
AcDbProxyObject
 90
      499
 91
      503
 93
      105
310
903343A310000000000000410100
  0
ACAD_PROXY_OBJECT
  5
56
102
{ACAD_REACTORS
330
47
102
}
330
47
100
AcDbProxyObject
 90
      499
 91
      503
 93
      105
310
903383A310000000000000810100
  0
ACAD_PROXY_OBJECT
  5
57
102
{ACAD_REACTORS
330
47
102
}
330
47
100
AcDbProxyObject
 90
      499
 91
      503
 93
      113
310
90431303A310000000000000910100
  0
ACAD_PROXY_OBJECT
  5
58
102
{ACAD_REACTORS
330
47
102
}
330
47
100
AcDbProxyObject
 90
      499
 91
      503
 93
      121
310
9053130303A310000000000001650100
  0
ACAD_PROXY_OBJECT
  5
59
102
{ACAD_REACTORS
330
47
102
}
330
47
100
AcDbProxyObject
 90
      499
 91
      503
 93
      257
310
90E312F31323822203D2031272D3022000000000000200FC000000000000284000
  0
ACAD_PROXY_OBJECT
  5
5A
102
{ACAD_REACTORS
330
47
102
}
330
47
100
AcDbProxyObject
 90
      499
 91
      503
 93
      249
310
90D312F363422203D2031272D3022000000000000240FC000000000000284000
  0
ACAD_PROXY_OBJECT
  5
5B
102
{ACAD_REACTORS
330
47
102
}
330
47
100
AcDbProxyObject
 90
      499
 91
      503
 93
      249
310
90D312F333222203D2031272D3022000000000000280FC000000000000284000
  0
ACAD_PROXY_OBJECT
  5
5C
102
{ACAD_REACTORS
330
47
102
}
330
47
100
AcDbProxyObject
 90
      499
 91
      503
 93
      249
310
90D312F313622203D2031272D30220000000000002C0FC000000000000284000
  0
ACAD_PROXY_OBJECT
  5
5D
102
{ACAD_REACTORS
330
47
102
}
330
47
100
AcDbProxyObject
 90
      499
 91
      503
 93
      249
310
90D332F333222203D2031272D30220000000000002E0FC000000000000284000
  0
ACAD_PROXY_OBJECT
  5
5E
102
{ACAD_REACTORS
330
47
102
}
330
47
100
AcDbProxyObject
 90
      499
 91
      503
 93
      241
310
90C312F3822203D2031272D3022000000000000300FC000000000000284000
  0
ACAD_PROXY_OBJECT
  5
5F
102
{ACAD_REACTORS
330
47
102
}
330
47
100
AcDbProxyObject
 90
      499
 91
      503
 93
      249
310
90D332F313622203D2031272D3022000000000000320FC000000000000284000
  0
ACAD_PROXY_OBJECT
  5
60
102
{ACAD_REACTORS
330
47
102
}
330
47
100
AcDbProxyObject
 90
      499
 91
      503
 93
      241
310
90C312F3422203D2031272D3022000000000000340FC000000000000284000
  0
ACAD_PROXY_OBJECT
  5
61
102
{ACAD_REACTORS
330
47
102
}
330
47
100
AcDbProxyObject
 90
      499
 91
      503
 93
      241
310
90C332F3822203D2031272D3022000000000000360FC000000000000284000
  0
ACAD_PROXY_OBJECT
  5
62
102
{ACAD_REACTORS
330
47
102
}
330
47
100
AcDbProxyObject
 90
      499
 91
      503
 93
      241
310
90C312F3222203D2031272D3022000000000000380FC000000000000284000
  0
ACAD_PROXY_OBJECT
  5
63
102
{ACAD_REACTORS
330
47
102
}
330
47
100
AcDbProxyObject
 90
      499
 91
      503
 93
      241
310
90C332F3422203D2031272D30220000000000003A0FC000000000000284000
  0
ACAD_PROXY_OBJECT
  5
64
102
{ACAD_REACTORS
330
47
102
}
330
47
100
AcDbProxyObject
 90
      499
 91
      503
 93
      161
310
90A3122203D2031272D30224000000000000284000
  0
ACAD_PROXY_OBJECT
  5
65
102
{ACAD_REACTORS
330
47
102
}
330
47
100
AcDbProxyObject
 90
      499
 91
      503
 93
      257
310
90E312D312F3222203D2031272D30220000000000003E0FC000000000000284000
  0
ACAD_PROXY_OBJECT
  5
66
102
{ACAD_REACTORS
330
47
102
}
330
47
100
AcDbProxyObject
 90
      499
 91
      503
 93
      225
310
90A3322203D2031272D302200000000000002100000000000000284000
  0
ACAD_PROXY_OBJECT
  5
67
102
{ACAD_REACTORS
330
47
102
}
330
47
100
AcDbProxyObject
 90
      499
 91
      503
 93
      225
310
90A3622203D2031272D302200000000000006100000000000000284000
  0
ACAD_PROXY_OBJECT
  5
68
102
{ACAD_REACTORS
330
47
102
}
330
47
100
AcDbProxyObject
 90
      499
 91
      503
 93
      249
310
90D31272D3022203D2031272D30220000000000000A100000000000000284000
  0
ACAD_PROXY_OBJECT
  5
2F
102
{ACAD_REACTORS
330
2A
102
}
330
2A
100
AcDbProxyObject
 90
      499
 91
      501
 93
      436
310
42CC9915DA5C99599C985B595049028333333333333E33F0000000000000F90107901411070040501600405405064090741402480A0340
1001
ACAD
1000
AcDbSavedByObjectVersion
1070
     0
  0
ACAD_PROXY_OBJECT
  5
32
102
{ACAD_REACTORS
330
2A
102
}
330
2A
100
AcDbProxyObject
 90
      499
 91
      501
 93
      388
310
4150985CDA58D07406404333333333333E33F0000000000000F90107A41107004050150841D405064090741402480A0350
1001
ACAD
1000
AcDbSavedByObjectVersion
1070
     0
  0
ACAD_PROXY_OBJECT
  5
36
102
{ACAD_REACTORS
330
2A
102
}
330
2A
100
AcDbProxyObject
 90
      499
 91
      501
 93
      428
310
42109C9A59DA1D195B90C409028333333333333E33F0000000000000F9010790141107004050150841D405064090741402480A029950
1001
ACAD
1000
AcDbSavedByObjectVersion
1070
     0
  0
ACAD_PROXY_OBJECT
  5
3A
102
{ACAD_REACTORS
330
2A
102
}
330
2A
100
AcDbProxyObject
 90
      499
 91
      501
 93
      452
310
42D0DBDB1BDC90DA185B99D95104090240C333333333333E33F0000000000000F90108901411070040501508421405064090741402480A0350
1001
ACAD
1000
AcDbSavedByObjectVersion
1070
     0
  0
ACAD_PROXY_OBJECT
  5
34
102
{ACAD_REACTORS
330
2A
102
}
330
2A
100
AcDbProxyObject
 90
      499
 91
      501
 93
      500
310
4290DBDB98D95C1D1D585B10940D028333333333333E33F0000000000000F90107902409070040501000000000018199010841D405064090740C02480A0340
1001
ACAD
1000
AcDbSavedByObjectVersion
1070
     0
  0
ACAD_PROXY_OBJECT
  5
35
102
{ACAD_REACTORS
330
2A
102
}
330
2A
100
AcDbProxyObject
 90
      499
 91
      501
 93
      412
310
40D11A5B50B409028333333333333E33F0000000000000F9010790141107004050150841D405064090741402480A02677FFFFFD0
1001
ACAD
1000
AcDbSavedByObjectVersion
1070
     0
  0
ACAD_PROXY_OBJECT
  5
3D
102
{ACAD_REACTORS
330
2A
102
}
330
2A
100
AcDbProxyObject
 90
      499
 91
      501
 93
      452
310
43115919D950DBDB1BDC93D999916409028333333333333E33F0000000000000F9010790141107004050150841D405064090741402480A0350
1001
ACAD
1000
AcDbSavedByObjectVersion
1070
     0
  0
ACAD_PROXY_OBJECT
  5
39
102
{ACAD_REACTORS
330
2A
102
}
330
2A
100
AcDbProxyObject
 90
      499
 91
      501
 93
      444
310
42D19858D95C185D1D195C9B90F409028333333333333E33F0000000000000F9010790141107004050150841D405064090741402480A0350
1001
ACAD
1000
AcDbSavedByObjectVersion
1070
     0
  0
ACAD_PROXY_OBJECT
  5
2B
102
{ACAD_REACTORS
330
2A
102
}
330
2A
100
AcDbProxyObject
 90
      499
 91
      501
 93
      380
310
41119B185D240901404333333333333E33F0000000000000F9010740A907004050150841D405064090741402480A1B50
1001
ACAD
1000
AcDbSavedByObjectVersion
1070
     0
  0
ACAD_PROXY_OBJECT
  5
2C
102
{ACAD_REACTORS
330
2A
102
}
330
2A
100
AcDbProxyObject
 90
      499
 91
      501
 93
      468
310
43519B185D15DA5D1A115919D95CD0140901404333333333333E33F0000000000000F90107409019070040501600405405064090741402480A1B50
1001
ACAD
1000
AcDbSavedByObjectVersion
1070
     0
  0
ACAD_PROXY_OBJECT
  5
2D
102
{ACAD_REACTORS
330
2A
102
}
330
2A
100
AcDbProxyObject
 90
      499
 91
      501
 93
      404
310
41D1DBDD5C985D5910240902404333333333333E33F0000000000000F9010740A9070040501641D405064090741402480A1B50
1001
ACAD
1000
AcDbSavedByObjectVersion
1070
     0
  0
ACAD_PROXY_OBJECT
  5
2E
102
{ACAD_REACTORS
330
2A
102
}
330
2A
100
AcDbProxyObject
 90
      499
 91
      501
 93
      492
310
4411DBDD5C985D5915DA5D1A115919D95CD0340902404333333333333E33F0000000000000F90107409019070040501600405405064090741402480A1B50
1001
ACAD
1000
AcDbSavedByObjectVersion
1070
     0
  0
ACAD_PROXY_OBJECT
  5
31
102
{ACAD_REACTORS
330
2A
102
}
330
2A
100
AcDbProxyObject
 90
      499
 91
      501
 93
      476
310
41921A5919195B90640502408333333333333E33F0000000000000F901079024090700405020000000000001110200405405064090740C02480A0340
1001
ACAD
1000
AcDbSavedByObjectVersion
1070
     0
  0
ACAD_PROXY_OBJECT
  5
3B
102
{ACAD_REACTORS
330
2A
102
}
330
2A
100
AcDbProxyObject
 90
      499
 91
      501
 93
      428
310
42529A5D1D195C93D999914409028333333333333E33F0000000000000F9010790141107004050150A41D405064090741402480A0350
1001
ACAD
1000
AcDbSavedByObjectVersion
1070
     0
  0
ACAD_PROXY_OBJECT
  5
38
102
{ACAD_REACTORS
330
2A
102
}
330
2A
100
AcDbProxyObject
 90
      499
 91
      501
 93
      444
310
42D31A5B995C185D1D195C9B90E409028333333333333E33F0000000000000F9010790141107004050750841D405064090741402483A0350
1001
ACAD
1000
AcDbSavedByObjectVersion
1070
     0
  0
ACAD_PROXY_OBJECT
  5
3C
102
{ACAD_REACTORS
330
2A
102
}
330
2A
100
AcDbProxyObject
 90
      499
 91
      501
 93
      444
310
42D3DD995C9A185B99D3D999915409028333333333333E33F0000000000000F9010790141107004050150941D405064090741402480A0350
1001
ACAD
1000
AcDbSavedByObjectVersion
1070
     0
  0
ACAD_PROXY_OBJECT
  5
33
102
{ACAD_REACTORS
330
2A
102
}
330
2A
100
AcDbProxyObject
 90
      499
 91
      501
 93
      428
310
425499585B1A5CDD1A58D08409038333333333333E33F0000000000000F9010740A907004050150800405405064090740C02480A1B40
1001
ACAD
1000
AcDbSavedByObjectVersion
1070
     0
  0
ACAD_PROXY_OBJECT
  5
42
102
{ACAD_REACTORS
330
2A
102
}
330
2A
100
AcDbProxyObject
 90
      499
 91
      501
 93
      420
310
4194DA1859195911B40902404333333333333E33F0000000000000F9010740A41107004050150800405405064090840C02480A0B40
1001
ACAD
1000
AcDbSavedByObjectVersion
1070
     0
  0
ACAD_PROXY_OBJECT
  5
41
102
{ACAD_REACTORS
330
2A
102
}
330
2A
100
AcDbProxyObject
 90
      499
 91
      501
 93
      516
310
4454DA18591959081DDA5D1A08195919D95CD1A40902404333333333333E33F0000000000000F901074090142907004050250800405405064090740C02480A0B40
1001
ACAD
1000
AcDbSavedByObjectVersion
1070
     0
  0
ACAD_PROXY_OBJECT
  5
3E
102
{ACAD_REACTORS
330
2A
102
}
330
2A
100
AcDbProxyObject
 90
      499
 91
      501
 93
      532
310
4394DA1859195CC81BD98811DC985E5174090240C333333333333E33F0000000000000F901079024090741D01000000000000111010841D405064090740C02480A0340
1001
ACAD
1000
AcDbSavedByObjectVersion
1070
     0
  0
ACAD_PROXY_OBJECT
  5
3F
102
{ACAD_REACTORS
330
2A
102
}
330
2A
100
AcDbProxyObject
 90
      499
 91
      501
 93
      476
310
41D4DAD95D18DA1E51840502408333333333333E33F0000000000000F901079024090741D01000000000000111010B41D405064090741802480A0340
1001
ACAD
1000
AcDbSavedByObjectVersion
1070
     0
  0
ACAD_PROXY_OBJECT
  5
37
102
{ACAD_REACTORS
330
2A
102
}
330
2A
100
AcDbProxyObject
 90
      499
 91
      501
 93
      412
310
41D51A1A58DAD95B90D409028333333333333E33F0000000000000F9010790141107004050150C41D405064090741402480A0350
1001
ACAD
1000
AcDbSavedByObjectVersion
1070
     0
  0
ACAD_PROXY_OBJECT
  5
30
102
{ACAD_REACTORS
330
2A
102
}
330
2A
100
AcDbProxyObject
 90
      499
 91
      501
 93
      420
310
4255DA5C99599C985B595059028333333333333E33F0000000000000F90107901411070040501600405405064090740C02480A0340
1001
ACAD
1000
AcDbSavedByObjectVersion
1070
     0
  0
ACAD_PROXY_OBJECT
  5
40
102
{ACAD_REACTORS
330
2A
102
}
330
2A
100
AcDbProxyObject
 90
      499
 91
      501
 93
      404
310
41560B54985E51940902404000000000000E03F0000000000000F9010740501907004050150841D405064090740C02480A1B40
1001
ACAD
1000
AcDbSavedByObjectVersion
1070
     0
  0
XRECORD
  5
192
102
{ACAD_REACTORS
330
188
102
}
330
188
100
AcDbXrecord
340
0
  0
XRECORD
  5
191
102
{ACAD_REACTORS
330
188
102
}
330
188
100
AcDbXrecord
 90
        0
  0
XRECORD
  5
1A8
102
{ACAD_REACTORS
330
188
102
}
330
188
100
AcDbXrecord
1000
DSTYLE
1002
{
1070
   179
 70
     2
1070
   171
 70
     2
1070
   143
 40
25.4
1070
   274
 70
     2
1070
    41
 40
3.0
1070
   141
 40
0.09
1070
    43
 40
0.38
1070
   278
 70
    46
1070
    44
 40
1.5
1070
    42
 40
0.0625
1070
   147
 40
1.5
1070
   272
 70
     4
1070
    73
 70
     1
1070
   172
 70
     0
1070
    74
 70
     1
1070
   283
 70
     1
1070
   340
340
6F
1070
   140
 40
3.0
1070
   284
 70
     0
1070
    78
 70
     0
1002
}
  0
XRECORD
  5
193
102
{ACAD_REACTORS
330
188
102
}
330
188
100
AcDbXrecord
  1
{9D7935D0-E7B7-4CFA-B8A0-FEEBB21E270E}
  0
XRECORD
  5
18B
102
{ACAD_REACTORS
330
188
102
}
330
188
100
AcDbXrecord
  1

  0
XRECORD
  5
190
102
{ACAD_REACTORS
330
188
102
}
330
188
100
AcDbXrecord
 90
        4
  0
XRECORD
  5
18D
102
{ACAD_REACTORS
330
188
102
}
330
188
100
AcDbXrecord
340
1A
  0
XRECORD
  5
18F
102
{ACAD_REACTORS
330
188
102
}
330
188
100
AcDbXrecord
 90
    10269
  0
XRECORD
  5
18E
102
{ACAD_REACTORS
330
188
102
}
330
188
100
AcDbXrecord
340
19
  0
XRECORD
  5
195
102
{ACAD_REACTORS
330
188
102
}
330
188
100
AcDbXrecord
 40
0.0
  0
XRECORD
  5
198
102
{ACAD_REACTORS
330
188
102
}
330
188
100
AcDbXrecord
340
0
  0
XRECORD
  5
19E
102
{ACAD_REACTORS
330
188
102
}
330
188
100
AcDbXrecord
 10
0.0
 20
0.0
 30
0.0
  0
XRECORD
  5
19A
102
{ACAD_REACTORS
330
188
102
}
330
188
100
AcDbXrecord
 10
0.0
 20
0.0
 30
0.0
  0
XRECORD
  5
19D
102
{ACAD_REACTORS
330
188
102
}
330
188
100
AcDbXrecord
 10
0.0
 20
0.0
 30
0.0
  0
XRECORD
  5
19B
102
{ACAD_REACTORS
330
188
102
}
330
188
100
AcDbXrecord
 10
0.0
 20
0.0
 30
0.0
  0
XRECORD
  5
19C
102
{ACAD_REACTORS
330
188
102
}
330
188
100
AcDbXrecord
 10
0.0
 20
0.0
 30
0.0
  0
XRECORD
  5
199
102
{ACAD_REACTORS
330
188
102
}
330
188
100
AcDbXrecord
 10
0.0
 20
0.0
 30
0.0
  0
XRECORD
  5
196
102
{ACAD_REACTORS
330
188
102
}
330
188
100
AcDbXrecord
340
0
  0
XRECORD
  5
197
102
{ACAD_REACTORS
330
188
102
}
330
188
100
AcDbXrecord
 70
     0
  0
XRECORD
  5
18C
102
{ACAD_REACTORS
330
188
102
}
330
188
100
AcDbXrecord
  1

  0
XRECORD
  5
189
102
{ACAD_REACTORS
330
188
102
}
330
188
100
AcDbXrecord
 90
        1
  0
XRECORD
  5
18A
102
{ACAD_REACTORS
330
188
102
}
330
188
100
AcDbXrecord
 90
       70
  0
XRECORD
  5
1A1
102
{ACAD_REACTORS
330
188
102
}
330
188
100
AcDbXrecord
340
0
  0
XRECORD
  5
1A7
102
{ACAD_REACTORS
330
188
102
}
330
188
100
AcDbXrecord
 10
0.0
 20
0.0
 30
0.0
  0
XRECORD
  5
1A3
102
{ACAD_REACTORS
330
188
102
}
330
188
100
AcDbXrecord
 10
0.0
 20
0.0
 30
0.0
  0
XRECORD
  5
1A6
102
{ACAD_REACTORS
330
188
102
}
330
188
100
AcDbXrecord
 10
0.0
 20
0.0
 30
0.0
  0
XRECORD
  5
1A4
102
{ACAD_REACTORS
330
188
102
}
330
188
100
AcDbXrecord
 10
0.0
 20
0.0
 30
0.0
  0
XRECORD
  5
1A5
102
{ACAD_REACTORS
330
188
102
}
330
188
100
AcDbXrecord
 10
0.0
 20
0.0
 30
0.0
  0
XRECORD
  5
1A2
102
{ACAD_REACTORS
330
188
102
}
330
188
100
AcDbXrecord
 10
0.0
 20
0.0
 30
0.0
  0
XRECORD
  5
19F
102
{ACAD_REACTORS
330
188
102
}
330
188
100
AcDbXrecord
340
0
  0
XRECORD
  5
1A0
102
{ACAD_REACTORS
330
188
102
}
330
188
100
AcDbXrecord
 70
     0
  0
XRECORD
  5
194
102
{ACAD_REACTORS
330
188
102
}
330
188
100
AcDbXrecord
  1
{FAEB1C32-E019-11D5-929B-00C0DF256EC4}
  0
DICTIONARYVAR
  5
1B2
102
{ACAD_REACTORS
330
1A9
102
}
330
1A9
100
DictionaryVariables
280
     0
  1
1:1
  0
DICTIONARYVAR
  5
1AB
102
{ACAD_REACTORS
330
1A9
102
}
330
1A9
100
DictionaryVariables
280
     0
  1
Standard
  0
DICTIONARYVAR
  5
1AA
102
{ACAD_REACTORS
330
1A9
102
}
330
1A9
100
DictionaryVariables
280
     0
  1
Standard
  0
DICTIONARYVAR
  5
1AE
102
{ACAD_REACTORS
330
1A9
102
}
330
1A9
100
DictionaryVariables
280
     0
  1
2
  0
DICTIONARYVAR
  5
1AF
102
{ACAD_REACTORS
330
1A9
102
}
330
1A9
100
DictionaryVariables
280
     0
  1
1
  0
DICTIONARYVAR
  5
1B3
102
{ACAD_REACTORS
330
1A9
102
}
330
1A9
100
DictionaryVariables
280
     0
  1
1
  0
DICTIONARY
  5
1B6
330
45
100
AcDbDictionary
280
     1
  3
ACAD_XREC_ROUNDTRIP
360
1B7
  0
DICTIONARY
  5
1B4
330
44
100
AcDbDictionary
280
     1
  3
ACAD_XREC_ROUNDTRIP
360
1B5
  0
DICTIONARY
  5
1B8
330
46
100
AcDbDictionary
280
     1
  3
ACAD_XREC_ROUNDTRIP
360
1B9
  0
XRECORD
  5
1B7
102
{ACAD_REACTORS
330
1B6
102
}
330
1B6
100
AcDbXrecord
102
MATERIAL
148
0.0
149
0.0
149
0.0
 93
        0
 94
      127
282
     0
 72
     1
 77
     1
171
     1
175
     1
179
     1
273
     0
  0
XRECORD
  5
1B5
102
{ACAD_REACTORS
330
1B4
102
}
330
1B4
100
AcDbXrecord
102
MATERIAL
148
0.0
149
0.0
149
0.0
 93
        0
 94
      127
282
     0
 72
     1
 77
     1
171
     1
175
     1
179
     1
273
     0
  0
XRECORD
  5
1B9
102
{ACAD_REACTORS
330
1B8
102
}
330
1B8
100
AcDbXrecord
102
MATERIAL
148
0.0
149
0.0
149
0.0
 93
        0
 94
      127
282
     0
 72
     1
 77
     1
171
     1
175
     1
179
     1
273
     0
  0
ENDSEC
  0
EOF
