  0
SECTION
  2
HEADER
  9
$ACADVER
  1
AC1014
  9
$ACADMAINTVER
 70
     9
  9
$DWGCODEPAGE
  3
ANSI_932
  9
$INSBASE
 10
0.0
 20
0.0
 30
0.0
  9
$EXTMIN
 10
-467.8333333333334
 20
88.35569275978496
 30
0.0
  9
$EXTMAX
 10
-119.9999999999999
 20
399.7
 30
0.0
  9
$LIMMIN
 10
0.0
 20
0.0
  9
$LIMMAX
 10
12.0
 20
9.0
  9
$ORTHOMODE
 70
     0
  9
$REGENMODE
 70
     1
  9
$FILLMODE
 70
     1
  9
$QTEXTMODE
 70
     0
  9
$MIRRTEXT
 70
     1
  9
$DRAGMODE
 70
     2
  9
$LTSCALE
 40
1.0
  9
$OSMODE
 70
    37
  9
$ATTMODE
 70
     1
  9
$TEXTSIZE
 40
0.2
  9
$TRACEWID
 40
0.05
  9
$TEXTSTYLE
  7
STANDARD
  9
$CLAYER
  8
0
  9
$CELTYPE
  6
BYLAYER
  9
$CECOLOR
 62
   256
  9
$CELTSCALE
 40
1.0
  9
$DELOBJ
 70
     1
  9
$DISPSILH
 70
     0
  9
$DIMSCALE
 40
1.0
  9
$DIMASZ
 40
3.0
  9
$DIMEXO
 40
0.0625
  9
$DIMDLI
 40
0.38
  9
$DIMRND
 40
0.0
  9
$DIMDLE
 40
0.0
  9
$DIMEXE
 40
1.5
  9
$DIMTP
 40
0.0
  9
$DIMTM
 40
0.0
  9
$DIMTXT
 40
3.0
  9
$DIMCEN
 40
0.09
  9
$DIMTSZ
 40
0.0
  9
$DIMTOL
 70
     0
  9
$DIMLIM
 70
     0
  9
$DIMTIH
 70
     1
  9
$DIMTOH
 70
     1
  9
$DIMSE1
 70
     0
  9
$DIMSE2
 70
     0
  9
$DIMTAD
 70
     1
  9
$DIMZIN
 70
     0
  9
$DIMBLK
  1

  9
$DIMASO
 70
     1
  9
$DIMSHO
 70
     1
  9
$DIMPOST
  1

  9
$DIMAPOST
  1

  9
$DIMALT
 70
     0
  9
$DIMALTD
 70
     2
  9
$DIMALTF
 40
25.4
  9
$DIMLFAC
 40
1.0
  9
$DIMTOFL
 70
     0
  9
$DIMTVP
 40
0.0
  9
$DIMTIX
 70
     0
  9
$DIMSOXD
 70
     0
  9
$DIMSAH
 70
     0
  9
$DIMBLK1
  1

  9
$DIMBLK2
  1

  9
$DIMSTYLE
  2
STANDARD
  9
$DIMCLRD
 70
     0
  9
$DIMCLRE
 70
     0
  9
$DIMCLRT
 70
     0
  9
$DIMTFAC
 40
1.0
  9
$DIMGAP
 40
1.5
  9
$DIMJUST
 70
     0
  9
$DIMSD1
 70
     0
  9
$DIMSD2
 70
     0
  9
$DIMTOLJ
 70
     1
  9
$DIMTZIN
 70
     0
  9
$DIMALTZ
 70
     0
  9
$DIMALTTZ
 70
     0
  9
$DIMFIT
 70
     3
  9
$DIMUPT
 70
     0
  9
$DIMUNIT
 70
     2
  9
$DIMDEC
 70
     2
  9
$DIMTDEC
 70
     4
  9
$DIMALTU
 70
     2
  9
$DIMALTTD
 70
     2
  9
$DIMTXSTY
  7
ＭＳ_ゴシック
  9
$DIMAUNIT
 70
     0
  9
$LUNITS
 70
     2
  9
$LUPREC
 70
     4
  9
$SKETCHINC
 40
0.1
  9
$FILLETRAD
 40
0.5
  9
$AUNITS
 70
     0
  9
$AUPREC
 70
     0
  9
$MENU
  1
.
  9
$ELEVATION
 40
0.0
  9
$PELEVATION
 40
0.0
  9
$THICKNESS
 40
0.0
  9
$LIMCHECK
 70
     0
  9
$CHAMFERA
 40
0.0
  9
$CHAMFERB
 40
0.0
  9
$CHAMFERC
 40
0.0
  9
$CHAMFERD
 40
0.0
  9
$SKPOLY
 70
     0
  9
$TDCREATE
 40
2460017.533065752
  9
$TDUPDATE
 40
2460017.533065949
  9
$TDINDWG
 40
0.0000000116
  9
$TDUSRTIMER
 40
0.0000000116
  9
$USRTIMER
 70
     1
  9
$ANGBASE
 50
0.0
  9
$ANGDIR
 70
     0
  9
$PDMODE
 70
     0
  9
$PDSIZE
 40
0.0
  9
$PLINEWID
 40
0.0
  9
$COORDS
 70
     1
  9
$SPLFRAME
 70
     0
  9
$SPLINETYPE
 70
     6
  9
$SPLINESEGS
 70
     8
  9
$ATTDIA
 70
     0
  9
$ATTREQ
 70
     1
  9
$HANDLING
 70
     1
  9
$HANDSEED
  5
1D2
  9
$SURFTAB1
 70
     6
  9
$SURFTAB2
 70
     6
  9
$SURFTYPE
 70
     6
  9
$SURFU
 70
     6
  9
$SURFV
 70
     6
  9
$UCSNAME
  2

  9
$UCSORG
 10
0.0
 20
0.0
 30
0.0
  9
$UCSXDIR
 10
1.0
 20
0.0
 30
0.0
  9
$UCSYDIR
 10
0.0
 20
1.0
 30
0.0
  9
$PUCSNAME
  2

  9
$PUCSORG
 10
0.0
 20
0.0
 30
0.0
  9
$PUCSXDIR
 10
1.0
 20
0.0
 30
0.0
  9
$PUCSYDIR
 10
0.0
 20
1.0
 30
0.0
  9
$USERI1
 70
     0
  9
$USERI2
 70
     0
  9
$USERI3
 70
     0
  9
$USERI4
 70
     0
  9
$USERI5
 70
     0
  9
$USERR1
 40
0.0
  9
$USERR2
 40
0.0
  9
$USERR3
 40
0.0
  9
$USERR4
 40
0.0
  9
$USERR5
 40
0.0
  9
$WORLDVIEW
 70
     1
  9
$SHADEDGE
 70
     3
  9
$SHADEDIF
 70
    70
  9
$TILEMODE
 70
     1
  9
$MAXACTVP
 70
    64
  9
$PINSBASE
 10
0.0
 20
0.0
 30
0.0
  9
$PLIMCHECK
 70
     0
  9
$PEXTMIN
 10
1.000000000000000E+20
 20
1.000000000000000E+20
 30
1.000000000000000E+20
  9
$PEXTMAX
 10
-1.000000000000000E+20
 20
-1.000000000000000E+20
 30
-1.000000000000000E+20
  9
$PLIMMIN
 10
0.0
 20
0.0
  9
$PLIMMAX
 10
12.0
 20
9.0
  9
$UNITMODE
 70
     0
  9
$VISRETAIN
 70
     1
  9
$PLINEGEN
 70
     0
  9
$PSLTSCALE
 70
     1
  9
$TREEDEPTH
 70
  3020
  9
$PICKSTYLE
 70
     1
  9
$CMLSTYLE
  2
STANDARD
  9
$CMLJUST
 70
     0
  9
$CMLSCALE
 40
1.0
  9
$PROXYGRAPHICS
 70
     1
  9
$MEASUREMENT
 70
     1
  0
ENDSEC
  0
SECTION
  2
CLASSES
  0
CLASS
  1
ACDBDICTIONARYWDFLT
  2
AcDbDictionaryWithDefault
  3
ObjectDBX Classes
 90
        0
280
     0
281
     0
  0
CLASS
  1
VISUALSTYLE
  2
AcDbVisualStyle
  3
ObjectDBX Classes
 90
     4095
280
     0
281
     0
  0
CLASS
  1
MATERIAL
  2
AcDbMaterial
  3
ObjectDBX Classes
 90
     1153
280
     0
281
     0
  0
CLASS
  1
SCALE
  2
AcDbScale
  3
ObjectDBX Classes
 90
     1153
280
     0
281
     0
  0
CLASS
  1
TABLESTYLE
  2
AcDbTableStyle
  3
ObjectDBX Classes
 90
     4095
280
     0
281
     0
  0
CLASS
  1
MLEADERSTYLE
  2
AcDbMLeaderStyle
  3
ACDB_MLEADERSTYLE_CLASS
 90
     4095
280
     0
281
     0
  0
CLASS
  1
SUN
  2
AcDbSun
  3
SCENEOE
 90
     1153
280
     0
281
     0
  0
CLASS
  1
DICTIONARYVAR
  2
AcDbDictionaryVar
  3
ObjectDBX Classes
 90
        0
280
     0
281
     0
  0
CLASS
  1
XRECORD
  2
AcDbXrecord
  3
ObjectDBX Classes
 90
        0
280
     0
281
     0
  0
CLASS
  1
LWPOLYLINE
  2
AcDbPolyline
  3
ObjectDBX Classes
 90
        0
280
     0
281
     1
  0
CLASS
  1
HATCH
  2
AcDbHatch
  3
ObjectDBX Classes
 90
        0
280
     0
281
     1
  0
CLASS
  1
ACDBPLACEHOLDER
  2
AcDbPlaceHolder
  3
ObjectDBX Classes
 90
        0
280
     0
281
     0
  0
CLASS
  1
LAYOUT
  2
AcDbLayout
  3
ObjectDBX Classes
 90
        0
280
     0
281
     0
  0
ENDSEC
  0
SECTION
  2
TABLES
  0
TABLE
  2
VPORT
  5
8
102
{ACAD_XDICTIONARY
360
1C7
102
}
330
0
100
AcDbSymbolTable
 70
     1
  0
VPORT
  5
29
330
8
100
AcDbSymbolTableRecord
100
AcDbViewportTableRecord
  2
*ACTIVE
 70
     0
 10
0.0
 20
0.0
 11
1.0
 21
1.0
 12
-293.9166666666666
 22
244.0278463798925
 13
0.0
 23
0.0
 14
0.5
 24
0.5
 15
0.5
 25
0.5
 16
0.0
 26
0.0
 36
1.0
 17
0.0
 27
0.0
 37
0.0
 40
311.344307240215
 41
1.6
 42
50.0
 43
0.0
 44
0.0
 50
0.0
 51
0.0
 71
     0
 72
   100
 73
     1
 74
     3
 75
     0
 76
     0
 77
     0
 78
     0
  0
ENDTAB
  0
TABLE
  2
LTYPE
  5
5
330
0
100
AcDbSymbolTable
 70
     2
  0
LTYPE
  5
14
330
5
100
AcDbSymbolTableRecord
100
AcDbLinetypeTableRecord
  2
BYBLOCK
 70
     0
  3

 72
    65
 73
     0
 40
0.0
  0
LTYPE
  5
15
330
5
100
AcDbSymbolTableRecord
100
AcDbLinetypeTableRecord
  2
BYLAYER
 70
     0
  3

 72
    65
 73
     0
 40
0.0
  0
LTYPE
  5
16
330
5
100
AcDbSymbolTableRecord
100
AcDbLinetypeTableRecord
  2
CONTINUOUS
 70
     0
  3
Solid line
 72
    65
 73
     0
 40
0.0
  0
LTYPE
  5
199
330
5
100
AcDbSymbolTableRecord
100
AcDbLinetypeTableRecord
  2
CENTER
 70
     0
  3

 72
    65
 73
     0
 40
0.0
  0
ENDTAB
  0
TABLE
  2
LAYER
  5
2
330
0
100
AcDbSymbolTable
 70
     2
  0
LAYER
  5
10
330
2
100
AcDbSymbolTableRecord
100
AcDbLayerTableRecord
  2
0
 70
     0
 62
     7
  6
CONTINUOUS
  0
LAYER
  5
6E
330
2
100
AcDbSymbolTableRecord
100
AcDbLayerTableRecord
  2
1
 70
     0
 62
     7
  6
CONTINUOUS
  0
ENDTAB
  0
TABLE
  2
STYLE
  5
3
330
0
100
AcDbSymbolTable
 70
     2
  0
STYLE
  5
11
330
3
100
AcDbSymbolTableRecord
100
AcDbTextStyleTableRecord
  2
STANDARD
 70
     0
 40
0.0
 41
1.0
 50
0.0
 71
     0
 42
0.2
  3
txt
  4

  0
STYLE
  5
6F
330
3
100
AcDbSymbolTableRecord
100
AcDbTextStyleTableRecord
  2
ＭＳ_ゴシック
 70
     0
 40
0.0
 41
1.0
 50
0.0
 71
     0
 42
0.2
  3
ＭＳ ゴシック.shx
  4

  0
ENDTAB
  0
TABLE
  2
VIEW
  5
6
330
0
100
AcDbSymbolTable
 70
     0
  0
ENDTAB
  0
TABLE
  2
UCS
  5
7
330
0
100
AcDbSymbolTable
 70
     0
  0
ENDTAB
  0
TABLE
  2
APPID
  5
9
330
0
100
AcDbSymbolTable
 70
     2
  0
APPID
  5
12
330
9
100
AcDbSymbolTableRecord
100
AcDbRegAppTableRecord
  2
ACAD
 70
     0
  0
APPID
  5
1D1
330
9
100
AcDbSymbolTableRecord
100
AcDbRegAppTableRecord
  2
ACAD_MLEADERVER
 70
     0
  0
ENDTAB
  0
TABLE
  2
DIMSTYLE
  5
A
330
0
100
AcDbSymbolTable
 70
     1
  0
DIMSTYLE
105
27
330
A
100
AcDbSymbolTableRecord
100
AcDbDimStyleTableRecord
  2
STANDARD
 70
     0
  3

  4

  5

  6

  7

 40
1.0
 41
0.18
 42
0.0625
 43
0.38
 44
0.18
 45
0.0
 46
0.0
 47
0.0
 48
0.0
140
0.18
141
0.09
142
0.0
143
25.4
144
1.0
145
0.0
146
1.0
147
0.09
 71
     0
 72
     0
 73
     1
 74
     1
 75
     0
 76
     0
 77
     0
 78
     0
170
     0
171
     2
172
     0
173
     0
174
     0
175
     0
176
     0
177
     0
178
     0
270
     2
271
     4
272
     4
273
     2
274
     2
340
11
275
     0
280
     0
281
     0
282
     0
283
     1
284
     0
285
     0
286
     0
287
     3
288
     0
  0
ENDTAB
  0
TABLE
  2
BLOCK_RECORD
  5
1
330
0
100
AcDbSymbolTable
 70
     0
  0
BLOCK_RECORD
  5
1F
330
1
100
AcDbSymbolTableRecord
100
AcDbBlockTableRecord
  2
*MODEL_SPACE
  0
BLOCK_RECORD
  5
1B
330
1
100
AcDbSymbolTableRecord
100
AcDbBlockTableRecord
  2
*PAPER_SPACE
  0
ENDTAB
  0
ENDSEC
  0
SECTION
  2
BLOCKS
  0
BLOCK
  5
20
330
1F
100
AcDbEntity
  8
0
100
AcDbBlockBegin
  2
*MODEL_SPACE
 70
     0
 10
0.0
 20
0.0
 30
0.0
  3
*MODEL_SPACE
  1

  0
ENDBLK
  5
21
330
1F
100
AcDbEntity
  8
0
100
AcDbBlockEnd
  0
BLOCK
  5
1C
330
1B
100
AcDbEntity
 67
     1
  8
0
100
AcDbBlockBegin
  2
*PAPER_SPACE
 70
     0
 10
0.0
 20
0.0
 30
0.0
  3
*PAPER_SPACE
  1

  0
ENDBLK
  5
1D
330
1B
100
AcDbEntity
 67
     1
  8
0
100
AcDbBlockEnd
  0
ENDSEC
  0
SECTION
  2
ENTITIES
  0
MTEXT
  5
70
330
1F
100
AcDbEntity
  8
1
 62
     7
100
AcDbMText
 10
-193.4766797965904
 20
91.01478366887586
 30
0.0
 40
3.0
 41
0.0
 71
     1
 72
     1
  1
{\fＭＳ ゴシック;DLR-150}
  0
LINE
  5
71
330
1F
100
AcDbEntity
  8
1
  6
CONTINUOUS
 62
     7
100
AcDbLine
 10
-131.3666666666666
 20
192.7697353343116
 30
0.0
 11
-133.5324540062036
 21
192.7697353343116
 31
0.0
  0
LINE
  5
72
330
1F
100
AcDbEntity
  8
1
  6
CONTINUOUS
 62
     7
100
AcDbLine
 10
-132.0016364943913
 20
189.9086200201276
 30
0.0
 11
-129.3666666666666
 21
189.9086200201276
 31
0.0
  0
LINE
  5
73
330
1F
100
AcDbEntity
  8
1
  6
CONTINUOUS
 62
     7
100
AcDbLine
 10
-132.0505852627518
 20
188.9072296601632
 30
0.0
 11
-132.0016364943913
 21
189.9086200201276
 31
0.0
  0
LINE
  5
74
330
1F
100
AcDbEntity
  8
1
  6
CONTINUOUS
 62
     7
100
AcDbLine
 10
-133.8675250296725
 20
192.7521750060695
 30
0.0
 11
-134.0554690589141
 21
188.9072296601632
 31
0.0
  0
LINE
  5
75
330
1F
100
AcDbEntity
  8
1
  6
CONTINUOUS
 62
     7
100
AcDbLine
 10
-131.3666666666666
 20
192.8832394391761
 30
0.0
 11
-131.3666666666666
 21
192.7697353343116
 31
0.0
  0
LINE
  5
76
330
1F
100
AcDbEntity
  8
1
  6
CONTINUOUS
 62
     7
100
AcDbLine
 10
-129.3666666666666
 20
189.9086200201276
 30
0.0
 11
-129.3666666666666
 21
192.9880549977421
 31
0.0
  0
LINE
  5
77
330
1F
100
AcDbEntity
  8
1
  6
CONTINUOUS
 62
     7
100
AcDbLine
 10
-134.508962974371
 20
189.3231605561792
 30
0.0
 11
-134.3727620964476
 21
188.1063968761106
 31
0.0
  0
LINE
  5
78
330
1F
100
AcDbEntity
  8
1
  6
CONTINUOUS
 62
     7
100
AcDbLine
 10
-134.508962974371
 20
189.3231605561792
 30
0.0
 11
-134.6237070344265
 21
192.7105323653734
 31
0.0
  0
LINE
  5
79
330
1F
100
AcDbEntity
  8
1
  6
CONTINUOUS
 62
     7
100
AcDbLine
 10
-134.1114105084689
 20
188.4257981314018
 30
0.0
 11
-134.0554690589141
 21
188.9072296601632
 31
0.0
  0
LINE
  5
7A
330
1F
100
AcDbEntity
  8
1
  6
CONTINUOUS
 62
     7
100
AcDbLine
 10
-134.1114105084689
 20
188.4257981314018
 30
0.0
 11
-134.3271454368589
 21
188.1033118073294
 31
0.0
  0
LINE
  5
7B
330
1F
100
AcDbEntity
  8
1
  6
CONTINUOUS
 62
     7
100
AcDbLine
 10
-132.0505852627518
 20
188.9072296601632
 30
0.0
 11
-132.1065267123066
 21
188.4257981314018
 31
0.0
  0
LINE
  5
7C
330
1F
100
AcDbEntity
  8
1
  6
CONTINUOUS
 62
     7
100
AcDbLine
 10
-132.3432798040569
 20
188.0718932962362
 30
0.0
 11
-132.1065267123066
 21
188.4257981314018
 31
0.0
  0
LINE
  5
7D
330
1F
100
AcDbEntity
  8
1
  6
CONTINUOUS
 62
     7
100
AcDbLine
 10
-134.3727620964476
 20
188.1063968761106
 30
0.0
 11
-134.3271454368589
 21
188.1033118073294
 31
0.0
  0
LINE
  5
7E
330
1F
100
AcDbEntity
  8
1
  6
CONTINUOUS
 62
     7
100
AcDbLine
 10
-132.3432798040569
 20
188.0718932962361
 30
0.0
 11
-132.3890430574734
 21
188.0752261231632
 31
0.0
  0
LINE
  5
7F
330
1F
100
AcDbEntity
  8
1
  6
CONTINUOUS
 62
     7
100
AcDbLine
 10
-132.0016364943913
 20
213.4247133132058
 30
0.0
 11
-132.0016364943913
 21
198.8383921811378
 31
0.0
  0
LINE
  5
80
330
1F
100
AcDbEntity
  8
1
  6
CONTINUOUS
 62
     7
100
AcDbLine
 10
-132.573175723149
 20
199.6927442618172
 30
0.0
 11
-132.0016364943913
 21
198.8383921811378
 31
0.0
  0
LINE
  5
81
330
1F
100
AcDbEntity
  8
1
  6
CONTINUOUS
 62
     7
100
AcDbLine
 10
-132.7122600445006
 20
201.6808469641533
 30
0.0
 11
-132.573175723149
 21
199.6927442618172
 31
0.0
  0
ARC
  5
82
330
1F
100
AcDbEntity
  8
1
  6
CONTINUOUS
 62
     7
100
AcDbCircle
 10
124.7129246338721
 20
203.9655817160333
 30
0.0
 40
257.4353233718729
100
AcDbArc
 50
177.7592680325998
 51
180.5085058857033
  0
LINE
  5
83
330
1F
100
AcDbEntity
  8
1
  6
CONTINUOUS
 62
     7
100
AcDbLine
 10
-132.3432798040569
 20
215.2614400370972
 30
0.0
 11
-132.3890430574734
 21
215.2581072101702
 31
0.0
  0
LINE
  5
84
330
1F
100
AcDbEntity
  8
1
  6
CONTINUOUS
 62
     7
100
AcDbLine
 10
-132.3432798040569
 20
215.2614400370972
 30
0.0
 11
-132.1065267123066
 21
214.9075352019316
 31
0.0
  0
LINE
  5
85
330
1F
100
AcDbEntity
  8
1
  6
CONTINUOUS
 62
     7
100
AcDbLine
 10
-132.0505852627518
 20
214.4261036731702
 30
0.0
 11
-132.1065267123066
 21
214.9075352019316
 31
0.0
  0
LINE
  5
86
330
1F
100
AcDbEntity
  8
1
  6
CONTINUOUS
 62
     7
100
AcDbLine
 10
-132.0505852627518
 20
214.4261036731702
 30
0.0
 11
-132.0016364943913
 21
213.4247133132058
 31
0.0
  0
ARC
  5
87
330
1F
100
AcDbEntity
  8
1
  6
CONTINUOUS
 62
     7
100
AcDbCircle
 10
116.5148285717937
 20
203.9982916194771
 30
0.0
 40
251.2233701042317
100
AcDbArc
 50
177.7160146846046
 51
180.5355639085545
  0
LINE
  5
88
330
1F
100
AcDbEntity
  8
1
  6
CONTINUOUS
 62
     7
100
AcDbLine
 10
-134.5584935644995
 20
199.6634965507891
 30
0.0
 11
-134.6975665402589
 21
201.6500521526095
 31
0.0
  0
LINE
  5
89
330
1F
100
AcDbEntity
  8
1
  6
CONTINUOUS
 62
     7
100
AcDbLine
 10
-132.0016364943913
 20
198.8383921811378
 30
0.0
 11
-129.3666666666666
 21
198.8383921811378
 31
0.0
  0
LINE
  5
8A
330
1F
100
AcDbEntity
  8
1
  6
CONTINUOUS
 62
     7
100
AcDbLine
 10
-129.3666666666666
 20
198.8383921811378
 30
0.0
 11
-129.3666666666666
 21
197.6885790851936
 31
0.0
  0
LINE
  5
8B
330
1F
100
AcDbEntity
  8
1
  6
CONTINUOUS
 62
     7
100
AcDbLine
 10
-131.3666666666666
 20
197.6885790851936
 30
0.0
 11
-131.3666666666666
 21
198.6293352546025
 31
0.0
  0
LINE
  5
8C
330
1F
100
AcDbEntity
  8
1
  6
CONTINUOUS
 62
     7
100
AcDbLine
 10
-131.3666666666666
 20
198.6293352546025
 30
0.0
 11
-133.8666666666666
 21
198.6293352546025
 31
0.0
  0
LINE
  5
8D
330
1F
100
AcDbEntity
  8
1
  6
CONTINUOUS
 62
     7
100
AcDbLine
 10
-133.8666666666666
 20
198.6293352546025
 30
0.0
 11
-134.5584935644995
 21
199.6634965507891
 31
0.0
  0
LINE
  5
8E
330
1F
100
AcDbEntity
  8
1
  6
CONTINUOUS
 62
     7
100
AcDbLine
 10
-132.3890430574734
 20
215.2581072101702
 30
0.0
 11
-132.5255569307555
 21
214.0308349123257
 31
0.0
  0
LINE
  5
8F
330
1F
100
AcDbEntity
  8
1
  6
CONTINUOUS
 62
     7
100
AcDbLine
 10
-134.508962974371
 20
214.0101727771542
 30
0.0
 11
-134.3727620964476
 21
215.2269364572228
 31
0.0
  0
LINE
  5
90
330
1F
100
AcDbEntity
  8
1
  6
CONTINUOUS
 62
     7
100
AcDbLine
 10
-132.0016364943913
 20
213.4247133132058
 30
0.0
 11
-129.3666666666666
 21
213.4247133132058
 31
0.0
  0
LINE
  5
91
330
1F
100
AcDbEntity
  8
1
  6
CONTINUOUS
 62
     7
100
AcDbLine
 10
-129.3666666666666
 20
213.4247133132058
 30
0.0
 11
-129.3666666666666
 21
198.8383921811378
 31
0.0
  0
LINE
  5
92
330
1F
100
AcDbEntity
  8
1
  6
CONTINUOUS
 62
     7
100
AcDbLine
 10
-131.3666666666666
 20
197.6885790851936
 30
0.0
 11
-131.3666666666666
 21
197.6666666666667
 31
0.0
  0
LINE
  5
93
330
1F
100
AcDbEntity
  8
1
  6
CONTINUOUS
 62
     7
100
AcDbLine
 10
-162.3666666666666
 20
111.6666666666669
 30
0.0
 11
-162.3666666666666
 21
201.6666666666667
 31
0.0
  0
LINE
  5
94
330
1F
100
AcDbEntity
  8
1
  6
CONTINUOUS
 62
     7
100
AcDbLine
 10
-162.3666666666666
 20
201.6666666666667
 30
0.0
 11
-162.3666666666666
 21
291.6666666666664
 31
0.0
  0
LINE
  5
95
330
1F
100
AcDbEntity
  8
1
  6
CONTINUOUS
 62
     7
100
AcDbLine
 10
-166.3666666666666
 20
113.8492836688054
 30
0.0
 11
-166.3666666666666
 21
289.484049664528
 31
0.0
  0
LINE
  5
96
330
1F
100
AcDbEntity
  8
1
  6
CONTINUOUS
 62
     7
100
AcDbLine
 10
-159.2666666666667
 20
203.6666666666667
 30
0.0
 11
-159.2666666666667
 21
199.6666666666667
 31
0.0
  0
LINE
  5
97
330
1F
100
AcDbEntity
  8
1
  6
CONTINUOUS
 62
     7
100
AcDbLine
 10
-127.3166666666667
 20
199.6666666666667
 30
0.0
 11
-127.3166666666667
 21
203.6666666666667
 31
0.0
  0
LINE
  5
98
330
1F
100
AcDbEntity
  8
1
  6
CONTINUOUS
 62
     7
100
AcDbLine
 10
-126.9666666666666
 20
203.3166666666667
 30
0.0
 11
-126.9666666666666
 21
200.0166666666667
 31
0.0
  0
LINE
  5
99
330
1F
100
AcDbEntity
  8
1
  6
CONTINUOUS
 62
     7
100
AcDbLine
 10
-153.0666666666591
 20
236.0011019745919
 30
0.0
 11
-155.3666666666671
 21
235.9470140785115
 31
0.0
  0
LINE
  5
9A
330
1F
100
AcDbEntity
  8
1
  6
CONTINUOUS
 62
     7
100
AcDbLine
 10
-155.0666666666663
 20
238.0434490373823
 30
0.0
 11
-155.3666666666659
 21
238.0393339825135
 31
0.0
  0
LINE
  5
9B
330
1F
100
AcDbEntity
  8
1
  6
CONTINUOUS
 62
     7
100
AcDbLine
 10
-155.0666666666667
 20
239.0761613925569
 30
0.0
 11
-155.0666666666667
 21
238.0434490373823
 31
0.0
  0
LINE
  5
9C
330
1F
100
AcDbEntity
  8
1
  6
CONTINUOUS
 62
     7
100
AcDbLine
 10
-154.5666666666657
 20
239.0828148335324
 30
0.0
 11
-155.0666666666663
 21
239.0761613925569
 31
0.0
  0
LINE
  5
9D
330
1F
100
AcDbEntity
  8
1
  6
CONTINUOUS
 62
     7
100
AcDbLine
 10
-153.0666666666667
 20
236.5192626663072
 30
0.0
 11
-154.5666666666667
 21
239.0828148335323
 31
0.0
  0
LINE
  5
9E
330
1F
100
AcDbEntity
  8
1
  6
CONTINUOUS
 62
     7
100
AcDbLine
 10
-153.0666666666667
 20
236.0011019745928
 30
0.0
 11
-153.0666666666667
 21
236.5192626663072
 31
0.0
  0
LINE
  5
9F
330
1F
100
AcDbEntity
  8
1
  6
CONTINUOUS
 62
     7
100
AcDbLine
 10
-155.0666666666667
 20
165.2898842959511
 30
0.0
 11
-155.0666666666667
 21
164.2571719407765
 31
0.0
  0
LINE
  5
A0
330
1F
100
AcDbEntity
  8
1
  6
CONTINUOUS
 62
     7
100
AcDbLine
 10
-155.3666666666667
 20
165.2939993508199
 30
0.0
 11
-155.0666666666666
 21
165.2898842959511
 31
0.0
  0
LINE
  5
A1
330
1F
100
AcDbEntity
  8
1
  6
CONTINUOUS
 62
     7
100
AcDbLine
 10
-155.3666666666682
 20
167.3863192548219
 30
0.0
 11
-153.0666666666599
 21
167.3322313587415
 31
0.0
  0
LINE
  5
A2
330
1F
100
AcDbEntity
  8
1
  6
CONTINUOUS
 62
     7
100
AcDbLine
 10
-153.0666666666667
 20
166.8140706670262
 30
0.0
 11
-153.0666666666667
 21
167.3322313587406
 31
0.0
  0
LINE
  5
A3
330
1F
100
AcDbEntity
  8
1
  6
CONTINUOUS
 62
     7
100
AcDbLine
 10
-154.5666666666667
 20
164.250518499801
 30
0.0
 11
-153.0666666666667
 21
166.8140706670262
 31
0.0
  0
LINE
  5
A4
330
1F
100
AcDbEntity
  8
1
  6
CONTINUOUS
 62
     7
100
AcDbLine
 10
-155.0666666666667
 20
164.2571719407765
 30
0.0
 11
-154.5666666666666
 21
164.250518499801
 31
0.0
  0
LINE
  5
A5
330
1F
100
AcDbEntity
  8
1
  6
CONTINUOUS
 62
     7
100
AcDbLine
 10
-155.3666666666633
 20
164.0901450519833
 30
0.0
 11
-155.0666666666656
 21
164.0902377064888
 31
0.0
  0
LINE
  5
A6
330
1F
100
AcDbEntity
  8
1
  6
CONTINUOUS
 62
     7
100
AcDbLine
 10
-155.0666666666655
 20
239.2430956268445
 30
0.0
 11
-155.3666666666622
 21
239.2431882813501
 31
0.0
  0
LINE
  5
A7
330
1F
100
AcDbEntity
  8
1
  6
CONTINUOUS
 62
     7
100
AcDbLine
 10
-154.5666666666667
 20
163.089777503548
 30
0.0
 11
-154.5666666666667
 21
164.250518499801
 31
0.0
  0
LINE
  5
A8
330
1F
100
AcDbEntity
  8
1
  6
CONTINUOUS
 62
     7
100
AcDbLine
 10
-155.0666666666684
 20
163.0896266895081
 30
0.0
 11
-154.566666666666
 21
163.089777503548
 31
0.0
  0
LINE
  5
A9
330
1F
100
AcDbEntity
  8
1
  6
CONTINUOUS
 62
     7
100
AcDbLine
 10
-155.0666666666667
 20
163.089626689508
 30
0.0
 11
-155.0666666666667
 21
164.2571719407765
 31
0.0
  0
LINE
  5
AA
330
1F
100
AcDbEntity
  8
1
  6
CONTINUOUS
 62
     7
100
AcDbLine
 10
-154.5666666666667
 20
239.0828148335323
 30
0.0
 11
-154.5666666666667
 21
240.2435558297853
 31
0.0
  0
LINE
  5
AB
330
1F
100
AcDbEntity
  8
1
  6
CONTINUOUS
 62
     7
100
AcDbLine
 10
-155.0666666666667
 20
239.0761613925569
 30
0.0
 11
-155.0666666666667
 21
240.2437066438253
 31
0.0
  0
LINE
  5
AC
330
1F
100
AcDbEntity
  8
1
  6
CONTINUOUS
 62
     7
100
AcDbLine
 10
-154.5666666666659
 20
240.2435558297853
 30
0.0
 11
-155.0666666666673
 21
240.2437066438252
 31
0.0
  0
LINE
  5
AD
330
1F
100
AcDbEntity
  8
1
  6
CONTINUOUS
 62
     7
100
AcDbLine
 10
-153.0666666666667
 20
166.8140706670262
 30
0.0
 11
-153.0666666666667
 21
165.5918660249221
 31
0.0
  0
LINE
  5
AE
330
1F
100
AcDbEntity
  8
1
  6
CONTINUOUS
 62
     7
100
AcDbLine
 10
-154.5666666666667
 20
163.089777503548
 30
0.0
 11
-153.0666666666667
 21
165.5918660249221
 31
0.0
  0
LINE
  5
AF
330
1F
100
AcDbEntity
  8
1
  6
CONTINUOUS
 62
     7
100
AcDbLine
 10
-153.0666666666667
 20
237.7414673084113
 30
0.0
 11
-154.5666666666667
 21
240.2435558297853
 31
0.0
  0
LINE
  5
B0
330
1F
100
AcDbEntity
  8
1
  6
CONTINUOUS
 62
     7
100
AcDbLine
 10
-153.0666666666667
 20
237.7414673084113
 30
0.0
 11
-153.0666666666667
 21
236.5192626663073
 31
0.0
  0
LINE
  5
B1
330
1F
100
AcDbEntity
  8
1
  6
CONTINUOUS
 62
     7
100
AcDbLine
 10
-159.3666666666666
 20
207.8126961555164
 30
0.0
 11
-134.6932670741754
 21
206.5196180755108
 31
0.0
  0
LINE
  5
B2
330
1F
100
AcDbEntity
  8
1
  6
CONTINUOUS
 62
     7
100
AcDbLine
 10
-159.3666666666666
 20
207.8126961555164
 30
0.0
 11
-159.3666666666666
 21
195.520637177817
 31
0.0
  0
LINE
  5
B3
330
1F
100
AcDbEntity
  8
1
  6
CONTINUOUS
 62
     7
100
AcDbLine
 10
-159.3666666666666
 20
195.520637177817
 30
0.0
 11
-129.8666666666666
 21
197.0666666666667
 31
0.0
  0
LINE
  5
B4
330
1F
100
AcDbEntity
  8
1
  6
CONTINUOUS
 62
     7
100
AcDbLine
 10
-129.8666666666666
 20
205.7674433288176
 30
0.0
 11
-129.8666666666666
 21
197.0666666666666
 31
0.0
  0
LINE
  5
B5
330
1F
100
AcDbEntity
  8
1
  6
CONTINUOUS
 62
     7
100
AcDbLine
 10
-128.3404986885452
 20
205.6874602542713
 30
0.0
 11
-129.366666240379
 21
205.7412394168352
 31
0.0
  0
LINE
  5
B6
330
1F
100
AcDbEntity
  8
1
  6
CONTINUOUS
 62
     7
100
AcDbLine
 10
-156.3666666666666
 20
275.627737707611
 30
0.0
 11
-156.3666666666666
 21
209.7602883762334
 31
0.0
  0
LINE
  5
B7
330
1F
100
AcDbEntity
  8
1
  6
CONTINUOUS
 62
     7
100
AcDbLine
 10
-156.8404986885452
 20
209.3372432716062
 30
0.0
 11
-156.3674604610954
 21
209.7603299772366
 31
0.0
  0
LINE
  5
B8
330
1F
100
AcDbEntity
  8
1
  6
CONTINUOUS
 62
     7
100
AcDbLine
 10
-156.3674604610954
 20
209.7603299772366
 30
0.0
 11
-134.6659499702371
 21
208.6230020053231
 31
0.0
  0
LINE
  5
B9
330
1F
100
AcDbEntity
  8
1
  6
CONTINUOUS
 62
     7
100
AcDbLine
 10
-128.3404986885452
 20
195.0418341826468
 30
0.0
 11
-156.3674604610954
 21
193.5730033560968
 31
0.0
  0
LINE
  5
BA
330
1F
100
AcDbEntity
  8
1
  6
CONTINUOUS
 62
     7
100
AcDbLine
 10
-156.8404986885452
 20
193.9960900617272
 30
0.0
 11
-156.3674604610954
 21
193.5730033560968
 31
0.0
  0
LINE
  5
BB
330
1F
100
AcDbEntity
  8
1
  6
CONTINUOUS
 62
     7
100
AcDbLine
 10
-156.3666666666666
 20
193.5730449571
 30
0.0
 11
-156.3666666666666
 21
127.7055956257225
 31
0.0
  0
LWPOLYLINE
  5
BC
330
1F
100
AcDbEntity
  8
1
  6
CONTINUOUS
 62
     7
100
AcDbPolyline
 90
       38
 70
     0
 43
0.0
 10
128.3404986885452
 20
205.6874602542713
 10
128.3234649912687
 20
205.6862756056811
 10
128.3064889179503
 20
205.6845109153431
 10
128.2893672119041
 20
205.6821339171608
 10
128.272415818788
 20
205.6791819190192
 10
128.2555260116085
 20
205.6756365666649
 10
128.2388746038519
 20
205.671538896739
 10
128.2222313998159
 20
205.6668295723719
 10
128.2058587541613
 20
205.6615806094564
 10
128.1905113532544
 20
205.6560870490112
 10
128.1754563744491
 20
205.650139668838
 10
128.1605667885209
 20
205.6436921283727
 10
128.1460308074997
 20
205.6368322569795
 10
128.1317790401537
 20
205.6295384270707
 10
128.1179047029471
 20
205.6218706134505
 10
128.104273951942
 20
205.6137627601096
 10
128.0910249452578
 20
205.6053044990452
 10
128.073342230313
 20
205.5930661890542
 10
128.0564017380411
 20
205.5802368972373
 10
128.0401495815549
 20
205.5668097090357
 10
128.0246573498943
 20
205.5528777547851
 10
128.0096701965912
 20
205.5382219361928
 10
127.9954687332753
 20
205.5231262240208
 10
127.9820098851398
 20
205.5075811774883
 10
127.9693319370782
 20
205.4916666767038
 10
127.954015782678
 20
205.4704914589627
 10
127.9399843160877
 20
205.4488026788233
 10
127.9271763384942
 20
205.4265742004394
 10
127.9156327427503
 20
205.4039426126317
 10
127.9051665814662
 20
205.3805452565406
 10
127.8959802439061
 20
205.3568294856279
 10
127.8880380665014
 20
205.3327645143553
 10
127.8813594023525
 20
205.3084653073891
 10
127.8750879638585
 20
205.2795258947803
 10
127.8705461734398
 20
205.2503102373589
 10
127.8677426722539
 20
205.2209303583928
 10
127.8666771653318
 20
205.1913856342514
 10
127.8666666666667
 20
205.188145486894
210
0.0
220
0.0
230
-1.0
  0
LINE
  5
BD
330
1F
100
AcDbEntity
  8
1
  6
CONTINUOUS
 62
     7
100
AcDbLine
 10
-127.8666666666667
 20
205.188145486894
 30
0.0
 11
-127.8666666666667
 21
195.5411489500242
 31
0.0
  0
ARC
  5
BE
330
1F
100
AcDbEntity
  8
1
  6
CONTINUOUS
 62
     7
100
AcDbCircle
 10
-128.3666666666666
 20
195.5411489500241
 30
0.0
 40
0.5000000000000155
100
AcDbArc
 50
273.0000000000001
 51
359.9999999999998
  0
LINE
  5
BF
330
1F
100
AcDbEntity
  8
1
  6
CONTINUOUS
 62
     7
100
AcDbLine
 10
-128.3404986885452
 20
193.0418341826469
 30
0.0
 11
-156.3666666666666
 21
191.5730449571
 31
0.0
  0
LINE
  5
C0
330
1F
100
AcDbEntity
  8
1
  6
CONTINUOUS
 62
     7
100
AcDbLine
 10
-156.3666666666666
 20
211.7602883762334
 30
0.0
 11
-134.6233937488494
 21
210.6207717282655
 31
0.0
  0
ARC
  5
C1
330
1F
100
AcDbEntity
  8
1
  6
CONTINUOUS
 62
     7
100
AcDbCircle
 10
-128.3666666666666
 20
193.5411489500241
 30
0.0
 40
0.5000000000000004
100
AcDbArc
 50
273.0000000000002
 51
0.0
  0
LINE
  5
C2
330
1F
100
AcDbEntity
  8
1
  6
CONTINUOUS
 62
     7
100
AcDbLine
 10
-127.8666666666667
 20
195.5411489500241
 30
0.0
 11
-127.8666666666667
 21
193.5411489500241
 31
0.0
  0
LINE
  5
C3
330
1F
100
AcDbEntity
  8
1
  6
CONTINUOUS
 62
     7
100
AcDbLine
 10
-155.3666666666666
 20
242.3538021701392
 30
0.0
 11
-155.3666666666666
 21
211.7078805969503
 31
0.0
  0
LINE
  5
C4
330
1F
100
AcDbEntity
  8
1
  6
CONTINUOUS
 62
     7
100
AcDbLine
 10
-156.366666664148
 20
137.3947811279767
 30
0.0
 11
-155.8623033989174
 21
137.3985820295922
 31
0.0
  0
LINE
  5
C5
330
1F
100
AcDbEntity
  8
1
  6
CONTINUOUS
 62
     7
100
AcDbLine
 10
-155.3666666666666
 20
191.6254527363831
 30
0.0
 11
-155.3666666666666
 21
137.8318108574139
 31
0.0
  0
LWPOLYLINE
  5
C6
330
1F
100
AcDbEntity
  8
1
  6
CONTINUOUS
 62
     7
100
AcDbPolyline
 90
       42
 70
     0
 43
0.0
 10
-155.8623033989174
 20
137.3985820295922
 10
-155.8451919168007
 20
137.3989640217322
 10
-155.8280893732936
 20
137.3998526910579
 10
-155.8107996169772
 20
137.4012696100621
 10
-155.7936258906316
 20
137.4031977067037
 10
-155.776462855413
 20
137.4056509145431
 10
-155.7594847838821
 20
137.408603690168
 10
-155.742465842717
 20
137.4121003970473
 10
-155.725666518284
 20
137.4160922660486
 10
-155.7098385352996
 20
137.4203586224225
 10
-155.6942634335252
 20
137.4250507776725
 10
-155.678805841908
 20
137.4302092667849
 10
-155.6636714574569
 20
137.4357628260608
 10
-155.6487871137714
 20
137.4417313285974
 10
-155.6342585562816
 20
137.448064105709
 10
-155.6199404454529
 20
137.4548203653669
 10
-155.6059889499047
 20
137.4619225642514
 10
-155.5883937076736
 20
137.4716578929237
 10
-155.5714465818352
 20
137.4819189880346
 10
-155.5549704323968
 20
137.4928031970366
 10
-155.5392116877244
 20
137.5041343742193
 10
-155.5240726709159
 20
137.5159602804679
 10
-155.509663328249
 20
137.52817179355
 10
-155.4958136991109
 20
137.5408991057191
 10
-155.4826883733691
 20
137.5539793768871
 10
-155.4672457225399
 20
137.5708450821879
 10
-155.4529313523042
 20
137.5881791239426
 10
-155.4396921544685
 20
137.6060031409262
 10
-155.4275784125137
 20
137.624208060703
 10
-155.4163958459789
 20
137.6430886787506
 10
-155.4063636751405
 20
137.6622827044475
 10
-155.3974478275923
 20
137.6818152360072
 10
-155.3896746049751
 20
137.7015911461879
 10
-155.3844141846197
 20
137.7171208674483
 10
-155.379839627181
 20
137.7327594834571
 10
-155.3759423465434
 20
137.7485192682192
 10
-155.3727284087708
 20
137.7643605167626
 10
-155.3701781255033
 20
137.7804017334454
 10
-155.3683198735975
 20
137.7964991009866
 10
-155.3671519519876
 20
137.8126655143447
 10
-155.3666781688035
 20
137.8288622847256
 10
-155.3666666666666
 20
137.8318108574138
  0
LINE
  5
C7
330
1F
100
AcDbEntity
  8
1
  6
CONTINUOUS
 62
     7
100
AcDbLine
 10
-155.3666666666666
 20
266.1273767224153
 30
0.0
 11
-155.3666666666666
 21
242.3538021701392
 31
0.0
  0
LINE
  5
C8
330
1F
100
AcDbEntity
  8
1
  6
CONTINUOUS
 62
     7
100
AcDbLine
 10
-155.3666666666666
 20
137.8318108574138
 30
0.0
 11
-155.3666666666666
 21
135.8128007481718
 31
0.0
  0
LINE
  5
C9
330
1F
100
AcDbEntity
  8
1
  6
CONTINUOUS
 62
     7
100
AcDbLine
 10
-155.3666666666666
 20
135.8128007481718
 30
0.0
 11
-155.3666666666666
 21
135.205956610918
 31
0.0
  0
LINE
  5
CA
330
1F
100
AcDbEntity
  8
1
  6
CONTINUOUS
 62
     7
100
AcDbLine
 10
-128.3404986885453
 20
208.2914991506865
 30
0.0
 11
-129.3666666666661
 21
208.3452783355912
 31
0.0
  0
ARC
  5
CB
330
1F
100
AcDbEntity
  8
1
  6
CONTINUOUS
 62
     7
100
AcDbCircle
 10
-128.3666666666666
 20
207.7921843833092
 30
0.0
 40
0.5000000000000141
100
AcDbArc
 50
0.0
 51
86.99999999999989
  0
LINE
  5
CC
330
1F
100
AcDbEntity
  8
1
  6
CONTINUOUS
 62
     7
100
AcDbLine
 10
-127.8666666666667
 20
205.1891055759481
 30
0.0
 11
-127.8666666666667
 21
207.7921843833092
 31
0.0
  0
LINE
  5
CD
330
1F
100
AcDbEntity
  8
1
  6
CONTINUOUS
 62
     7
100
AcDbLine
 10
-129.3666666666666
 20
210.3452783355912
 30
0.0
 11
-128.3404986885452
 21
210.2914991506865
 31
0.0
  0
LINE
  5
CE
330
1F
100
AcDbEntity
  8
1
  6
CONTINUOUS
 62
     7
100
AcDbLine
 10
-127.8666666666667
 20
209.7921843833092
 30
0.0
 11
-127.8666666666667
 21
207.7921843833092
 31
0.0
  0
ARC
  5
CF
330
1F
100
AcDbEntity
  8
1
  6
CONTINUOUS
 62
     7
100
AcDbCircle
 10
-128.3666666666666
 20
209.7921843833092
 30
0.0
 40
0.5000000000000141
100
AcDbArc
 50
0.0
 51
86.99999999999989
  0
LINE
  5
D0
330
1F
100
AcDbEntity
  8
1
  6
CONTINUOUS
 62
     7
100
AcDbLine
 10
-132.3890556642696
 20
215.2581040116587
 30
0.0
 11
-134.3727752323632
 21
215.2269357475121
 31
0.0
  0
LINE
  5
D1
330
1F
100
AcDbEntity
  8
1
  6
CONTINUOUS
 62
     7
100
AcDbLine
 10
-131.3666666666666
 20
197.6666666666667
 30
0.0
 11
-129.8666666666666
 21
197.6666666666667
 31
0.0
  0
LINE
  5
D2
330
1F
100
AcDbEntity
  8
1
  6
CONTINUOUS
 62
     7
100
AcDbLine
 10
-162.3666666666666
 20
291.6666666666667
 30
0.0
 11
-164.540978152162
 21
291.4764390607116
 31
0.0
  0
LINE
  5
D3
330
1F
100
AcDbEntity
  8
1
  6
CONTINUOUS
 62
     7
100
AcDbLine
 10
-164.540978152162
 20
111.8568942726218
 30
0.0
 11
-162.3666666666666
 21
111.6666666666667
 31
0.0
  0
ARC
  5
D4
330
1F
100
AcDbEntity
  8
1
  6
CONTINUOUS
 62
     7
100
AcDbCircle
 10
-164.3666666666666
 20
113.8492836688054
 30
0.0
 40
2.000000000000002
100
AcDbArc
 50
180.0000000000012
 51
265.0000000000001
  0
ARC
  5
D5
330
1F
100
AcDbEntity
  8
1
  6
CONTINUOUS
 62
     7
100
AcDbCircle
 10
-164.3666666666666
 20
289.484049664528
 30
0.0
 40
1.999999999999968
100
AcDbArc
 50
94.99999999999994
 51
179.9999999999988
  0
LINE
  5
D6
330
1F
100
AcDbEntity
  8
1
  6
CONTINUOUS
 62
     7
100
AcDbLine
 10
-159.3666666666666
 20
199.5666666666667
 30
0.0
 11
-159.2666666666667
 21
199.6666666666667
 31
0.0
  0
LINE
  5
D7
330
1F
100
AcDbEntity
  8
1
  6
CONTINUOUS
 62
     7
100
AcDbLine
 10
-159.2666666666667
 20
203.6666666666667
 30
0.0
 11
-159.3666666666666
 21
203.7666666666667
 31
0.0
  0
LINE
  5
D8
330
1F
100
AcDbEntity
  8
1
  6
CONTINUOUS
 62
     7
100
AcDbLine
 10
-127.3166666666667
 20
203.6666666666667
 30
0.0
 11
-127.8666666666667
 21
203.6666666666667
 31
0.0
  0
LINE
  5
D9
330
1F
100
AcDbEntity
  8
1
  6
CONTINUOUS
 62
     7
100
AcDbLine
 10
-134.7054211186252
 20
203.6666666666667
 30
0.0
 11
-157.9100961058602
 21
203.6666666666667
 31
0.0
  0
LINE
  5
DA
330
1F
100
AcDbEntity
  8
1
  6
CONTINUOUS
 62
     7
100
AcDbLine
 10
-157.9100961058602
 20
199.6666666666667
 30
0.0
 11
-129.8666666666666
 21
199.6666666666667
 31
0.0
  0
LINE
  5
DB
330
1F
100
AcDbEntity
  8
1
  6
CONTINUOUS
 62
     7
100
AcDbLine
 10
-127.8666666666667
 20
199.6666666666667
 30
0.0
 11
-127.3166666666667
 21
199.6666666666667
 31
0.0
  0
LINE
  5
DC
330
1F
100
AcDbEntity
  8
1
  6
CONTINUOUS
 62
     7
100
AcDbLine
 10
-157.8232372274731
 20
203.6666666666667
 30
0.0
 11
-159.2666666666667
 21
203.6666666666667
 31
0.0
  0
LINE
  5
DD
330
1F
100
AcDbEntity
  8
1
  6
CONTINUOUS
 62
     7
100
AcDbLine
 10
-159.2666666666667
 20
199.6666666666667
 30
0.0
 11
-157.8232372274731
 21
199.6666666666667
 31
0.0
  0
LINE
  5
DE
330
1F
100
AcDbEntity
  8
1
  6
CONTINUOUS
 62
     7
100
AcDbLine
 10
-127.3166666666667
 20
199.6666666666667
 30
0.0
 11
-126.9666666666666
 21
200.0166666666667
 31
0.0
  0
LINE
  5
DF
330
1F
100
AcDbEntity
  8
1
  6
CONTINUOUS
 62
     7
100
AcDbLine
 10
-126.9666666666666
 20
203.3166666666667
 30
0.0
 11
-127.3166666666667
 21
203.6666666666667
 31
0.0
  0
LINE
  5
E0
330
1F
100
AcDbEntity
  8
1
  6
CONTINUOUS
 62
     7
100
AcDbLine
 10
-162.3666666666666
 20
126.9166666666667
 30
0.0
 11
-156.8404986885451
 21
127.2062808583451
 31
0.0
  0
LINE
  5
E1
330
1F
100
AcDbEntity
  8
1
  6
CONTINUOUS
 62
     7
100
AcDbLine
 10
-156.8404986885452
 20
276.1270524749883
 30
0.0
 11
-162.3666666666666
 21
276.4166666666667
 31
0.0
  0
ARC
  5
E2
330
1F
100
AcDbEntity
  8
1
  6
CONTINUOUS
 62
     7
100
AcDbCircle
 10
-156.8666666666666
 20
275.627737707611
 30
0.0
 40
0.5000000000000004
100
AcDbArc
 50
0.0000000000000035
 51
87.00000000000001
  0
ARC
  5
E3
330
1F
100
AcDbEntity
  8
1
  6
CONTINUOUS
 62
     7
100
AcDbCircle
 10
-156.8666666666666
 20
127.7055956257224
 30
0.0
 40
0.5000000000000184
100
AcDbArc
 50
273.0000000000092
 51
359.9999999999985
  0
LINE
  5
E4
330
1F
100
AcDbEntity
  8
1
  6
CONTINUOUS
 62
     7
100
AcDbLine
 10
-155.8609977412832
 20
242.8537304708596
 30
0.0
 11
-156.3666666599167
 21
242.8594786277854
 31
0.0
  0
ARC
  5
E5
330
1F
100
AcDbEntity
  8
1
  6
CONTINUOUS
 62
     7
100
AcDbCircle
 10
-155.8666666666666
 20
242.3538021701392
 30
0.0
 40
0.5000000000000004
100
AcDbArc
 50
359.9999999999993
 51
89.34871246756468
  0
ARC
  5
E6
330
1F
100
AcDbEntity
  8
1
  6
CONTINUOUS
 62
     7
100
AcDbCircle
 10
-155.8666666666666
 20
266.1273767224154
 30
0.0
 40
0.5000000000000004
100
AcDbArc
 50
0.0000000000031841
 51
89.50000000011642
  0
LINE
  5
E7
330
1F
100
AcDbEntity
  8
1
  6
CONTINUOUS
 62
     7
100
AcDbLine
 10
-155.8623033989185
 20
266.6273576839475
 30
0.0
 11
-156.3666666666666
 21
266.6317591955036
 31
0.0
  0
LINE
  5
E8
330
1F
100
AcDbEntity
  8
1
  6
CONTINUOUS
 62
     7
100
AcDbLine
 10
-156.3666666666666
 20
134.7015741378297
 30
0.0
 11
-155.8623033989185
 21
134.7059756493859
 31
0.0
  0
ARC
  5
E9
330
1F
100
AcDbEntity
  8
1
  6
CONTINUOUS
 62
     7
100
AcDbCircle
 10
-155.8666666666666
 20
135.205956610918
 30
0.0
 40
0.4999999999999925
100
AcDbArc
 50
270.4999999998835
 51
0.0
  0
ARC
  5
EA
330
1F
100
AcDbEntity
  8
1
  6
CONTINUOUS
 62
     7
100
AcDbCircle
 10
-445.0792461698541
 20
201.6408472520326
 30
0.0
 40
21.03155856063008
100
AcDbArc
 50
179.9682918257376
 51
190.8872771667515
  0
ARC
  5
EB
330
1F
100
AcDbEntity
  8
1
  6
CONTINUOUS
 62
     7
100
AcDbCircle
 10
-464.1096309957694
 20
201.6511868140663
 30
0.0
 40
2.001170936064783
100
AcDbArc
 50
147.9922159248572
 51
179.9627922696889
  0
ARC
  5
EC
330
1F
100
AcDbEntity
  8
1
  6
CONTINUOUS
 62
     7
100
AcDbCircle
 10
-306.5874204968197
 20
201.6924860813002
 30
0.0
 40
21.03155856063723
100
AcDbArc
 50
359.9682918257394
 51
10.88727716674504
  0
ARC
  5
ED
330
1F
100
AcDbEntity
  8
1
  6
CONTINUOUS
 62
     7
100
AcDbCircle
 10
-287.5570356708967
 20
201.6821465192669
 30
0.0
 40
2.001170936064117
100
AcDbArc
 50
327.9922159248592
 51
359.9627922696939
  0
CIRCLE
  5
EE
330
1F
100
AcDbEntity
  8
1
  6
CONTINUOUS
 62
     7
100
AcDbCircle
 10
-375.8333333333333
 20
201.6666666666667
 30
0.0
 40
65.79999999999993
  0
CIRCLE
  5
EF
330
1F
100
AcDbEntity
  8
1
  6
CONTINUOUS
 62
     7
100
AcDbCircle
 10
-375.8333333333334
 20
132.4166666666667
 30
0.0
 40
0.4999999999999997
  0
CIRCLE
  5
F0
330
1F
100
AcDbEntity
  8
1
  6
CONTINUOUS
 62
     7
100
AcDbCircle
 10
-375.8333333333334
 20
201.6666666666667
 30
0.0
 40
89.9999999999999
  0
LINE
  5
F1
330
1F
100
AcDbEntity
  8
1
  6
CONTINUOUS
 62
     7
100
AcDbLine
 10
-337.3421330402794
 20
205.1666666666667
 30
0.0
 11
-336.2377212026944
 21
205.1666666666667
 31
0.0
  0
ARC
  5
F2
330
1F
100
AcDbEntity
  8
1
  6
CONTINUOUS
 62
     7
100
AcDbCircle
 10
-375.8333333333334
 20
201.6666666666667
 30
0.0
 40
38.65
100
AcDbArc
 50
354.8043900609094
 51
5.195609939090502
  0
LINE
  5
F3
330
1F
100
AcDbEntity
  8
1
  6
CONTINUOUS
 62
     7
100
AcDbLine
 10
-336.2377212026944
 20
198.1666666666667
 30
0.0
 11
-337.3421330402794
 21
198.1666666666667
 31
0.0
  0
ARC
  5
F4
330
1F
100
AcDbEntity
  8
1
  6
CONTINUOUS
 62
     7
100
AcDbCircle
 10
-375.8333333333334
 20
201.6666666666667
 30
0.0
 40
39.75
100
AcDbArc
 50
5.051452998542402
 51
354.9485470014573
  0
CIRCLE
  5
F5
330
1F
100
AcDbEntity
  8
1
  6
CONTINUOUS
 62
     7
100
AcDbCircle
 10
-375.8333333333334
 20
201.6666666666667
 30
0.0
 40
40.0
  0
CIRCLE
  5
F6
330
1F
100
AcDbEntity
  8
1
  6
CONTINUOUS
 62
     7
100
AcDbCircle
 10
-375.8333333333334
 20
201.6666666666667
 30
0.0
 40
53.14999999999998
  0
ARC
  5
F7
330
1F
100
AcDbEntity
  8
1
  6
CONTINUOUS
 62
     7
100
AcDbCircle
 10
-375.8333333333334
 20
201.6666666666667
 30
0.0
 40
39.5
100
AcDbArc
 50
354.9164918901027
 51
5.083508109897195
  0
CIRCLE
  5
F8
330
1F
100
AcDbEntity
  8
1
  6
CONTINUOUS
 62
     7
100
AcDbCircle
 10
-375.8333333333334
 20
201.6666666666667
 30
0.0
 40
65.55
  0
CIRCLE
  5
F9
330
1F
100
AcDbEntity
  8
1
  6
CONTINUOUS
 62
     7
100
AcDbCircle
 10
-375.8333333333334
 20
201.6666666666667
 30
0.0
 40
53.39999999999997
  0
CIRCLE
  5
FA
330
1F
100
AcDbEntity
  8
1
  6
CONTINUOUS
 62
     7
100
AcDbCircle
 10
-375.8333333333334
 20
147.3666666666667
 30
0.0
 40
0.5
  0
LINE
  5
FB
330
1F
100
AcDbEntity
  8
1
  6
CONTINUOUS
 62
     7
100
AcDbLine
 10
-456.191188035455
 20
394.6650301722754
 30
0.0
 11
-456.191188035455
 21
397.3
 31
0.0
  0
LINE
  5
FC
330
1F
100
AcDbEntity
  8
1
  6
CONTINUOUS
 62
     7
100
AcDbLine
 10
-454.2021442447185
 20
395.3
 30
0.0
 11
-454.2021442447185
 21
392.8
 31
0.0
  0
LINE
  5
FD
330
1F
100
AcDbEntity
  8
1
  6
CONTINUOUS
 62
     7
100
AcDbLine
 10
-454.2021442447185
 20
392.8
 30
0.0
 11
-464.0415317210897
 21
392.1081731021671
 31
0.0
  0
LINE
  5
FE
330
1F
100
AcDbEntity
  8
1
  6
CONTINUOUS
 62
     7
100
AcDbLine
 10
-464.3198051032627
 20
394.0934909435177
 30
0.0
 11
-456.191188035455
 21
394.6650301722754
 31
0.0
  0
LINE
  5
FF
330
1F
100
AcDbEntity
  8
1
  6
CONTINUOUS
 62
     7
100
AcDbLine
 10
-448.8081850714144
 20
395.3
 30
0.0
 11
-454.2021442447185
 21
395.3
 31
0.0
  0
LINE
  5
100
330
1F
100
AcDbEntity
  8
1
  6
CONTINUOUS
 62
     7
100
AcDbLine
 10
-456.191188035455
 20
397.3
 30
0.0
 11
-445.5628004318198
 21
397.3
 31
0.0
  0
LINE
  5
101
330
1F
100
AcDbEntity
  8
1
  6
CONTINUOUS
 62
     7
100
AcDbLine
 10
-461.8214132217887
 20
392.1577036922957
 30
0.0
 11
-459.0787678849517
 21
392.3395212298078
 31
0.0
  0
LINE
  5
102
330
1F
100
AcDbEntity
  8
1
  6
CONTINUOUS
 62
     7
100
AcDbLine
 10
-461.8214132217887
 20
392.1577036922957
 30
0.0
 11
-465.8325275912699
 21
391.9691001264077
 31
0.0
  0
LINE
  5
103
330
1F
100
AcDbEntity
  8
1
  6
CONTINUOUS
 62
     7
100
AcDbLine
 10
-464.0415317210897
 20
392.1081731021671
 30
0.0
 11
-465.8325275912699
 21
391.9691001264077
 31
0.0
  0
LINE
  5
104
330
1F
100
AcDbEntity
  8
1
  6
CONTINUOUS
 62
     7
100
AcDbLine
 10
-452.9478026855066
 20
392.8
 30
0.0
 11
-454.2021442447185
 21
392.8
 31
0.0
  0
LINE
  5
105
330
1F
100
AcDbEntity
  8
1
  6
CONTINUOUS
 62
     7
100
AcDbLine
 10
-452.9478026855066
 20
392.8
 30
0.0
 11
-455.2567093352374
 21
392.6111976077525
 31
0.0
  0
LINE
  5
106
330
1F
100
AcDbEntity
  8
1
  6
CONTINUOUS
 62
     7
100
AcDbLine
 10
-456.0105154662249
 20
392.5552561581977
 30
0.0
 11
-455.2567093352374
 21
392.6111976077525
 31
0.0
  0
LINE
  5
107
330
1F
100
AcDbEntity
  8
1
  6
CONTINUOUS
 62
     7
100
AcDbLine
 10
-456.0105154662249
 20
392.5552561581977
 30
0.0
 11
-459.0787678849517
 21
392.3395212298078
 31
0.0
  0
LINE
  5
108
330
1F
100
AcDbEntity
  8
1
  6
CONTINUOUS
 62
     7
100
AcDbLine
 10
-452.9478026855066
 20
395.3
 30
0.0
 11
-452.9478026855066
 21
392.8
 31
0.0
  0
LINE
  5
109
330
1F
100
AcDbEntity
  8
1
  6
CONTINUOUS
 62
     7
100
AcDbLine
 10
-466.1108015098703
 20
393.9544066221661
 30
0.0
 11
-464.3198051032627
 21
394.0934909435177
 31
0.0
  0
LINE
  5
10A
330
1F
100
AcDbEntity
  8
1
  6
CONTINUOUS
 62
     7
100
AcDbLine
 10
-289.845253444878
 20
392.1577036922957
 30
0.0
 11
-292.587898781715
 21
392.3395212298078
 31
0.0
  0
LINE
  5
10B
330
1F
100
AcDbEntity
  8
1
  6
CONTINUOUS
 62
     7
100
AcDbLine
 10
-292.2889716165647
 20
394.3233868626098
 30
0.0
 11
-289.5385871047002
 21
394.1411097359112
 31
0.0
  0
LINE
  5
10C
330
1F
100
AcDbEntity
  8
1
  6
CONTINUOUS
 62
     7
100
AcDbLine
 10
-297.0085627591374
 20
394.6650301722754
 30
0.0
 11
-295.4754786312117
 21
394.6650301722754
 31
0.0
  0
LINE
  5
10D
330
1F
100
AcDbEntity
  8
1
  6
CONTINUOUS
 62
     7
100
AcDbLine
 10
-287.346861563404
 20
394.0934909435177
 30
0.0
 11
-295.4754786312117
 21
394.6650301722754
 31
0.0
  0
LINE
  5
10E
330
1F
100
AcDbEntity
  8
1
  6
CONTINUOUS
 62
     7
100
AcDbLine
 10
-285.5558651567964
 20
393.9544066221661
 30
0.0
 11
-287.346861563404
 21
394.0934909435177
 31
0.0
  0
LINE
  5
10F
330
1F
100
AcDbEntity
  8
1
  6
CONTINUOUS
 62
     7
100
AcDbLine
 10
-285.5558651567964
 20
393.9544066221661
 30
0.0
 11
-289.5385871047002
 21
394.1411097359112
 31
0.0
  0
LINE
  5
110
330
1F
100
AcDbEntity
  8
1
  6
CONTINUOUS
 62
     7
100
AcDbLine
 10
-292.2889716165647
 20
394.3233868626098
 30
0.0
 11
-295.6561512004418
 21
394.5601399543601
 31
0.0
  0
LINE
  5
111
330
1F
100
AcDbEntity
  8
1
  6
CONTINUOUS
 62
     7
100
AcDbLine
 10
-296.4099573314294
 20
394.6160814039149
 30
0.0
 11
-295.6561512004418
 21
394.5601399543601
 31
0.0
  0
LINE
  5
112
330
1F
100
AcDbEntity
  8
1
  6
CONTINUOUS
 62
     7
100
AcDbLine
 10
-296.4099573314294
 20
394.6160814039149
 30
0.0
 11
-297.0085627591374
 21
394.6650301722754
 31
0.0
  0
LINE
  5
113
330
1F
100
AcDbEntity
  8
1
  6
CONTINUOUS
 62
     7
100
AcDbLine
 10
-295.6561512004418
 20
392.5552561581977
 30
0.0
 11
-292.587898781715
 21
392.3395212298078
 31
0.0
  0
LINE
  5
114
330
1F
100
AcDbEntity
  8
1
  6
CONTINUOUS
 62
     7
100
AcDbLine
 10
-295.6561512004418
 20
392.5552561581977
 30
0.0
 11
-296.4099573314293
 21
392.6111976077525
 31
0.0
  0
LINE
  5
115
330
1F
100
AcDbEntity
  8
1
  6
CONTINUOUS
 62
     7
100
AcDbLine
 10
-298.7188639811601
 20
395.3
 30
0.0
 11
-298.7188639811601
 21
392.8
 31
0.0
  0
LINE
  5
116
330
1F
100
AcDbEntity
  8
1
  6
CONTINUOUS
 62
     7
100
AcDbLine
 10
-301.2843158141943
 20
395.3
 30
0.0
 11
-298.7188639811601
 21
395.3
 31
0.0
  0
LINE
  5
117
330
1F
100
AcDbEntity
  8
1
  6
CONTINUOUS
 62
     7
100
AcDbLine
 10
-301.2843158141943
 20
397.3
 30
0.0
 11
-301.2843158141943
 21
395.3
 31
0.0
  0
LINE
  5
118
330
1F
100
AcDbEntity
  8
1
  6
CONTINUOUS
 62
     7
100
AcDbLine
 10
-297.0085627591374
 20
397.3
 30
0.0
 11
-301.2843158141943
 21
397.3
 31
0.0
  0
LINE
  5
119
330
1F
100
AcDbEntity
  8
1
  6
CONTINUOUS
 62
     7
100
AcDbLine
 10
-297.0085627591374
 20
394.6650301722754
 30
0.0
 11
-297.0085627591374
 21
397.3
 31
0.0
  0
LINE
  5
11A
330
1F
100
AcDbEntity
  8
1
  6
CONTINUOUS
 62
     7
100
AcDbLine
 10
-298.7188639811601
 20
392.8
 30
0.0
 11
-296.4099573314294
 21
392.6111976077525
 31
0.0
  0
LINE
  5
11B
330
1F
100
AcDbEntity
  8
1
  6
CONTINUOUS
 62
     7
100
AcDbLine
 10
-289.845253444878
 20
392.1577036922957
 30
0.0
 11
-285.8341390753968
 21
391.9691001264078
 31
0.0
  0
LINE
  5
11C
330
1F
100
AcDbEntity
  8
1
  6
CONTINUOUS
 62
     7
100
AcDbLine
 10
-297.0085627591374
 20
397.3
 30
0.0
 11
-295.4754786312117
 21
397.3
 31
0.0
  0
LINE
  5
11D
330
1F
100
AcDbEntity
  8
1
  6
CONTINUOUS
 62
     7
100
AcDbLine
 10
-295.4754786312117
 20
394.6650301722754
 30
0.0
 11
-295.4754786312117
 21
397.3
 31
0.0
  0
LINE
  5
11E
330
1F
100
AcDbEntity
  8
1
  6
CONTINUOUS
 62
     7
100
AcDbLine
 10
-307.2514471864039
 20
395.3
 30
0.0
 11
-301.2843158141943
 21
395.3
 31
0.0
  0
LINE
  5
11F
330
1F
100
AcDbEntity
  8
1
  6
CONTINUOUS
 62
     7
100
AcDbLine
 10
-301.2843158141943
 20
397.3
 30
0.0
 11
-307.2514471864039
 21
397.3
 31
0.0
  0
LINE
  5
120
330
1F
100
AcDbEntity
  8
1
  6
CONTINUOUS
 62
     7
100
AcDbLine
 10
-310.8333333333334
 20
395.3
 30
0.0
 11
-307.2514471864039
 21
395.3
 31
0.0
  0
LINE
  5
121
330
1F
100
AcDbEntity
  8
1
  6
CONTINUOUS
 62
     7
100
AcDbLine
 10
-285.8333333333335
 20
364.3
 30
0.0
 11
-465.8333333333331
 21
364.3
 31
0.0
  0
LINE
  5
122
330
1F
100
AcDbEntity
  8
1
  6
CONTINUOUS
 62
     7
100
AcDbLine
 10
-288.0159503354721
 20
360.3
 30
0.0
 11
-463.6507163311946
 21
360.3
 31
0.0
  0
LINE
  5
123
330
1F
100
AcDbEntity
  8
1
  6
CONTINUOUS
 62
     7
100
AcDbLine
 10
-442.8333333333334
 20
399.35
 30
0.0
 11
-446.8333333333334
 21
399.35
 31
0.0
  0
LINE
  5
124
330
1F
100
AcDbEntity
  8
1
  6
CONTINUOUS
 62
     7
100
AcDbLine
 10
-446.4833333333333
 20
399.7
 30
0.0
 11
-443.1833333333333
 21
399.7
 31
0.0
  0
LINE
  5
125
330
1F
100
AcDbEntity
  8
1
  6
CONTINUOUS
 62
     7
100
AcDbLine
 10
-304.8333333333333
 20
399.35
 30
0.0
 11
-306.8333333333333
 21
399.35
 31
0.0
  0
LINE
  5
126
330
1F
100
AcDbEntity
  8
1
  6
CONTINUOUS
 62
     7
100
AcDbLine
 10
-306.8333333333333
 20
399.35
 30
0.0
 11
-308.8333333333333
 21
399.35
 31
0.0
  0
LINE
  5
127
330
1F
100
AcDbEntity
  8
1
  6
CONTINUOUS
 62
     7
100
AcDbLine
 10
-308.4833333333333
 20
399.7
 30
0.0
 11
-306.8333333333333
 21
399.7
 31
0.0
  0
LINE
  5
128
330
1F
100
AcDbEntity
  8
1
  6
CONTINUOUS
 62
     7
100
AcDbLine
 10
-306.8333333333333
 20
399.7
 30
0.0
 11
-305.1833333333333
 21
399.7
 31
0.0
  0
LINE
  5
129
330
1F
100
AcDbEntity
  8
1
  6
CONTINUOUS
 62
     7
100
AcDbLine
 10
-366.3469295703072
 20
372.1
 30
0.0
 11
-374.4978100289839
 21
372.1
 31
0.0
  0
LINE
  5
12A
330
1F
100
AcDbEntity
  8
1
  6
CONTINUOUS
 62
     7
100
AcDbLine
 10
-366.3469295703072
 20
372.1000000000003
 30
0.0
 11
-366.3207256806656
 21
371.5999999999997
 31
0.0
  0
LINE
  5
12B
330
1F
100
AcDbEntity
  8
1
  6
CONTINUOUS
 62
     7
100
AcDbLine
 10
-366.3207256806656
 20
371.6
 30
0.0
 11
-374.5021734628793
 21
371.6
 31
0.0
  0
LINE
  5
12C
330
1F
100
AcDbEntity
  8
1
  6
CONTINUOUS
 62
     7
100
AcDbLine
 10
-374.5021734628793
 20
371.6000000000002
 30
0.0
 11
-374.4978100289839
 21
372.0999999999996
 31
0.0
  0
LINE
  5
12D
330
1F
100
AcDbEntity
  8
1
  6
CONTINUOUS
 62
     7
100
AcDbLine
 10
-385.345940986001
 20
371.5999999999998
 30
0.0
 11
-385.3197370963595
 21
372.1
 31
0.0
  0
LINE
  5
12E
330
1F
100
AcDbEntity
  8
1
  6
CONTINUOUS
 62
     7
100
AcDbLine
 10
-377.1688566376828
 20
372.1
 30
0.0
 11
-385.3197370963596
 21
372.1
 31
0.0
  0
LINE
  5
12F
330
1F
100
AcDbEntity
  8
1
  6
CONTINUOUS
 62
     7
100
AcDbLine
 10
-377.1688566376828
 20
372.1000000000008
 30
0.0
 11
-377.1644932037874
 21
371.5999999999993
 31
0.0
  0
LINE
  5
130
330
1F
100
AcDbEntity
  8
1
  6
CONTINUOUS
 62
     7
100
AcDbLine
 10
-377.1644932037874
 20
371.6
 30
0.0
 11
-385.3459409860011
 21
371.6
 31
0.0
  0
LINE
  5
131
330
1F
100
AcDbEntity
  8
1
  6
CONTINUOUS
 62
     7
100
AcDbLine
 10
-385.3197370963596
 20
372.1
 30
0.0
 11
-385.241125427435
 21
373.6
 31
0.0
  0
LINE
  5
132
330
1F
100
AcDbEntity
  8
1
  6
CONTINUOUS
 62
     7
100
AcDbLine
 10
-385.241125427435
 20
373.6
 30
0.0
 11
-377.1819469393689
 21
373.6
 31
0.0
  0
LINE
  5
133
330
1F
100
AcDbEntity
  8
1
  6
CONTINUOUS
 62
     7
100
AcDbLine
 10
-377.1688566376828
 20
372.1
 30
0.0
 11
-377.1819469393689
 21
373.6
 31
0.0
  0
LINE
  5
134
330
1F
100
AcDbEntity
  8
1
  6
CONTINUOUS
 62
     7
100
AcDbLine
 10
-366.4255412392317
 20
373.6
 30
0.0
 11
-366.3469295703072
 21
372.1
 31
0.0
  0
LINE
  5
135
330
1F
100
AcDbEntity
  8
1
  6
CONTINUOUS
 62
     7
100
AcDbLine
 10
-374.4847197272978
 20
373.6
 30
0.0
 11
-366.4255412392317
 21
373.6
 31
0.0
  0
LINE
  5
136
330
1F
100
AcDbEntity
  8
1
  6
CONTINUOUS
 62
     7
100
AcDbLine
 10
-374.4847197272978
 20
373.6
 30
0.0
 11
-374.4978100289839
 21
372.1
 31
0.0
  0
LINE
  5
137
330
1F
100
AcDbEntity
  8
1
  6
CONTINUOUS
 62
     7
100
AcDbLine
 10
-385.361663319786
 20
371.3
 30
0.0
 11
-385.345940986001
 21
371.6
 31
0.0
  0
LINE
  5
138
330
1F
100
AcDbEntity
  8
1
  6
CONTINUOUS
 62
     7
100
AcDbLine
 10
-377.1644932037874
 20
371.6000000000012
 30
0.0
 11
-377.1618751434502
 21
371.3000000000044
 31
0.0
  0
LINE
  5
139
330
1F
100
AcDbEntity
  8
1
  6
CONTINUOUS
 62
     7
100
AcDbLine
 10
-366.3207256806656
 20
371.6000000000003
 30
0.0
 11
-366.3050033468807
 21
371.3000000000001
 31
0.0
  0
LINE
  5
13A
330
1F
100
AcDbEntity
  8
1
  6
CONTINUOUS
 62
     7
100
AcDbLine
 10
-374.5047915232165
 20
371.3000000000004
 30
0.0
 11
-374.5021734628793
 21
371.6000000000001
 31
0.0
  0
LINE
  5
13B
330
1F
100
AcDbEntity
  8
1
  6
CONTINUOUS
 62
     7
100
AcDbLine
 10
-450.4261099954842
 20
367.3
 30
0.0
 11
-450.1724794926195
 21
367.3
 31
0.0
  0
LINE
  5
13C
330
1F
100
AcDbEntity
  8
1
  6
CONTINUOUS
 62
     7
100
AcDbLine
 10
-448.8800805066345
 20
396.8
 30
0.0
 11
-448.7350978702784
 21
396.8
 31
0.0
  0
LINE
  5
13D
330
1F
100
AcDbEntity
  8
1
  6
CONTINUOUS
 62
     7
100
AcDbLine
 10
-450.1724794926195
 20
367.3
 30
0.0
 11
-448.7350978702784
 21
396.8
 31
0.0
  0
LINE
  5
13E
330
1F
100
AcDbEntity
  8
1
  6
CONTINUOUS
 62
     7
100
AcDbLine
 10
-301.4941871740472
 20
367.3
 30
0.0
 11
-302.7608383011944
 21
393.3261679781215
 31
0.0
  0
LINE
  5
13F
330
1F
100
AcDbEntity
  8
1
  6
CONTINUOUS
 62
     7
100
AcDbLine
 10
-301.4941871740471
 20
367.3
 30
0.0
 11
-301.2405566711824
 21
367.3
 31
0.0
  0
LINE
  5
140
330
1F
100
AcDbEntity
  8
1
  6
CONTINUOUS
 62
     7
100
AcDbLine
 10
-302.761364226822
 20
393.3368813982525
 30
0.0
 11
-302.8578000433229
 21
395.3000334101986
 31
0.0
  0
LINE
  5
141
330
1F
100
AcDbEntity
  8
1
  6
CONTINUOUS
 62
     7
100
AcDbLine
 10
-302.9774352744306
 20
398.3261679781215
 30
0.0
 11
-302.9265600191774
 21
397.3000004262876
 31
0.0
  0
LINE
  5
142
330
1F
100
AcDbEntity
  8
1
  6
CONTINUOUS
 62
     7
100
AcDbLine
 10
-302.3164419603567
 20
370.3
 30
0.0
 11
-302.2881132725021
 21
370.2992062055712
 31
0.0
  0
LWPOLYLINE
  5
143
330
1F
100
AcDbEntity
  8
1
  6
CONTINUOUS
 62
     7
100
AcDbPolyline
 90
       38
 70
     0
 43
0.0
 10
-301.7690956117996
 20
369.8261679781215
 10
-301.7695947642096
 20
369.8294066912947
 10
-301.776264381531
 20
369.8640366067663
 10
-301.7853695653496
 20
369.8985310125287
 10
-301.7934881515401
 20
369.9233520437026
 10
-301.8028997694813
 20
369.9480039063149
 10
-301.8136814312024
 20
369.9725847891265
 10
-301.8258000645981
 20
369.9969132011777
 10
-301.8394163472367
 20
370.0211816071435
 10
-301.854439398175
 20
370.045094863647
 10
-301.8709986827722
 20
370.0687361309954
 10
-301.8890379543511
 20
370.0918965063931
 10
-301.9030730959624
 20
370.1083611304701
 10
-301.9179102132612
 20
370.1244965330582
 10
-301.9336462374549
 20
370.140351882007
 10
-301.9502163034837
 20
370.1558032450754
 10
-301.9678021184258
 20
370.1709505635055
 10
-301.986260235864
 20
370.1855978291787
 10
-302.0057154453666
 20
370.1997745064162
 10
-302.0260689959109
 20
370.2133358901868
 10
-302.039868531142
 20
370.2218427135595
 10
-302.0540453161264
 20
370.2300357387628
 10
-302.0686777221766
 20
370.237937146071
 10
-302.0836659493382
 20
370.2454707225979
 10
-302.09908394637
 20
370.252651536122
 10
-302.1148425321047
 20
370.2594163879896
 10
-302.1310564732519
 20
370.2657898221319
 10
-302.1476148445925
 20
370.2717023574536
 10
-302.1599280163701
 20
370.2757177495579
 10
-302.1724054178958
 20
370.2794612869119
 10
-302.1829966501281
 20
370.2823855554831
 10
-302.1936825719396
 20
370.2851030874936
 10
-302.204489648462
 20
370.2876157629209
 10
-302.2153781982708
 20
370.2899098514198
 10
-302.2332294889122
 20
370.2931591740266
 10
-302.2512808322793
 20
370.2958031434816
 10
-302.2696338328818
 20
370.2978328163863
 10
-302.2881132725021
 20
370.2992062055712
  0
LWPOLYLINE
  5
144
330
1F
100
AcDbEntity
  8
1
  6
CONTINUOUS
 62
     7
100
AcDbPolyline
 90
       37
 70
     0
 43
0.0
 10
449.8975710548671
 20
369.8261679781215
 10
449.8970719024571
 20
369.8294066912957
 10
449.8904022851357
 20
369.8640366067663
 10
449.8812971013169
 20
369.8985310125287
 10
449.8731849674465
 20
369.9233338246667
 10
449.8637668971854
 20
369.9480039063149
 10
449.8530409697491
 20
369.9724656514441
 10
449.8408666020686
 20
369.9969132011777
 10
449.8273226106861
 20
370.0210598722553
 10
449.8122272684917
 20
370.045094863647
 10
449.7956843157255
 20
370.0687140204419
 10
449.7776287123155
 20
370.0918965063931
 10
449.7636032271248
 20
370.1083502219768
 10
449.7487564534055
 20
370.1244965330582
 10
449.7330949993001
 20
370.1402795670251
 10
449.716450363183
 20
370.1558032450754
 10
449.6989525260171
 20
370.1708777784434
 10
449.6804064308026
 20
370.1855978291787
 10
449.6609703055586
 20
370.1997611980602
 10
449.6405976707558
 20
370.2133358901868
 10
449.6267905125868
 20
370.2218472202841
 10
449.6126213505402
 20
370.2300357387628
 10
449.5980271674982
 20
370.2379172198975
 10
449.583078976567
 20
370.2454328207198
 10
449.5676227392297
 20
370.2526336248843
 10
449.5518241345619
 20
370.2594163879896
 10
449.5355966903484
 20
370.2657947671453
 10
449.5190518220742
 20
370.2717023574536
 10
449.5067325887784
 20
370.2757196039776
 10
449.4942612487708
 20
370.2794612869119
 10
449.4815957013759
 20
370.2829312657358
 10
449.4687968197882
 20
370.2861046510845
 10
449.4512884683959
 20
370.2899098514198
 10
449.4335508351946
 20
370.2931404867415
 10
449.4153858343873
 20
370.2958031434816
 10
449.3970544631952
 20
370.2978308146709
 10
449.3785533941644
 20
370.2992062055712
210
0.0
220
0.0
230
-1.0
  0
LINE
  5
145
330
1F
100
AcDbEntity
  8
1
  6
CONTINUOUS
 62
     7
100
AcDbLine
 10
-449.3785533941644
 20
370.2992062055712
 30
0.0
 11
-449.3502247063099
 21
370.3
 31
0.0
  0
LINE
  5
146
330
1F
100
AcDbEntity
  8
1
  6
CONTINUOUS
 62
     7
100
AcDbLine
 10
-449.3502247063099
 20
370.3
 30
0.0
 11
-302.3164419603567
 21
370.3
 31
0.0
  0
LINE
  5
147
330
1F
100
AcDbEntity
  8
1
  6
CONTINUOUS
 62
     7
100
AcDbLine
 10
-414.738675162389
 20
370.3000000076823
 30
0.0
 11
-414.7392291612653
 21
370.8043632677492
 31
0.0
  0
LINE
  5
148
330
1F
100
AcDbEntity
  8
1
  6
CONTINUOUS
 62
     7
100
AcDbLine
 10
-324.9047939721096
 20
370.3000000025183
 30
0.0
 11
-324.9058848936988
 21
370.8043632677492
 31
0.0
  0
LWPOLYLINE
  5
149
330
1F
100
AcDbEntity
  8
1
  6
CONTINUOUS
 62
     7
100
AcDbPolyline
 90
       43
 70
     0
 43
0.0
 10
-324.9058848936988
 20
370.8043632677492
 10
-324.9059959284646
 20
370.8215997403969
 10
-324.9062537455872
 20
370.8387915741749
 10
-324.9066613332582
 20
370.8560454835305
 10
-324.9072150736796
 20
370.8731834719379
 10
-324.9079222264727
 20
370.8903817246884
 10
-324.908773450422
 20
370.9073938894233
 10
-324.9097736858743
 20
370.9243217488321
 10
-324.9109123019053
 20
370.9410001483827
 10
-324.9121448091153
 20
370.9569150736092
 10
-324.9134987176409
 20
370.972548467691
 10
-324.914979465519
 20
370.9879798633015
 10
-324.9165735990903
 20
371.0030889059307
 10
-324.918292415161
 20
371.0179945568353
 10
-324.9201165688222
 20
371.0325431903291
 10
-324.9220520446705
 20
371.0468012923781
 10
-324.9240838307509
 20
371.0606777167619
 10
-324.9267213444709
 20
371.077292888406
 10
-324.9294893610101
 20
371.0933026160511
 10
-324.9323993829602
 20
371.1088019889164
 10
-324.9354243793313
 20
371.1236750494917
 10
-324.9379472710021
 20
371.1352338921341
 10
-324.940535943408
 20
371.1463817410726
 10
-324.9431960909008
 20
371.1571562991921
 10
-324.9459149232849
 20
371.1675183436356
 10
-324.9505979378251
 20
371.1839782932975
 10
-324.9554685593681
 20
371.1994351178312
 10
-324.9604934373569
 20
371.2138055015584
 10
-324.9656437843034
 20
371.2270432727489
 10
-324.970952543366
 20
371.2392535308286
 10
-324.9763644387314
 20
371.2503258996539
 10
-324.981914716165
 20
371.2603462827791
 10
-324.9875482054032
 20
371.2692254253778
 10
-324.9932722854489
 20
371.2769920616915
 10
-324.9977752039931
 20
371.2822545346922
 10
-325.0023185126092
 20
371.2868367168406
 10
-325.0068916439475
 20
371.2907331433903
 10
-325.0115087680917
 20
371.2939572288682
 10
-325.0161481328458
 20
371.2964939408227
 10
-325.0208241568143
 20
371.2983501613357
 10
-325.0255150377529
 20
371.2995150433846
 10
-325.0302237748907
 20
371.2999884978632
 10
-325.0310815834781
 20
371.3
  0
LINE
  5
14A
330
1F
100
AcDbEntity
  8
1
  6
CONTINUOUS
 62
     7
100
AcDbLine
 10
-414.801072558166
 20
371.3
 30
0.0
 11
-414.7392291612653
 21
370.8043632677492
 31
0.0
  0
LINE
  5
14B
330
1F
100
AcDbEntity
  8
1
  6
CONTINUOUS
 62
     7
100
AcDbLine
 10
-414.801072558166
 20
371.3
 30
0.0
 11
-325.0310815834782
 21
371.3
 31
0.0
  0
LINE
  5
14C
330
1F
100
AcDbEntity
  8
1
  6
CONTINUOUS
 62
     7
100
AcDbLine
 10
-437.3448091840385
 20
371.3
 30
0.0
 11
-416.1578910608542
 21
371.3
 31
0.0
  0
LINE
  5
14D
330
1F
100
AcDbEntity
  8
1
  6
CONTINUOUS
 62
     7
100
AcDbLine
 10
-416.1578910608543
 20
371.3
 30
0.0
 11
-414.801072558166
 21
371.3
 31
0.0
  0
LINE
  5
14E
330
1F
100
AcDbEntity
  8
1
  6
CONTINUOUS
 62
     7
100
AcDbLine
 10
-325.0310815834781
 20
371.3
 30
0.0
 11
-323.2825675383769
 21
371.3
 31
0.0
  0
LINE
  5
14F
330
1F
100
AcDbEntity
  8
1
  6
CONTINUOUS
 62
     7
100
AcDbLine
 10
-309.3598249046002
 20
370.578899945968
 30
0.0
 11
-309.3617549681956
 21
370.8043632677492
 31
0.0
  0
LINE
  5
150
330
1F
100
AcDbEntity
  8
1
  6
CONTINUOUS
 62
     7
100
AcDbLine
 10
-309.359151089263
 20
370.3000000000004
 30
0.0
 11
-309.3598249046022
 21
370.578899945966
 31
0.0
  0
LINE
  5
151
330
1F
100
AcDbEntity
  8
1
  6
CONTINUOUS
 62
     7
100
AcDbLine
 10
-309.492424455885
 20
371.1398207327449
 30
0.0
 11
-309.3617549681956
 21
370.8043632677492
 31
0.0
  0
LINE
  5
152
330
1F
100
AcDbEntity
  8
1
  6
CONTINUOUS
 62
     7
100
AcDbLine
 10
-309.8608780232443
 20
371.3
 30
0.0
 11
-309.492424455885
 21
371.1398207327449
 31
0.0
  0
LINE
  5
153
330
1F
100
AcDbEntity
  8
1
  6
CONTINUOUS
 62
     7
100
AcDbLine
 10
-323.2825675383769
 20
371.3
 30
0.0
 11
-309.8608780232443
 21
371.3
 31
0.0
  0
LINE
  5
154
330
1F
100
AcDbEntity
  8
1
  6
CONTINUOUS
 62
     7
100
AcDbLine
 10
-437.8445009405156
 20
370.8055402451926
 30
0.0
 11
-437.8447791432176
 21
370.8054808684035
 31
0.0
  0
LINE
  5
155
330
1F
100
AcDbEntity
  8
1
  6
CONTINUOUS
 62
     7
100
AcDbLine
 10
-438.513785823648
 20
393.3000000000008
 30
0.0
 11
-438.3875685373998
 21
371.3000000000008
 31
0.0
  0
LINE
  5
156
330
1F
100
AcDbEntity
  8
1
  6
CONTINUOUS
 62
     7
100
AcDbLine
 10
-438.5395260375572
 20
398.3000000000007
 30
0.0
 11
-438.3875685373998
 21
371.3000000000006
 31
0.0
  0
LINE
  5
157
330
1F
100
AcDbEntity
  8
1
  6
CONTINUOUS
 62
     7
100
AcDbLine
 10
-313.1526024056554
 20
393.3529774228932
 30
0.0
 11
-313.1271406291095
 21
398.3000000000004
 31
0.0
  0
LINE
  5
158
330
1F
100
AcDbEntity
  8
1
  6
CONTINUOUS
 62
     7
100
AcDbLine
 10
-313.2790981292669
 20
371.3000000000003
 30
0.0
 11
-313.1528808433503
 21
393.2999999369249
 31
0.0
  0
LINE
  5
159
330
1F
100
AcDbEntity
  8
1
  6
CONTINUOUS
 62
     7
100
AcDbLine
 10
-312.9439981914608
 20
393.7083146566424
 30
0.0
 11
-312.9302832764266
 21
398.3000000000002
 31
0.0
  0
LINE
  5
15A
330
1F
100
AcDbEntity
  8
1
  6
CONTINUOUS
 62
     7
100
AcDbLine
 10
-313.2790981292669
 20
371.3000000000006
 30
0.0
 11
-313.1528808430187
 21
393.2999999999998
 31
0.0
  0
LWPOLYLINE
  5
15B
330
1F
100
AcDbEntity
  8
1
  6
CONTINUOUS
 62
     7
100
AcDbPolyline
 90
       42
 70
     0
 43
0.0
 10
440.2911632428844
 20
370.8043632677482
 10
440.2910862590265
 20
370.8120630120005
 10
440.2905693039784
 20
370.8275425450498
 10
440.289569068045
 20
370.8429984383731
 10
440.2880792649952
 20
370.8584760256888
 10
440.2861043428471
 20
370.8738993663221
 10
440.2826692342232
 20
370.8946202300217
 10
440.2783491012067
 20
370.9152139566411
 10
440.2730844828426
 20
370.9358661039654
 10
440.2669223338535
 20
370.9563105138321
 10
440.2598549177411
 20
370.9765452649411
 10
440.2542402351907
 20
370.9908815044216
 10
440.248181787044
 20
371.0050364263664
 10
440.2416590498186
 20
371.0190502614546
 10
440.2347013851089
 20
371.0328539077059
 10
440.2246256268793
 20
371.0511400703346
 10
440.2137668919688
 20
371.0690172287767
 10
440.2020100558253
 20
371.0866384077654
 10
440.1894863131114
 20
371.1037726233208
 10
440.1761897562615
 20
371.1204160225581
 10
440.1661446778624
 20
371.1320775579633
 10
440.1557425316766
 20
371.1434226202706
 10
440.1449510956535
 20
371.1544822866057
 10
440.1338207123774
 20
371.1652017232806
 10
440.1182709705699
 20
371.1791197557288
 10
440.102121902503
 20
371.1923975696786
 10
440.0852166326875
 20
371.2051407870538
 10
440.0677532463055
 20
371.2171773472897
 10
440.0497278205277
 20
371.2285021936635
 10
440.0363315773183
 20
371.2362472932016
 10
440.0227020075744
 20
371.2435751936626
 10
440.0087985483891
 20
371.2505047615849
 10
439.9946868113072
 20
371.2570009203171
 10
439.9753249349724
 20
371.2650745913835
 10
439.9556077032552
 20
371.2723459738318
 10
439.9353527542199
 20
371.2788634254759
 10
439.9148032128542
 20
371.2845299233784
 10
439.8939570764947
 20
371.2893395365786
 10
439.8685093429219
 20
371.2939700965621
 10
439.8427209748652
 20
371.297308598937
 10
439.8167259819511
 20
371.2993233595881
 10
439.7905222914068
 20
371.3
210
0.0
220
0.0
230
-1.0
  0
LINE
  5
15C
330
1F
100
AcDbEntity
  8
1
  6
CONTINUOUS
 62
     7
100
AcDbLine
 10
-439.7905222914067
 20
371.3
 30
0.0
 11
-437.3448091840385
 21
371.3
 31
0.0
  0
LINE
  5
15D
330
1F
100
AcDbEntity
  8
1
  6
CONTINUOUS
 62
     7
100
AcDbLine
 10
-440.2911632428799
 20
370.8043632677454
 30
0.0
 11
-440.292285658842
 21
370.3000000000009
 31
0.0
  0
LINE
  5
15E
330
1F
100
AcDbEntity
  8
1
  6
CONTINUOUS
 62
     7
100
AcDbLine
 10
-306.0689968413446
 20
393.3043632677492
 30
0.0
 11
-305.8682408044963
 21
370.3
 31
0.0
  0
LINE
  5
15F
330
1F
100
AcDbEntity
  8
1
  6
CONTINUOUS
 62
     7
100
AcDbLine
 10
-307.7984258621703
 20
370.3
 30
0.0
 11
-307.5976698253221
 21
393.3043632677492
 31
0.0
  0
LINE
  5
160
330
1F
100
AcDbEntity
  8
1
  6
CONTINUOUS
 62
     7
100
AcDbLine
 10
-445.7984258621703
 20
370.3
 30
0.0
 11
-445.5540354863683
 21
398.3043632677492
 31
0.0
  0
LINE
  5
161
330
1F
100
AcDbEntity
  8
1
  6
CONTINUOUS
 62
     7
100
AcDbLine
 10
-444.1126311802984
 20
398.3043632677492
 30
0.0
 11
-443.8682408044964
 21
370.3
 31
0.0
  0
ARC
  5
162
330
1F
100
AcDbEntity
  8
1
  6
CONTINUOUS
 62
     7
100
AcDbCircle
 10
-307.09768886379
 20
393.3
 30
0.0
 40
0.5000000000000004
100
AcDbArc
 50
90.0
 51
179.4999999999999
  0
LINE
  5
163
330
1F
100
AcDbEntity
  8
1
  6
CONTINUOUS
 62
     7
100
AcDbLine
 10
-307.09768886379
 20
393.8
 30
0.0
 11
-306.5689778028767
 21
393.8
 31
0.0
  0
ARC
  5
164
330
1F
100
AcDbEntity
  8
1
  6
CONTINUOUS
 62
     7
100
AcDbCircle
 10
-306.5689778028767
 20
393.3
 30
0.0
 40
0.5000000000000004
100
AcDbArc
 50
0.5000000000001136
 51
90.0
  0
LINE
  5
165
330
1F
100
AcDbEntity
  8
1
  6
CONTINUOUS
 62
     7
100
AcDbLine
 10
-445.0540545248362
 20
398.8
 30
0.0
 11
-444.6126121418305
 21
398.8
 31
0.0
  0
ARC
  5
166
330
1F
100
AcDbEntity
  8
1
  6
CONTINUOUS
 62
     7
100
AcDbCircle
 10
-445.0540545248362
 20
398.3
 30
0.0
 40
0.5000000000000018
100
AcDbArc
 50
90.0
 51
179.5000000000004
  0
ARC
  5
167
330
1F
100
AcDbEntity
  8
1
  6
CONTINUOUS
 62
     7
100
AcDbCircle
 10
-444.6126121418305
 20
398.3
 30
0.0
 40
0.500000000000056
100
AcDbArc
 50
0.4999999999996589
 51
90.0
  0
LINE
  5
168
330
1F
100
AcDbEntity
  8
1
  6
CONTINUOUS
 62
     7
100
AcDbLine
 10
-438.5395260375572
 20
398.3
 30
0.0
 11
-438.537200683055
 21
398.3025395651077
 31
0.0
  0
LINE
  5
169
330
1F
100
AcDbEntity
  8
1
  6
CONTINUOUS
 62
     7
100
AcDbLine
 10
-313.1554099155906
 20
393.302649287734
 30
0.0
 11
-313.1528808430186
 21
393.3
 31
0.0
  0
LINE
  5
16A
330
1F
100
AcDbEntity
  8
1
  6
CONTINUOUS
 62
     7
100
AcDbLine
 10
-312.6554169343654
 20
393.8
 30
0.0
 11
-307.09768886379
 21
393.8
 31
0.0
  0
LINE
  5
16B
330
1F
100
AcDbEntity
  8
1
  6
CONTINUOUS
 62
     7
100
AcDbLine
 10
-306.5689778028767
 20
393.8
 30
0.0
 11
-303.3848856039883
 21
393.8
 31
0.0
  0
LINE
  5
16C
330
1F
100
AcDbEntity
  8
1
  6
CONTINUOUS
 62
     7
100
AcDbLine
 10
-444.6126121418305
 20
398.8
 30
0.0
 11
-439.0371942336225
 21
398.8
 31
0.0
  0
LINE
  5
16D
330
1F
100
AcDbEntity
  8
1
  6
CONTINUOUS
 62
     7
100
AcDbLine
 10
-448.0414301459407
 20
398.8
 30
0.0
 11
-445.0540545248362
 21
398.8
 31
0.0
  0
LWPOLYLINE
  5
16E
330
1F
100
AcDbEntity
  8
1
  6
CONTINUOUS
 62
     7
100
AcDbPolyline
 90
       37
 70
     0
 43
0.0
 10
303.2595964584108
 20
393.8
 10
303.2388844629909
 20
393.7995724223538
 10
303.218207832194
 20
393.7982909018015
 10
303.1974596721319
 20
393.7961387874198
 10
303.1768192059773
 20
393.7931260695058
 10
303.1558793122386
 20
393.7891633945983
 10
303.1351273064446
 20
393.7843142194069
 10
303.1144510492274
 20
393.7785407809779
 10
303.0940419535437
 20
393.7718865557242
 10
303.0746374414794
 20
393.7646410653963
 10
303.0555503108252
 20
393.7565986766666
 10
303.0366845453519
 20
393.7477080268848
 10
303.0182070567413
 20
393.738038316893
 10
302.9997609148206
 20
393.7273691009209
 10
302.9817878165655
 20
393.7159230223904
 10
302.9641938382183
 20
393.7036269672773
 10
302.9471461025352
 20
393.6905861162898
 10
302.9312827733645
 20
393.6773518765826
 10
302.9159823276101
 20
393.6634724475052
 10
302.9011713119373
 20
393.6488679244231
 10
302.8869836878042
 20
393.6336587152245
 10
302.8731567040485
 20
393.6175199262677
 10
302.8600316882396
 20
393.6008068139873
 10
302.8475444161285
 20
393.5834199476159
 10
302.835816804872
 20
393.5655133043348
 10
302.8252584835718
 20
393.5478022512424
 10
302.8154432336527
 20
393.5296699866799
 10
302.8063282482081
 20
393.5110174151447
 10
302.7979993194903
 20
393.4920018195994
 10
302.7903168439869
 20
393.4722321703733
 10
302.7834835702572
 20
393.4521540177504
 10
302.7774717996377
 20
393.4316532497577
 10
302.7723448176333
 20
393.4109141533968
 10
302.7681188761683
 20
393.3900098085765
 10
302.764791253906
 20
393.3689442261104
 10
302.7623539632019
 20
393.3475985720725
 10
302.7608383011944
 20
393.3261679781215
210
0.0
220
0.0
230
-1.0
  0
LINE
  5
16F
330
1F
100
AcDbEntity
  8
1
  6
CONTINUOUS
 62
     7
100
AcDbLine
 10
-303.3848856039883
 20
393.8
 30
0.0
 11
-303.2595964584109
 21
393.8
 31
0.0
  0
LINE
  5
170
330
1F
100
AcDbEntity
  8
1
  6
CONTINUOUS
 62
     7
100
AcDbLine
 10
-448.3007826647109
 20
398.8
 30
0.0
 11
-448.0414301459407
 21
398.8
 31
0.0
  0
LINE
  5
171
330
1F
100
AcDbEntity
  8
1
  6
CONTINUOUS
 62
     7
100
AcDbLine
 10
-311.3333333333334
 20
396.8
 30
0.0
 11
-302.9017838957453
 21
396.8
 31
0.0
  0
LINE
  5
172
330
1F
100
AcDbEntity
  8
1
  6
CONTINUOUS
 62
     7
100
AcDbLine
 10
-311.3333333333334
 20
396.8
 30
0.0
 11
-311.3333333333334
 21
393.8
 31
0.0
  0
LINE
  5
173
330
1F
100
AcDbEntity
  8
1
  6
CONTINUOUS
 62
     7
100
AcDbLine
 10
-312.4310527204194
 20
398.8
 30
0.0
 11
-303.4514958358334
 21
398.8
 31
0.0
  0
LWPOLYLINE
  5
174
330
1F
100
AcDbEntity
  8
1
  6
CONTINUOUS
 62
     7
100
AcDbPolyline
 90
       40
 70
     0
 43
0.0
 10
-302.9774352744306
 20
398.3261679781215
 10
-302.9785624586112
 20
398.343275970405
 10
-302.9802433976462
 20
398.3603258342717
 10
-302.9821841318809
 20
398.3753032221194
 10
-302.9845421716147
 20
398.3901534311144
 10
-302.9873283475814
 20
398.4049497156096
 10
-302.9905175566669
 20
398.4195729200799
 10
-302.9930701663937
 20
398.4300344787649
 10
-302.9958230778722
 20
398.440388068187
 10
-302.9987808657285
 20
398.4506585438624
 10
-303.0019301646951
 20
398.4608079125053
 10
-303.007147045843
 20
398.476200782789
 10
-303.012796520927
 20
398.4912994966681
 10
-303.0189038042986
 20
398.5061874159963
 10
-303.0254019575237
 20
398.5207216403012
 10
-303.0323115692874
 20
398.5349715394095
 10
-303.0395759492146
 20
398.5488439433142
 10
-303.0472343878358
 20
398.562432608623
 10
-303.0552235377709
 20
398.5756417214088
 10
-303.066829956607
 20
398.5933413285865
 10
-303.0789993462263
 20
398.6102972884262
 10
-303.0917708450718
 20
398.6266031096177
 10
-303.1050262953856
 20
398.6421438000655
 10
-303.1188739726379
 20
398.6570712704017
 10
-303.13313817624
 20
398.6712186629487
 10
-303.1478713613382
 20
398.6846665666933
 10
-303.1629574878847
 20
398.6973347295885
 10
-303.1830696754021
 20
398.7126648964095
 10
-303.2036758620558
 20
398.7267079600366
 10
-303.2248552782387
 20
398.7395560575678
 10
-303.2464263122585
 20
398.7511310662378
 10
-303.2685758806444
 20
398.7615507173569
 10
-303.2910323129409
 20
398.7706997439711
 10
-303.3138903840618
 20
398.7786342799715
 10
-303.3369780242146
 20
398.7853072643141
 10
-303.3645315953502
 20
398.7915838193738
 10
-303.392332560792
 20
398.7961239679178
 10
-303.4203005078576
 20
398.798925826453
 10
-303.4484095596442
 20
398.7999895013349
 10
-303.4514958358334
 20
398.8
  0
LINE
  5
175
330
1F
100
AcDbEntity
  8
1
  6
CONTINUOUS
 62
     7
100
AcDbLine
 10
-303.4514958358334
 20
398.8
 30
0.0
 11
-303.3658840019556
 21
398.8
 31
0.0
  0
LINE
  5
176
330
1F
100
AcDbEntity
  8
1
  6
CONTINUOUS
 62
     7
100
AcDbLine
 10
-312.9310506022086
 20
398.3014554058713
 30
0.0
 11
-312.9302832764266
 21
398.3
 31
0.0
  0
LINE
  5
177
330
1F
100
AcDbEntity
  8
1
  6
CONTINUOUS
 62
     7
100
AcDbLine
 10
-312.4310527204194
 20
398.8
 30
0.0
 11
-312.6294724330442
 21
398.8
 31
0.0
  0
LINE
  5
178
330
1F
100
AcDbEntity
  8
1
  6
CONTINUOUS
 62
     7
100
AcDbLine
 10
-313.1294659836117
 20
398.3025395651077
 30
0.0
 11
-313.1271406291095
 21
398.3
 31
0.0
  0
LINE
  5
179
330
1F
100
AcDbEntity
  8
1
  6
CONTINUOUS
 62
     7
100
AcDbLine
 10
-438.513785823648
 20
393.3
 30
0.0
 11
-438.5112567510761
 21
393.302649287734
 31
0.0
  0
LINE
  5
17A
330
1F
100
AcDbEntity
  8
1
  6
CONTINUOUS
 62
     7
100
AcDbLine
 10
-466.1107930098098
 20
393.9541763850561
 30
0.0
 11
-465.832533199501
 21
391.9687514258326
 31
0.0
  0
LINE
  5
17B
330
1F
100
AcDbEntity
  8
1
  6
CONTINUOUS
 62
     7
100
AcDbLine
 10
-285.8341334671657
 20
391.9687514258326
 30
0.0
 11
-285.5558736568569
 21
393.9541763850561
 31
0.0
  0
LINE
  5
17C
330
1F
100
AcDbEntity
  8
1
  6
CONTINUOUS
 62
     7
100
AcDbLine
 10
-310.8333333333334
 20
396.8
 30
0.0
 11
-310.8333333333334
 21
395.3
 31
0.0
  0
LINE
  5
17D
330
1F
100
AcDbEntity
  8
1
  6
CONTINUOUS
 62
     7
100
AcDbLine
 10
-465.8333333333333
 20
364.3
 30
0.0
 11
-465.6431057273783
 21
362.1256885145047
 31
0.0
  0
LINE
  5
17E
330
1F
100
AcDbEntity
  8
1
  6
CONTINUOUS
 62
     7
100
AcDbLine
 10
-286.0235609392884
 20
362.1256885145047
 30
0.0
 11
-285.8333333333334
 21
364.3
 31
0.0
  0
ARC
  5
17F
330
1F
100
AcDbEntity
  8
1
  6
CONTINUOUS
 62
     7
100
AcDbCircle
 10
-288.015950335472
 20
362.3
 30
0.0
 40
2.000000000000002
100
AcDbArc
 50
270.0
 51
354.9999999999999
  0
ARC
  5
180
330
1F
100
AcDbEntity
  8
1
  6
CONTINUOUS
 62
     7
100
AcDbCircle
 10
-463.6507163311946
 20
362.3
 30
0.0
 40
2.00000000000002
100
AcDbArc
 50
185.0000000000001
 51
270.0000000000001
  0
LINE
  5
181
330
1F
100
AcDbEntity
  8
1
  6
CONTINUOUS
 62
     7
100
AcDbLine
 10
-446.8333333333334
 20
399.35
 30
0.0
 11
-446.8333333333334
 21
398.8
 31
0.0
  0
LINE
  5
182
330
1F
100
AcDbEntity
  8
1
  6
CONTINUOUS
 62
     7
100
AcDbLine
 10
-442.8333333333334
 20
398.8
 30
0.0
 11
-442.8333333333334
 21
399.35
 31
0.0
  0
LINE
  5
183
330
1F
100
AcDbEntity
  8
1
  6
CONTINUOUS
 62
     7
100
AcDbLine
 10
-442.8333333333334
 20
399.35
 30
0.0
 11
-443.1833333333333
 21
399.7
 31
0.0
  0
LINE
  5
184
330
1F
100
AcDbEntity
  8
1
  6
CONTINUOUS
 62
     7
100
AcDbLine
 10
-446.4833333333333
 20
399.7
 30
0.0
 11
-446.8333333333334
 21
399.35
 31
0.0
  0
LINE
  5
185
330
1F
100
AcDbEntity
  8
1
  6
CONTINUOUS
 62
     7
100
AcDbLine
 10
-308.8333333333333
 20
399.35
 30
0.0
 11
-308.8333333333333
 21
398.8
 31
0.0
  0
LINE
  5
186
330
1F
100
AcDbEntity
  8
1
  6
CONTINUOUS
 62
     7
100
AcDbLine
 10
-308.8333333333333
 20
395.3
 30
0.0
 11
-308.8333333333333
 21
393.8
 31
0.0
  0
LINE
  5
187
330
1F
100
AcDbEntity
  8
1
  6
CONTINUOUS
 62
     7
100
AcDbLine
 10
-304.8333333333333
 20
393.8
 30
0.0
 11
-304.8333333333333
 21
395.3
 31
0.0
  0
LINE
  5
188
330
1F
100
AcDbEntity
  8
1
  6
CONTINUOUS
 62
     7
100
AcDbLine
 10
-304.8333333333333
 20
398.8
 30
0.0
 11
-304.8333333333333
 21
399.35
 31
0.0
  0
LINE
  5
189
330
1F
100
AcDbEntity
  8
1
  6
CONTINUOUS
 62
     7
100
AcDbLine
 10
-304.8333333333333
 20
399.35
 30
0.0
 11
-305.1833333333333
 21
399.7
 31
0.0
  0
LINE
  5
18A
330
1F
100
AcDbEntity
  8
1
  6
CONTINUOUS
 62
     7
100
AcDbLine
 10
-308.4833333333333
 20
399.7
 30
0.0
 11
-308.8333333333333
 21
399.35
 31
0.0
  0
LINE
  5
18B
330
1F
100
AcDbEntity
  8
1
  6
CONTINUOUS
 62
     7
100
AcDbLine
 10
-302.8127900496737
 20
397.3
 30
0.0
 11
-302.8665692345784
 21
398.3261679781215
 31
0.0
  0
LINE
  5
18C
330
1F
100
AcDbEntity
  8
1
  6
CONTINUOUS
 62
     7
100
AcDbLine
 10
-301.0833333333333
 20
364.3
 30
0.0
 11
-301.2405566711824
 21
367.3
 31
0.0
  0
LINE
  5
18D
330
1F
100
AcDbEntity
  8
1
  6
CONTINUOUS
 62
     7
100
AcDbLine
 10
-450.4261099954842
 20
367.3
 30
0.0
 11
-450.5833333333333
 21
364.3
 31
0.0
  0
LINE
  5
18E
330
1F
100
AcDbEntity
  8
1
  6
CONTINUOUS
 62
     7
100
AcDbLine
 10
-448.8000974320883
 20
398.3261679781215
 30
0.0
 11
-448.8538766169929
 21
397.3
 31
0.0
  0
ARC
  5
18F
330
1F
100
AcDbEntity
  8
1
  6
CONTINUOUS
 62
     7
100
AcDbCircle
 10
-437.3448091840385
 20
370.8
 30
0.0
 40
0.5000000000000004
100
AcDbArc
 50
90.0000000000024
 51
179.3719261662127
  0
LINE
  5
190
330
1F
100
AcDbEntity
  8
1
  6
CONTINUOUS
 62
     7
100
AcDbLine
 10
-437.8445009531852
 20
370.8055402439086
 30
0.0
 11
-437.8500425140261
 21
370.300000006717
 31
0.0
  0
ARC
  5
191
330
1F
100
AcDbEntity
  8
1
  6
CONTINUOUS
 62
     7
100
AcDbCircle
 10
-312.6554169343654
 20
393.3
 30
0.0
 40
0.5000000000000004
100
AcDbArc
 50
90.0
 51
179.6964125677036
  0
ARC
  5
192
330
1F
100
AcDbEntity
  8
1
  6
CONTINUOUS
 62
     7
100
AcDbCircle
 10
-439.0371942336225
 20
398.3
 30
0.0
 40
0.4999999999999886
100
AcDbArc
 50
0.2910139761947935
 51
90.0
  0
ARC
  5
193
330
1F
100
AcDbEntity
  8
1
  6
CONTINUOUS
 62
     7
100
AcDbCircle
 10
-448.3007826647109
 20
398.3
 30
0.0
 40
0.500000000000056
100
AcDbArc
 50
90.0
 51
176.9999999999943
  0
ARC
  5
194
330
1F
100
AcDbEntity
  8
1
  6
CONTINUOUS
 62
     7
100
AcDbCircle
 10
-303.3658840019557
 20
398.3
 30
0.0
 40
0.4999999999999629
100
AcDbArc
 50
3.000000000005757
 51
89.99999999999847
  0
ARC
  5
195
330
1F
100
AcDbEntity
  8
1
  6
CONTINUOUS
 62
     7
100
AcDbCircle
 10
-312.4310527204194
 20
398.3
 30
0.0
 40
0.500000000000056
100
AcDbArc
 50
90.0
 51
179.8332225366779
  0
ARC
  5
196
330
1F
100
AcDbEntity
  8
1
  6
CONTINUOUS
 62
     7
100
AcDbCircle
 10
-312.6294724330442
 20
398.3
 30
0.0
 40
0.500000000000056
100
AcDbArc
 50
90.0
 51
179.7089860238052
  0
ARC
  5
197
330
1F
100
AcDbEntity
  8
1
  6
CONTINUOUS
 62
     7
100
AcDbCircle
 10
-439.0112497323013
 20
393.3
 30
0.0
 40
0.4999999999999777
100
AcDbArc
 50
0.3035874322964834
 51
6.082181862395509
  0
LINE
  5
198
330
1F
100
AcDbEntity
  8
0
  6
CENTER
 62
     1
100
AcDbLine
 10
-375.8333333333334
 20
350.3
 30
0.0
 11
-375.8333333333334
 21
390.0000000000001
 31
0.0
  0
LINE
  5
19A
330
1F
100
AcDbEntity
  8
0
  6
CENTER
 62
     1
100
AcDbLine
 10
-176.3666666666666
 20
201.6808469641533
 30
0.0
 11
-119.9999999999999
 21
201.6808469641533
 31
0.0
  0
LINE
  5
19B
330
1F
100
AcDbEntity
  8
0
  6
CENTER
 62
     1
100
AcDbLine
 10
-467.8333333333334
 20
201.6666666666667
 30
0.0
 11
-283.8333333333336
 21
201.6666666666667
 31
0.0
  0
LINE
  5
19C
330
1F
100
AcDbEntity
  8
0
  6
CENTER
 62
     1
100
AcDbLine
 10
-375.8333333333334
 20
109.6666666666668
 30
0.0
 11
-375.8333333333334
 21
293.6666666666666
 31
0.0
  0
POINT
  5
19D
330
1F
100
AcDbEntity
  8
0
 62
     1
100
AcDbPoint
 10
-375.8333333333334
 20
293.6666666666666
 30
0.0
  0
POINT
  5
19E
330
1F
100
AcDbEntity
  8
0
 62
     1
100
AcDbPoint
 10
-285.5558651567964
 20
201.6808469641533
 30
0.0
  0
ENDSEC
  0
SECTION
  2
OBJECTS
  0
DICTIONARY
  5
C
330
0
100
AcDbDictionary
  3
ACAD_GROUP
350
D
  3
ACAD_LAYOUT
350
1A
  3
ACAD_MATERIAL
350
43
  3
ACAD_MLEADERSTYLE
350
6B
  3
ACAD_MLINESTYLE
350
17
  3
ACAD_PLOTSETTINGS
350
19
  3
ACAD_SCALELIST
350
47
  3
ACAD_VISUALSTYLE
350
2A
  3
ACDBHEADERROUNDTRIPXREC
350
19F
  3
ACDBVARIABLEDICTIONARY
350
1C0
  0
DICTIONARY
  5
1C7
330
8
100
AcDbDictionary
280
     1
  3
ACAD_XREC_ROUNDTRIP
360
1C8
  0
DICTIONARY
  5
D
102
{ACAD_REACTORS
330
C
102
}
330
C
100
AcDbDictionary
  0
DICTIONARY
  5
1A
102
{ACAD_REACTORS
330
C
102
}
330
C
100
AcDbDictionary
  0
DICTIONARY
  5
43
102
{ACAD_REACTORS
330
C
102
}
330
C
100
AcDbDictionary
  3
BYBLOCK
350
45
  3
BYLAYER
350
44
  3
GLOBAL
350
46
  0
DICTIONARY
  5
6B
102
{ACAD_REACTORS
330
C
102
}
330
C
100
AcDbDictionary
  3
STANDARD
350
6C
  0
DICTIONARY
  5
17
102
{ACAD_REACTORS
330
C
102
}
330
C
100
AcDbDictionary
  3
STANDARD
350
18
  0
DICTIONARY
  5
19
102
{ACAD_REACTORS
330
C
102
}
330
C
100
AcDbDictionary
  0
DICTIONARY
  5
47
102
{ACAD_REACTORS
330
C
102
}
330
C
100
AcDbDictionary
  3
A0
350
48
  3
A1
350
49
  3
A2
350
4A
  3
A3
350
4B
  3
A4
350
4C
  3
A5
350
4D
  3
A6
350
4E
  3
A7
350
4F
  3
A8
350
50
  3
A9
350
51
  3
B0
350
52
  3
B1
350
53
  3
B2
350
54
  3
B3
350
55
  3
B4
350
56
  3
B5
350
57
  3
B6
350
58
  3
B7
350
59
  3
B8
350
5A
  3
B9
350
5B
  3
C0
350
5C
  3
C1
350
5D
  3
C2
350
5E
  3
C3
350
5F
  3
C4
350
60
  3
C5
350
61
  3
C6
350
62
  3
C7
350
63
  3
C8
350
64
  3
C9
350
65
  3
D0
350
66
  3
D1
350
67
  3
D2
350
68
  0
DICTIONARY
  5
2A
102
{ACAD_REACTORS
330
C
102
}
330
C
100
AcDbDictionary
  3
2DWIREFRAME
350
2F
  3
BASIC
350
32
  3
BRIGHTEN
350
36
  3
COLORCHANGE
350
3A
  3
CONCEPTUAL
350
34
  3
DIM
350
35
  3
EDGECOLOROFF
350
3D
  3
FACEPATTERN
350
39
  3
FLAT
350
2B
  3
FLATWITHEDGES
350
2C
  3
GOURAUD
350
2D
  3
GOURAUDWITHEDGES
350
2E
  3
HIDDEN
350
31
  3
JITTEROFF
350
3B
  3
LINEPATTERN
350
38
  3
OVERHANGOFF
350
3C
  3
REALISTIC
350
33
  3
SHADED
350
42
  3
SHADED_WITH_EDGES
350
41
  3
SHADES_OF_GRAY
350
3E
  3
SKETCHY
350
3F
  3
THICKEN
350
37
  3
WIREFRAME
350
30
  3
X-RAY
350
40
  0
DICTIONARY
  5
19F
102
{ACAD_REACTORS
330
C
102
}
330
C
100
AcDbDictionary
  3
CEPSNID
350
1A9
  3
CEPSNTYPE
350
1A8
  3
DIMSTYLEDATA
350
1BF
  3
FINGERPRINTGUID
350
1AA
  3
HYPERLINKBASE
350
1A2
  3
INSUNITS
350
1A7
  3
LAYOUTDICT
350
1A4
  3
LWETCUNION
350
1A6
  3
PLOTSETDICT
350
1A5
  3
PSVPSCALE
350
1AC
  3
PUCSBASE
350
1AF
  3
PUCSORGBACK
350
1B5
  3
PUCSORGBOTTOM
350
1B1
  3
PUCSORGFRONT
350
1B4
  3
PUCSORGLEFT
350
1B2
  3
PUCSORGRIGHT
350
1B3
  3
PUCSORGTOP
350
1B0
  3
PUCSORTHOREF
350
1AD
  3
PUCSORTHOVIEW
350
1AE
  3
STYLESHEET
350
1A3
  3
TSTACKALIGN
350
1A0
  3
TSTACKSIZE
350
1A1
  3
UCSBASE
350
1B8
  3
UCSORGBACK
350
1BE
  3
UCSORGBOTTOM
350
1BA
  3
UCSORGFRONT
350
1BD
  3
UCSORGLEFT
350
1BB
  3
UCSORGRIGHT
350
1BC
  3
UCSORGTOP
350
1B9
  3
UCSORTHOREF
350
1B6
  3
UCSORTHOVIEW
350
1B7
  3
VERSIONGUID
350
1AB
  0
DICTIONARY
  5
1C0
102
{ACAD_REACTORS
330
C
102
}
330
C
100
AcDbDictionary
  3
CANNOSCALE
350
1C9
  3
CMLEADERSTYLE
350
1C2
  3
CTABLESTYLE
350
1C1
  3
DIMASSOC
350
1C5
  3
HIDETEXT
350
1C6
  3
MSLTSCALE
350
1CA
  0
XRECORD
  5
1C8
102
{ACAD_REACTORS
330
1C7
102
}
330
1C7
100
AcDbXrecord
102
VTR_0.000_0.000_1.000_1.000_VISUALSTYLE
340
2F
102
VTR_0.000_0.000_1.000_1.000_GRIDDISPLAY
 70
     3
102
VTR_0.000_0.000_1.000_1.000_GRIDMAJOR
 70
     5
102
VTR_0.000_0.000_1.000_1.000_DEFAULTLIGHTING
280
     1
102
VTR_0.000_0.000_1.000_1.000_DEFAULTLIGHTINGTYPE
 70
     1
102
VTR_0.000_0.000_1.000_1.000_BRIGHTNESS
141
0.0
102
VTR_0.000_0.000_1.000_1.000_CONTRAST
142
0.0
  0
MATERIAL
  5
45
102
{ACAD_REACTORS
330
43
102
}
102
{ACAD_XDICTIONARY
360
1CD
102
}
330
43
100
AcDbMaterial
  1
BYBLOCK
  0
MATERIAL
  5
44
102
{ACAD_REACTORS
330
43
102
}
102
{ACAD_XDICTIONARY
360
1CB
102
}
330
43
100
AcDbMaterial
  1
BYLAYER
  0
MATERIAL
  5
46
102
{ACAD_REACTORS
330
43
102
}
102
{ACAD_XDICTIONARY
360
1CF
102
}
330
43
100
AcDbMaterial
  1
GLOBAL
  0
ACAD_PROXY_OBJECT
  5
6C
102
{ACAD_REACTORS
330
6B
102
}
330
6B
100
AcDbProxyObject
 90
      499
 91
      505
 93
      610
310
40901902A4063FBFFFFFE056BD1B81E855B9FC0AD7A3703D0AD73F4214DD185B99185C9900AD7A3703D0AC73F90141901A02B5E8DC0F42B1CFC02B5E8DC0F42B1CFE5764000000000000300FC0
340
14
340
0
340
11
340
0
 94
        0
1001
ACAD_MLEADERVER
1070
     2
  0
MLINESTYLE
  5
18
102
{ACAD_REACTORS
330
17
102
}
330
17
100
AcDbMlineStyle
  2
Standard
 70
     0
  3

 62
   256
 51
90.0
 52
90.0
 71
     2
 49
0.5
 62
   256
  6
BYLAYER
 49
-0.5
 62
   256
  6
BYLAYER
  0
ACAD_PROXY_OBJECT
  5
48
102
{ACAD_REACTORS
330
47
102
}
330
47
100
AcDbProxyObject
 90
      499
 91
      503
 93
       41
310
903313A31580
  0
ACAD_PROXY_OBJECT
  5
49
102
{ACAD_REACTORS
330
47
102
}
330
47
100
AcDbProxyObject
 90
      499
 91
      503
 93
      105
310
903313A324000000000000004000
  0
ACAD_PROXY_OBJECT
  5
4A
102
{ACAD_REACTORS
330
47
102
}
330
47
100
AcDbProxyObject
 90
      499
 91
      503
 93
      105
310
903313A344000000000000104000
  0
ACAD_PROXY_OBJECT
  5
4B
102
{ACAD_REACTORS
330
47
102
}
330
47
100
AcDbProxyObject
 90
      499
 91
      503
 93
      105
310
903313A354000000000000144000
  0
ACAD_PROXY_OBJECT
  5
4C
102
{ACAD_REACTORS
330
47
102
}
330
47
100
AcDbProxyObject
 90
      499
 91
      503
 93
      105
310
903313A384000000000000204000
  0
ACAD_PROXY_OBJECT
  5
4D
102
{ACAD_REACTORS
330
47
102
}
330
47
100
AcDbProxyObject
 90
      499
 91
      503
 93
      113
310
904313A31304000000000000244000
  0
ACAD_PROXY_OBJECT
  5
4E
102
{ACAD_REACTORS
330
47
102
}
330
47
100
AcDbProxyObject
 90
      499
 91
      503
 93
      113
310
904313A31364000000000000304000
  0
ACAD_PROXY_OBJECT
  5
4F
102
{ACAD_REACTORS
330
47
102
}
330
47
100
AcDbProxyObject
 90
      499
 91
      503
 93
      113
310
904313A32304000000000000344000
  0
ACAD_PROXY_OBJECT
  5
50
102
{ACAD_REACTORS
330
47
102
}
330
47
100
AcDbProxyObject
 90
      499
 91
      503
 93
      113
310
904313A333040000000000003E4000
  0
ACAD_PROXY_OBJECT
  5
51
102
{ACAD_REACTORS
330
47
102
}
330
47
100
AcDbProxyObject
 90
      499
 91
      503
 93
      113
310
904313A34304000000000000444000
  0
ACAD_PROXY_OBJECT
  5
52
102
{ACAD_REACTORS
330
47
102
}
330
47
100
AcDbProxyObject
 90
      499
 91
      503
 93
      113
310
904313A35304000000000000494000
  0
ACAD_PROXY_OBJECT
  5
53
102
{ACAD_REACTORS
330
47
102
}
330
47
100
AcDbProxyObject
 90
      499
 91
      503
 93
      121
310
905313A3130304000000000000594000
  0
ACAD_PROXY_OBJECT
  5
54
102
{ACAD_REACTORS
330
47
102
}
330
47
100
AcDbProxyObject
 90
      499
 91
      503
 93
      105
310
903323A310000000000000010100
  0
ACAD_PROXY_OBJECT
  5
55
102
{ACAD_REACTORS
330
47
102
}
330
47
100
AcDbProxyObject
 90
      499
 91
      503
 93
      105
310
903343A310000000000000410100
  0
ACAD_PROXY_OBJECT
  5
56
102
{ACAD_REACTORS
330
47
102
}
330
47
100
AcDbProxyObject
 90
      499
 91
      503
 93
      105
310
903383A310000000000000810100
  0
ACAD_PROXY_OBJECT
  5
57
102
{ACAD_REACTORS
330
47
102
}
330
47
100
AcDbProxyObject
 90
      499
 91
      503
 93
      113
310
90431303A310000000000000910100
  0
ACAD_PROXY_OBJECT
  5
58
102
{ACAD_REACTORS
330
47
102
}
330
47
100
AcDbProxyObject
 90
      499
 91
      503
 93
      121
310
9053130303A310000000000001650100
  0
ACAD_PROXY_OBJECT
  5
59
102
{ACAD_REACTORS
330
47
102
}
330
47
100
AcDbProxyObject
 90
      499
 91
      503
 93
      257
310
90E312F31323822203D2031272D3022000000000000200FC000000000000284000
  0
ACAD_PROXY_OBJECT
  5
5A
102
{ACAD_REACTORS
330
47
102
}
330
47
100
AcDbProxyObject
 90
      499
 91
      503
 93
      249
310
90D312F363422203D2031272D3022000000000000240FC000000000000284000
  0
ACAD_PROXY_OBJECT
  5
5B
102
{ACAD_REACTORS
330
47
102
}
330
47
100
AcDbProxyObject
 90
      499
 91
      503
 93
      249
310
90D312F333222203D2031272D3022000000000000280FC000000000000284000
  0
ACAD_PROXY_OBJECT
  5
5C
102
{ACAD_REACTORS
330
47
102
}
330
47
100
AcDbProxyObject
 90
      499
 91
      503
 93
      249
310
90D312F313622203D2031272D30220000000000002C0FC000000000000284000
  0
ACAD_PROXY_OBJECT
  5
5D
102
{ACAD_REACTORS
330
47
102
}
330
47
100
AcDbProxyObject
 90
      499
 91
      503
 93
      249
310
90D332F333222203D2031272D30220000000000002E0FC000000000000284000
  0
ACAD_PROXY_OBJECT
  5
5E
102
{ACAD_REACTORS
330
47
102
}
330
47
100
AcDbProxyObject
 90
      499
 91
      503
 93
      241
310
90C312F3822203D2031272D3022000000000000300FC000000000000284000
  0
ACAD_PROXY_OBJECT
  5
5F
102
{ACAD_REACTORS
330
47
102
}
330
47
100
AcDbProxyObject
 90
      499
 91
      503
 93
      249
310
90D332F313622203D2031272D3022000000000000320FC000000000000284000
  0
ACAD_PROXY_OBJECT
  5
60
102
{ACAD_REACTORS
330
47
102
}
330
47
100
AcDbProxyObject
 90
      499
 91
      503
 93
      241
310
90C312F3422203D2031272D3022000000000000340FC000000000000284000
  0
ACAD_PROXY_OBJECT
  5
61
102
{ACAD_REACTORS
330
47
102
}
330
47
100
AcDbProxyObject
 90
      499
 91
      503
 93
      241
310
90C332F3822203D2031272D3022000000000000360FC000000000000284000
  0
ACAD_PROXY_OBJECT
  5
62
102
{ACAD_REACTORS
330
47
102
}
330
47
100
AcDbProxyObject
 90
      499
 91
      503
 93
      241
310
90C312F3222203D2031272D3022000000000000380FC000000000000284000
  0
ACAD_PROXY_OBJECT
  5
63
102
{ACAD_REACTORS
330
47
102
}
330
47
100
AcDbProxyObject
 90
      499
 91
      503
 93
      241
310
90C332F3422203D2031272D30220000000000003A0FC000000000000284000
  0
ACAD_PROXY_OBJECT
  5
64
102
{ACAD_REACTORS
330
47
102
}
330
47
100
AcDbProxyObject
 90
      499
 91
      503
 93
      161
310
90A3122203D2031272D30224000000000000284000
  0
ACAD_PROXY_OBJECT
  5
65
102
{ACAD_REACTORS
330
47
102
}
330
47
100
AcDbProxyObject
 90
      499
 91
      503
 93
      257
310
90E312D312F3222203D2031272D30220000000000003E0FC000000000000284000
  0
ACAD_PROXY_OBJECT
  5
66
102
{ACAD_REACTORS
330
47
102
}
330
47
100
AcDbProxyObject
 90
      499
 91
      503
 93
      225
310
90A3322203D2031272D302200000000000002100000000000000284000
  0
ACAD_PROXY_OBJECT
  5
67
102
{ACAD_REACTORS
330
47
102
}
330
47
100
AcDbProxyObject
 90
      499
 91
      503
 93
      225
310
90A3622203D2031272D302200000000000006100000000000000284000
  0
ACAD_PROXY_OBJECT
  5
68
102
{ACAD_REACTORS
330
47
102
}
330
47
100
AcDbProxyObject
 90
      499
 91
      503
 93
      249
310
90D31272D3022203D2031272D30220000000000000A100000000000000284000
  0
ACAD_PROXY_OBJECT
  5
2F
102
{ACAD_REACTORS
330
2A
102
}
330
2A
100
AcDbProxyObject
 90
      499
 91
      501
 93
      436
310
42CC9915DA5C99599C985B595049028333333333333E33F0000000000000F90107901411070040501600405405064090741402480A0340
1001
ACAD
1000
AcDbSavedByObjectVersion
1070
     0
  0
ACAD_PROXY_OBJECT
  5
32
102
{ACAD_REACTORS
330
2A
102
}
330
2A
100
AcDbProxyObject
 90
      499
 91
      501
 93
      388
310
4150985CDA58D07406404333333333333E33F0000000000000F90107A41107004050150841D405064090741402480A0350
1001
ACAD
1000
AcDbSavedByObjectVersion
1070
     0
  0
ACAD_PROXY_OBJECT
  5
36
102
{ACAD_REACTORS
330
2A
102
}
330
2A
100
AcDbProxyObject
 90
      499
 91
      501
 93
      428
310
42109C9A59DA1D195B90C409028333333333333E33F0000000000000F9010790141107004050150841D405064090741402480A029950
1001
ACAD
1000
AcDbSavedByObjectVersion
1070
     0
  0
ACAD_PROXY_OBJECT
  5
3A
102
{ACAD_REACTORS
330
2A
102
}
330
2A
100
AcDbProxyObject
 90
      499
 91
      501
 93
      452
310
42D0DBDB1BDC90DA185B99D95104090240C333333333333E33F0000000000000F90108901411070040501508421405064090741402480A0350
1001
ACAD
1000
AcDbSavedByObjectVersion
1070
     0
  0
ACAD_PROXY_OBJECT
  5
34
102
{ACAD_REACTORS
330
2A
102
}
330
2A
100
AcDbProxyObject
 90
      499
 91
      501
 93
      500
310
4290DBDB98D95C1D1D585B10940D028333333333333E33F0000000000000F90107902409070040501000000000018199010841D405064090740C02480A0340
1001
ACAD
1000
AcDbSavedByObjectVersion
1070
     0
  0
ACAD_PROXY_OBJECT
  5
35
102
{ACAD_REACTORS
330
2A
102
}
330
2A
100
AcDbProxyObject
 90
      499
 91
      501
 93
      412
310
40D11A5B50B409028333333333333E33F0000000000000F9010790141107004050150841D405064090741402480A02677FFFFFD0
1001
ACAD
1000
AcDbSavedByObjectVersion
1070
     0
  0
ACAD_PROXY_OBJECT
  5
3D
102
{ACAD_REACTORS
330
2A
102
}
330
2A
100
AcDbProxyObject
 90
      499
 91
      501
 93
      452
310
43115919D950DBDB1BDC93D999916409028333333333333E33F0000000000000F9010790141107004050150841D405064090741402480A0350
1001
ACAD
1000
AcDbSavedByObjectVersion
1070
     0
  0
ACAD_PROXY_OBJECT
  5
39
102
{ACAD_REACTORS
330
2A
102
}
330
2A
100
AcDbProxyObject
 90
      499
 91
      501
 93
      444
310
42D19858D95C185D1D195C9B90F409028333333333333E33F0000000000000F9010790141107004050150841D405064090741402480A0350
1001
ACAD
1000
AcDbSavedByObjectVersion
1070
     0
  0
ACAD_PROXY_OBJECT
  5
2B
102
{ACAD_REACTORS
330
2A
102
}
330
2A
100
AcDbProxyObject
 90
      499
 91
      501
 93
      380
310
41119B185D240901404333333333333E33F0000000000000F9010740A907004050150841D405064090741402480A1B50
1001
ACAD
1000
AcDbSavedByObjectVersion
1070
     0
  0
ACAD_PROXY_OBJECT
  5
2C
102
{ACAD_REACTORS
330
2A
102
}
330
2A
100
AcDbProxyObject
 90
      499
 91
      501
 93
      468
310
43519B185D15DA5D1A115919D95CD0140901404333333333333E33F0000000000000F90107409019070040501600405405064090741402480A1B50
1001
ACAD
1000
AcDbSavedByObjectVersion
1070
     0
  0
ACAD_PROXY_OBJECT
  5
2D
102
{ACAD_REACTORS
330
2A
102
}
330
2A
100
AcDbProxyObject
 90
      499
 91
      501
 93
      404
310
41D1DBDD5C985D5910240902404333333333333E33F0000000000000F9010740A9070040501641D405064090741402480A1B50
1001
ACAD
1000
AcDbSavedByObjectVersion
1070
     0
  0
ACAD_PROXY_OBJECT
  5
2E
102
{ACAD_REACTORS
330
2A
102
}
330
2A
100
AcDbProxyObject
 90
      499
 91
      501
 93
      492
310
4411DBDD5C985D5915DA5D1A115919D95CD0340902404333333333333E33F0000000000000F90107409019070040501600405405064090741402480A1B50
1001
ACAD
1000
AcDbSavedByObjectVersion
1070
     0
  0
ACAD_PROXY_OBJECT
  5
31
102
{ACAD_REACTORS
330
2A
102
}
330
2A
100
AcDbProxyObject
 90
      499
 91
      501
 93
      476
310
41921A5919195B90640502408333333333333E33F0000000000000F901079024090700405020000000000001110200405405064090740C02480A0340
1001
ACAD
1000
AcDbSavedByObjectVersion
1070
     0
  0
ACAD_PROXY_OBJECT
  5
3B
102
{ACAD_REACTORS
330
2A
102
}
330
2A
100
AcDbProxyObject
 90
      499
 91
      501
 93
      428
310
42529A5D1D195C93D999914409028333333333333E33F0000000000000F9010790141107004050150A41D405064090741402480A0350
1001
ACAD
1000
AcDbSavedByObjectVersion
1070
     0
  0
ACAD_PROXY_OBJECT
  5
38
102
{ACAD_REACTORS
330
2A
102
}
330
2A
100
AcDbProxyObject
 90
      499
 91
      501
 93
      444
310
42D31A5B995C185D1D195C9B90E409028333333333333E33F0000000000000F9010790141107004050750841D405064090741402483A0350
1001
ACAD
1000
AcDbSavedByObjectVersion
1070
     0
  0
ACAD_PROXY_OBJECT
  5
3C
102
{ACAD_REACTORS
330
2A
102
}
330
2A
100
AcDbProxyObject
 90
      499
 91
      501
 93
      444
310
42D3DD995C9A185B99D3D999915409028333333333333E33F0000000000000F9010790141107004050150941D405064090741402480A0350
1001
ACAD
1000
AcDbSavedByObjectVersion
1070
     0
  0
ACAD_PROXY_OBJECT
  5
33
102
{ACAD_REACTORS
330
2A
102
}
330
2A
100
AcDbProxyObject
 90
      499
 91
      501
 93
      428
310
425499585B1A5CDD1A58D08409038333333333333E33F0000000000000F9010740A907004050150800405405064090740C02480A1B40
1001
ACAD
1000
AcDbSavedByObjectVersion
1070
     0
  0
ACAD_PROXY_OBJECT
  5
42
102
{ACAD_REACTORS
330
2A
102
}
330
2A
100
AcDbProxyObject
 90
      499
 91
      501
 93
      420
310
4194DA1859195911B40902404333333333333E33F0000000000000F9010740A41107004050150800405405064090840C02480A0B40
1001
ACAD
1000
AcDbSavedByObjectVersion
1070
     0
  0
ACAD_PROXY_OBJECT
  5
41
102
{ACAD_REACTORS
330
2A
102
}
330
2A
100
AcDbProxyObject
 90
      499
 91
      501
 93
      516
310
4454DA18591959081DDA5D1A08195919D95CD1A40902404333333333333E33F0000000000000F901074090142907004050250800405405064090740C02480A0B40
1001
ACAD
1000
AcDbSavedByObjectVersion
1070
     0
  0
ACAD_PROXY_OBJECT
  5
3E
102
{ACAD_REACTORS
330
2A
102
}
330
2A
100
AcDbProxyObject
 90
      499
 91
      501
 93
      532
310
4394DA1859195CC81BD98811DC985E5174090240C333333333333E33F0000000000000F901079024090741D01000000000000111010841D405064090740C02480A0340
1001
ACAD
1000
AcDbSavedByObjectVersion
1070
     0
  0
ACAD_PROXY_OBJECT
  5
3F
102
{ACAD_REACTORS
330
2A
102
}
330
2A
100
AcDbProxyObject
 90
      499
 91
      501
 93
      476
310
41D4DAD95D18DA1E51840502408333333333333E33F0000000000000F901079024090741D01000000000000111010B41D405064090741802480A0340
1001
ACAD
1000
AcDbSavedByObjectVersion
1070
     0
  0
ACAD_PROXY_OBJECT
  5
37
102
{ACAD_REACTORS
330
2A
102
}
330
2A
100
AcDbProxyObject
 90
      499
 91
      501
 93
      412
310
41D51A1A58DAD95B90D409028333333333333E33F0000000000000F9010790141107004050150C41D405064090741402480A0350
1001
ACAD
1000
AcDbSavedByObjectVersion
1070
     0
  0
ACAD_PROXY_OBJECT
  5
30
102
{ACAD_REACTORS
330
2A
102
}
330
2A
100
AcDbProxyObject
 90
      499
 91
      501
 93
      420
310
4255DA5C99599C985B595059028333333333333E33F0000000000000F90107901411070040501600405405064090740C02480A0340
1001
ACAD
1000
AcDbSavedByObjectVersion
1070
     0
  0
ACAD_PROXY_OBJECT
  5
40
102
{ACAD_REACTORS
330
2A
102
}
330
2A
100
AcDbProxyObject
 90
      499
 91
      501
 93
      404
310
41560B54985E51940902404000000000000E03F0000000000000F9010740501907004050150841D405064090740C02480A1B40
1001
ACAD
1000
AcDbSavedByObjectVersion
1070
     0
  0
XRECORD
  5
1A9
102
{ACAD_REACTORS
330
19F
102
}
330
19F
100
AcDbXrecord
340
0
  0
XRECORD
  5
1A8
102
{ACAD_REACTORS
330
19F
102
}
330
19F
100
AcDbXrecord
 90
        0
  0
XRECORD
  5
1BF
102
{ACAD_REACTORS
330
19F
102
}
330
19F
100
AcDbXrecord
1000
DSTYLE
1002
{
1070
   179
 70
     2
1070
   171
 70
     2
1070
   143
 40
25.4
1070
   274
 70
     2
1070
    41
 40
3.0
1070
   141
 40
0.09
1070
    43
 40
0.38
1070
   278
 70
    46
1070
    44
 40
1.5
1070
    42
 40
0.0625
1070
   147
 40
1.5
1070
   272
 70
     4
1070
    73
 70
     1
1070
   172
 70
     0
1070
    74
 70
     1
1070
   283
 70
     1
1070
   340
340
6F
1070
   140
 40
3.0
1070
   284
 70
     0
1070
    78
 70
     0
1002
}
  0
XRECORD
  5
1AA
102
{ACAD_REACTORS
330
19F
102
}
330
19F
100
AcDbXrecord
  1
{A8D8650B-7C08-48CB-A7A5-2AE0AE2D3DD4}
  0
XRECORD
  5
1A2
102
{ACAD_REACTORS
330
19F
102
}
330
19F
100
AcDbXrecord
  1

  0
XRECORD
  5
1A7
102
{ACAD_REACTORS
330
19F
102
}
330
19F
100
AcDbXrecord
 90
        4
  0
XRECORD
  5
1A4
102
{ACAD_REACTORS
330
19F
102
}
330
19F
100
AcDbXrecord
340
1A
  0
XRECORD
  5
1A6
102
{ACAD_REACTORS
330
19F
102
}
330
19F
100
AcDbXrecord
 90
    10269
  0
XRECORD
  5
1A5
102
{ACAD_REACTORS
330
19F
102
}
330
19F
100
AcDbXrecord
340
19
  0
XRECORD
  5
1AC
102
{ACAD_REACTORS
330
19F
102
}
330
19F
100
AcDbXrecord
 40
0.0
  0
XRECORD
  5
1AF
102
{ACAD_REACTORS
330
19F
102
}
330
19F
100
AcDbXrecord
340
0
  0
XRECORD
  5
1B5
102
{ACAD_REACTORS
330
19F
102
}
330
19F
100
AcDbXrecord
 10
0.0
 20
0.0
 30
0.0
  0
XRECORD
  5
1B1
102
{ACAD_REACTORS
330
19F
102
}
330
19F
100
AcDbXrecord
 10
0.0
 20
0.0
 30
0.0
  0
XRECORD
  5
1B4
102
{ACAD_REACTORS
330
19F
102
}
330
19F
100
AcDbXrecord
 10
0.0
 20
0.0
 30
0.0
  0
XRECORD
  5
1B2
102
{ACAD_REACTORS
330
19F
102
}
330
19F
100
AcDbXrecord
 10
0.0
 20
0.0
 30
0.0
  0
XRECORD
  5
1B3
102
{ACAD_REACTORS
330
19F
102
}
330
19F
100
AcDbXrecord
 10
0.0
 20
0.0
 30
0.0
  0
XRECORD
  5
1B0
102
{ACAD_REACTORS
330
19F
102
}
330
19F
100
AcDbXrecord
 10
0.0
 20
0.0
 30
0.0
  0
XRECORD
  5
1AD
102
{ACAD_REACTORS
330
19F
102
}
330
19F
100
AcDbXrecord
340
0
  0
XRECORD
  5
1AE
102
{ACAD_REACTORS
330
19F
102
}
330
19F
100
AcDbXrecord
 70
     0
  0
XRECORD
  5
1A3
102
{ACAD_REACTORS
330
19F
102
}
330
19F
100
AcDbXrecord
  1

  0
XRECORD
  5
1A0
102
{ACAD_REACTORS
330
19F
102
}
330
19F
100
AcDbXrecord
 90
        1
  0
XRECORD
  5
1A1
102
{ACAD_REACTORS
330
19F
102
}
330
19F
100
AcDbXrecord
 90
       70
  0
XRECORD
  5
1B8
102
{ACAD_REACTORS
330
19F
102
}
330
19F
100
AcDbXrecord
340
0
  0
XRECORD
  5
1BE
102
{ACAD_REACTORS
330
19F
102
}
330
19F
100
AcDbXrecord
 10
0.0
 20
0.0
 30
0.0
  0
XRECORD
  5
1BA
102
{ACAD_REACTORS
330
19F
102
}
330
19F
100
AcDbXrecord
 10
0.0
 20
0.0
 30
0.0
  0
XRECORD
  5
1BD
102
{ACAD_REACTORS
330
19F
102
}
330
19F
100
AcDbXrecord
 10
0.0
 20
0.0
 30
0.0
  0
XRECORD
  5
1BB
102
{ACAD_REACTORS
330
19F
102
}
330
19F
100
AcDbXrecord
 10
0.0
 20
0.0
 30
0.0
  0
XRECORD
  5
1BC
102
{ACAD_REACTORS
330
19F
102
}
330
19F
100
AcDbXrecord
 10
0.0
 20
0.0
 30
0.0
  0
XRECORD
  5
1B9
102
{ACAD_REACTORS
330
19F
102
}
330
19F
100
AcDbXrecord
 10
0.0
 20
0.0
 30
0.0
  0
XRECORD
  5
1B6
102
{ACAD_REACTORS
330
19F
102
}
330
19F
100
AcDbXrecord
340
0
  0
XRECORD
  5
1B7
102
{ACAD_REACTORS
330
19F
102
}
330
19F
100
AcDbXrecord
 70
     0
  0
XRECORD
  5
1AB
102
{ACAD_REACTORS
330
19F
102
}
330
19F
100
AcDbXrecord
  1
{FAEB1C32-E019-11D5-929B-00C0DF256EC4}
  0
DICTIONARYVAR
  5
1C9
102
{ACAD_REACTORS
330
1C0
102
}
330
1C0
100
DictionaryVariables
280
     0
  1
1:1
  0
DICTIONARYVAR
  5
1C2
102
{ACAD_REACTORS
330
1C0
102
}
330
1C0
100
DictionaryVariables
280
     0
  1
Standard
  0
DICTIONARYVAR
  5
1C1
102
{ACAD_REACTORS
330
1C0
102
}
330
1C0
100
DictionaryVariables
280
     0
  1
Standard
  0
DICTIONARYVAR
  5
1C5
102
{ACAD_REACTORS
330
1C0
102
}
330
1C0
100
DictionaryVariables
280
     0
  1
2
  0
DICTIONARYVAR
  5
1C6
102
{ACAD_REACTORS
330
1C0
102
}
330
1C0
100
DictionaryVariables
280
     0
  1
1
  0
DICTIONARYVAR
  5
1CA
102
{ACAD_REACTORS
330
1C0
102
}
330
1C0
100
DictionaryVariables
280
     0
  1
1
  0
DICTIONARY
  5
1CD
330
45
100
AcDbDictionary
280
     1
  3
ACAD_XREC_ROUNDTRIP
360
1CE
  0
DICTIONARY
  5
1CB
330
44
100
AcDbDictionary
280
     1
  3
ACAD_XREC_ROUNDTRIP
360
1CC
  0
DICTIONARY
  5
1CF
330
46
100
AcDbDictionary
280
     1
  3
ACAD_XREC_ROUNDTRIP
360
1D0
  0
XRECORD
  5
1CE
102
{ACAD_REACTORS
330
1CD
102
}
330
1CD
100
AcDbXrecord
102
MATERIAL
148
0.0
149
0.0
149
0.0
 93
        0
 94
      127
282
     0
 72
     1
 77
     1
171
     1
175
     1
179
     1
273
     0
  0
XRECORD
  5
1CC
102
{ACAD_REACTORS
330
1CB
102
}
330
1CB
100
AcDbXrecord
102
MATERIAL
148
0.0
149
0.0
149
0.0
 93
        0
 94
      127
282
     0
 72
     1
 77
     1
171
     1
175
     1
179
     1
273
     0
  0
XRECORD
  5
1D0
102
{ACAD_REACTORS
330
1CF
102
}
330
1CF
100
AcDbXrecord
102
MATERIAL
148
0.0
149
0.0
149
0.0
 93
        0
 94
      127
282
     0
 72
     1
 77
     1
171
     1
175
     1
179
     1
273
     0
  0
ENDSEC
  0
EOF
