  0
SECTION
  2
HEADER
  9
$ACADVER
  1
AC1006
  9
$DWGCODEPAGE
  3
ansi_932
  9
$INSBASE
 10
0.0
 20
0.0
 30
0.0
  9
$EXTMIN
 10
493.3333333333333
 20
218.3333333333333
  9
$EXTMAX
 10
613.3333333333334
 20
315.0000000000001
  9
$LIMMIN
 10
0.0
 20
0.0
  9
$LIMMAX
 10
12.0
 20
9.0
  9
$ORTHOMODE
 70
     0
  9
$REGENMODE
 70
     1
  9
$FILLMODE
 70
     1
  9
$QTEXTMODE
 70
     0
  9
$MIRRTEXT
 70
     1
  9
$DRAGMODE
 70
     2
  9
$LTSCALE
 40
1.0
  9
$OSMODE
 70
    37
  9
$ATTMODE
 70
     1
  9
$TEXTSIZE
 40
0.2
  9
$TRACEWID
 40
0.05
  9
$TEXTSTYLE
  7
STANDARD
  9
$CLAYER
  8
0
  9
$CELTYPE
  6
BYLAYER
  9
$CECOLOR
 62
   256
  9
$DIMSCALE
 40
1.0
  9
$DIMASZ
 40
3.0
  9
$DIMEXO
 40
0.0625
  9
$DIMDLI
 40
0.38
  9
$DIMRND
 40
0.0
  9
$DIMDLE
 40
0.0
  9
$DIMEXE
 40
0.18
  9
$DIMTP
 40
0.0
  9
$DIMTM
 40
0.0
  9
$DIMTXT
 40
3.0
  9
$DIMCEN
 40
0.09
  9
$DIMTSZ
 40
0.0
  9
$DIMTOL
 70
     0
  9
$DIMLIM
 70
     0
  9
$DIMTIH
 70
     1
  9
$DIMTOH
 70
     1
  9
$DIMSE1
 70
     0
  9
$DIMSE2
 70
     0
  9
$DIMTAD
 70
     1
  9
$DIMZIN
 70
     0
  9
$DIMBLK
  1

  9
$DIMASO
 70
     1
  9
$DIMSHO
 70
     1
  9
$DIMPOST
  1

  9
$DIMAPOST
  1

  9
$DIMALT
 70
     0
  9
$DIMALTD
 70
     2
  9
$DIMALTF
 40
25.4
  9
$DIMLFAC
 40
1.0
  9
$DIMTOFL
 70
     0
  9
$DIMTVP
 40
0.0
  9
$DIMTIX
 70
     0
  9
$DIMSOXD
 70
     0
  9
$DIMSAH
 70
     0
  9
$DIMBLK1
  1

  9
$DIMBLK2
  1

  9
$LUNITS
 70
     2
  9
$LUPREC
 70
     4
  9
$SKETCHINC
 40
0.1
  9
$FILLETRAD
 40
0.5
  9
$AUNITS
 70
     0
  9
$AUPREC
 70
     0
  9
$MENU
  1
.
  9
$ELEVATION
 40
0.0
  9
$THICKNESS
 40
0.0
  9
$LIMCHECK
 70
     0
  9
$CHAMFERA
 40
0.5
  9
$CHAMFERB
 40
0.5
  9
$SKPOLY
 70
     0
  9
$TDCREATE
 40
2460525.70201081
  9
$TDUPDATE
 40
2460525.702010822
  9
$TDINDWG
 40
0.0000000116
  9
$TDUSRTIMER
 40
0.0000000116
  9
$USRTIMER
 70
     1
  9
$ANGBASE
 50
0.0
  9
$ANGDIR
 70
     0
  9
$PDMODE
 70
     0
  9
$PDSIZE
 40
0.0
  9
$PLINEWID
 40
0.0
  9
$COORDS
 70
     1
  9
$SPLFRAME
 70
     0
  9
$SPLINETYPE
 70
     6
  9
$SPLINESEGS
 70
     8
  9
$ATTDIA
 70
     0
  9
$ATTREQ
 70
     1
  9
$HANDLING
 70
     1
  9
$HANDSEED
  5
19B
  9
$SURFTAB1
 70
     6
  9
$SURFTAB2
 70
     6
  9
$SURFTYPE
 70
     6
  9
$SURFU
 70
     6
  9
$SURFV
 70
     6
  9
$UCSNAME
  2

  9
$UCSORG
 10
0.0
 20
0.0
 30
0.0
  9
$UCSXDIR
 10
1.0
 20
0.0
 30
0.0
  9
$UCSYDIR
 10
0.0
 20
1.0
 30
0.0
  9
$USERI1
 70
     0
  9
$USERI2
 70
     0
  9
$USERI3
 70
     0
  9
$USERI4
 70
     0
  9
$USERI5
 70
     0
  9
$USERR1
 40
0.0
  9
$USERR2
 40
0.0
  9
$USERR3
 40
0.0
  9
$USERR4
 40
0.0
  9
$USERR5
 40
0.0
  9
$WORLDVIEW
 70
     1
  0
ENDSEC
  0
SECTION
  2
TABLES
  0
TABLE
  2
VPORT
 70
     1
  0
VPORT
  2
*ACTIVE
 70
     0
 10
0.0
 20
0.0
 11
1.0
 21
1.0
 12
553.3333333333333
 22
266.6666666666667
 13
0.0
 23
0.0
 14
0.5
 24
0.5
 15
0.5
 25
0.5
 16
0.0
 26
0.0
 36
1.0
 17
0.0
 27
0.0
 37
0.0
 40
96.66666666666674
 41
1.6
 42
50.0
 43
0.0
 44
0.0
 50
0.0
 51
0.0
 71
     0
 72
   100
 73
     1
 74
     3
 75
     0
 76
     0
 77
     0
 78
     0
  0
ENDTAB
  0
TABLE
  2
LTYPE
 70
     3
  0
LTYPE
  2
CONTINUOUS
 70
     0
  3
Solid line
 72
    65
 73
     0
 40
0.0
  0
LTYPE
  2
________________
 70
     0
  3

 72
    65
 73
     0
 40
0.0
  0
LTYPE
  2
________________0
 70
     0
  3

 72
    65
 73
     4
 40
7.2
 49
2.7
 49
-1.8
 49
0.8999999999999999
 49
-1.8
  0
ENDTAB
  0
TABLE
  2
LAYER
 70
     2
  0
LAYER
  2
0
 70
     0
 62
     7
  6
CONTINUOUS
  0
LAYER
  2
1
 70
     0
 62
     7
  6
CONTINUOUS
  0
ENDTAB
  0
TABLE
  2
STYLE
 70
     2
  0
STYLE
  2
STANDARD
 70
     0
 40
0.0
 41
1.0
 50
0.0
 71
     0
 42
0.2
  3
txt
  4

  0
STYLE
  2
EXPLODED0
 70
     0
 40
0.2
 41
1.0
 50
0.0
 71
     0
 42
0.2
  3
ＭＳ ゴシック
  4

  0
ENDTAB
  0
TABLE
  2
VIEW
 70
     0
  0
ENDTAB
  0
TABLE
  2
UCS
 70
     0
  0
ENDTAB
  0
ENDSEC
  0
SECTION
  2
BLOCKS
  0
BLOCK
  8
0
  2
_1483
 70
     0
 10
0.0
 20
0.0
 30
0.0
  0
ARC
  5
3D
  8
1
  6
________________
 62
     7
 10
-536.2833333333333
 20
271.35
 30
0.0
 40
0.2598076211353106
 50
180.0
 51
0.0
210
0.0
220
0.0
230
-1.0
  0
ARC
  5
3F
  8
1
  6
________________
 62
     7
 10
510.3833333333333
 20
271.35
 30
0.0
 40
0.2598076211353106
 50
180.0
 51
0.0
  0
LINE
  5
40
  8
1
  6
________________
 62
     7
 10
536.023525712198
 20
276.79
 30
0.0
 11
536.023525712198
 21
271.35
 31
0.0
  0
LINE
  5
41
  8
1
  6
________________
 62
     7
 10
536.5431409544686
 20
271.35
 30
0.0
 11
536.5431409544686
 21
276.79
 31
0.0
  0
LINE
  5
42
  8
1
  6
________________
 62
     7
 10
510.123525712198
 20
271.35
 30
0.0
 11
510.123525712198
 21
276.79
 31
0.0
  0
LINE
  5
43
  8
1
  6
________________
 62
     7
 10
510.6431409544686
 20
276.79
 30
0.0
 11
510.6431409544686
 21
271.35
 31
0.0
  0
LINE
  5
44
  8
1
  6
________________
 62
     7
 10
546.9833333333333
 20
277.3098076211354
 30
0.0
 11
536.5433333333334
 21
277.3098076211354
 31
0.0
  0
LINE
  5
45
  8
1
  6
________________
 62
     7
 10
536.5433333333334
 20
276.7901923788647
 30
0.0
 11
546.9833333333333
 21
276.7901923788647
 31
0.0
  0
ARC
  5
46
  8
1
  6
________________
 62
     7
 10
-536.5433333333334
 20
276.79
 30
0.0
 40
0.0001923788647273
 50
359.9999999994834
 51
90.00000000051665
210
0.0
220
0.0
230
-1.0
  0
ARC
  5
47
  8
1
  6
________________
 62
     7
 10
536.5433333333334
 20
276.79
 30
0.0
 40
0.5198076211353486
 50
89.99999999999982
 51
180.0000000000002
  0
ARC
  5
48
  8
1
  6
________________
 62
     7
 10
-510.1233333333333
 20
276.79
 30
0.0
 40
0.5198076211353486
 50
89.99999999999982
 51
180.0000000000002
210
0.0
220
0.0
230
-1.0
  0
ARC
  5
49
  8
1
  6
________________
 62
     7
 10
510.1233333333333
 20
276.79
 30
0.0
 40
0.0001923788646163
 50
359.9999999994834
 51
90.00000000051665
  0
LINE
  5
4A
  8
1
  6
________________
 62
     7
 10
510.1233333333333
 20
276.7901923788647
 30
0.0
 11
499.6833333333333
 21
276.7901923788647
 31
0.0
  0
LINE
  5
4B
  8
1
  6
________________
 62
     7
 10
499.6833333333333
 20
277.3098076211354
 30
0.0
 11
510.1233333333333
 21
277.3098076211354
 31
0.0
  0
ARC
  5
4C
  8
1
  6
________________
 62
     7
 10
499.6833333333333
 20
277.05
 30
0.0
 40
0.2598076211353662
 50
90.00000000000001
 51
270.0
  0
ARC
  5
4D
  8
1
  6
________________
 62
     7
 10
515.9833333333333
 20
277.05
 30
0.0
 40
0.2598076211353662
 50
90.00000000000001
 51
270.0
  0
LINE
  5
4E
  8
1
  6
________________
 62
     7
 10
530.6833333333333
 20
276.7901923788647
 30
0.0
 11
515.9833333333333
 21
276.7901923788647
 31
0.0
  0
LINE
  5
4F
  8
1
  6
________________
 62
     7
 10
515.9833333333333
 20
277.3098076211354
 30
0.0
 11
530.6833333333333
 21
277.3098076211354
 31
0.0
  0
ARC
  5
50
  8
1
  6
________________
 62
     7
 10
-546.9833333333333
 20
277.05
 30
0.0
 40
0.2598076211353662
 50
90.0
 51
270.0
210
0.0
220
0.0
230
-1.0
  0
ARC
  5
51
  8
1
  6
________________
 62
     7
 10
-530.6833333333333
 20
277.05
 30
0.0
 40
0.2598076211353662
 50
90.0
 51
270.0
210
0.0
220
0.0
230
-1.0
  0
ARC
  5
52
  8
1
  6
________________
 62
     7
 10
510.3833333333333
 20
279.55
 30
0.0
 40
0.2598076211353106
 50
270.0000000000004
 51
90.0
  0
ARC
  5
53
  8
1
  6
________________
 62
     7
 10
515.9833333333333
 20
279.55
 30
0.0
 40
0.2598076211353662
 50
90.00000000000001
 51
270.0
  0
LINE
  5
54
  8
1
  6
________________
 62
     7
 10
530.6833333333333
 20
279.2901923788647
 30
0.0
 11
515.9833333333333
 21
279.2901923788647
 31
0.0
  0
LINE
  5
55
  8
1
  6
________________
 62
     7
 10
515.9833333333333
 20
279.8098076211354
 30
0.0
 11
530.6833333333333
 21
279.8098076211354
 31
0.0
  0
LINE
  5
56
  8
1
  6
________________
 62
     7
 10
510.3833333333333
 20
279.2901923788647
 30
0.0
 11
499.6833333333333
 21
279.2901923788647
 31
0.0
  0
LINE
  5
57
  8
1
  6
________________
 62
     7
 10
499.6833333333333
 20
279.8098076211354
 30
0.0
 11
510.3833333333333
 21
279.8098076211354
 31
0.0
  0
ARC
  5
58
  8
1
  6
________________
 62
     7
 10
499.6833333333333
 20
279.55
 30
0.0
 40
0.2598076211353662
 50
90.00000000000001
 51
270.0
  0
LINE
  5
59
  8
1
  6
________________
 62
     7
 10
546.9833333333333
 20
279.8098076211354
 30
0.0
 11
536.2833333333333
 21
279.8098076211354
 31
0.0
  0
LINE
  5
5A
  8
1
  6
________________
 62
     7
 10
536.2833333333333
 20
279.2901923788647
 30
0.0
 11
546.9833333333333
 21
279.2901923788647
 31
0.0
  0
ARC
  5
5B
  8
1
  6
________________
 62
     7
 10
-530.6833333333333
 20
279.55
 30
0.0
 40
0.2598076211353662
 50
90.0
 51
270.0000000000002
210
0.0
220
0.0
230
-1.0
  0
ARC
  5
5C
  8
1
  6
________________
 62
     7
 10
-546.9833333333333
 20
279.55
 30
0.0
 40
0.2598076211353662
 50
90.0
 51
270.0
210
0.0
220
0.0
230
-1.0
  0
ARC
  5
5D
  8
1
  6
________________
 62
     7
 10
-536.2833333333333
 20
279.55
 30
0.0
 40
0.2598076211353106
 50
269.9999999999996
 51
90.0
210
0.0
220
0.0
230
-1.0
  0
ARC
  5
5E
  8
1
  6
________________
 62
     7
 10
510.3833333333333
 20
283.65
 30
0.0
 40
0.2598076211353106
 50
180.0
 51
0.0
  0
ARC
  5
5F
  8
1
  6
________________
 62
     7
 10
512.8833333333333
 20
283.65
 30
0.0
 40
0.2598076211354217
 50
180.0
 51
0.0
  0
LINE
  5
60
  8
1
  6
________________
 62
     7
 10
510.6431409544686
 20
283.65
 30
0.0
 11
510.6431409544686
 21
296.3500000000001
 31
0.0
  0
LINE
  5
61
  8
1
  6
________________
 62
     7
 10
510.123525712198
 20
296.3500000000001
 30
0.0
 11
510.123525712198
 21
283.65
 31
0.0
  0
LINE
  5
62
  8
1
  6
________________
 62
     7
 10
513.1431409544687
 20
283.65
 30
0.0
 11
513.1431409544687
 21
296.3500000000001
 31
0.0
  0
LINE
  5
63
  8
1
  6
________________
 62
     7
 10
512.6235257121979
 20
296.3500000000001
 30
0.0
 11
512.6235257121979
 21
283.65
 31
0.0
  0
ARC
  5
64
  8
1
  6
________________
 62
     7
 10
-533.7833333333333
 20
283.65
 30
0.0
 40
0.2598076211354217
 50
180.0000000000002
 51
0.0
210
0.0
220
0.0
230
-1.0
  0
LINE
  5
65
  8
1
  6
________________
 62
     7
 10
536.5431409544686
 20
296.3500000000001
 30
0.0
 11
536.5431409544686
 21
283.65
 31
0.0
  0
LINE
  5
66
  8
1
  6
________________
 62
     7
 10
536.023525712198
 20
283.65
 30
0.0
 11
536.023525712198
 21
296.3500000000001
 31
0.0
  0
ARC
  5
67
  8
1
  6
________________
 62
     7
 10
-536.2833333333333
 20
283.65
 30
0.0
 40
0.2598076211353106
 50
180.0
 51
0.0
210
0.0
220
0.0
230
-1.0
  0
LINE
  5
68
  8
1
  6
________________
 62
     7
 10
534.0431409544686
 20
296.3500000000001
 30
0.0
 11
534.0431409544686
 21
283.65
 31
0.0
  0
LINE
  5
69
  8
1
  6
________________
 62
     7
 10
533.523525712198
 20
283.65
 30
0.0
 11
533.523525712198
 21
296.3500000000001
 31
0.0
  0
ARC
  5
6A
  8
1
  6
________________
 62
     7
 10
-510.3833333333333
 20
296.3500000000001
 30
0.0
 40
0.2598076211353106
 50
0.0
 51
180.0
210
0.0
220
0.0
230
-1.0
  0
ARC
  5
6B
  8
1
  6
________________
 62
     7
 10
-512.8833333333333
 20
296.3500000000001
 30
0.0
 40
0.2598076211354217
 50
0.0
 51
180.0
210
0.0
220
0.0
230
-1.0
  0
ARC
  5
6C
  8
1
  6
________________
 62
     7
 10
536.2833333333333
 20
296.3500000000001
 30
0.0
 40
0.2598076211353106
 50
0.000000000000007
 51
180.0
  0
ARC
  5
6D
  8
1
  6
________________
 62
     7
 10
533.7833333333333
 20
296.3500000000001
 30
0.0
 40
0.2598076211354217
 50
0.0000000000001983
 51
180.0
  0
ARC
  5
6E
  8
1
  6
________________
 62
     7
 10
-499.6833333333333
 20
300.45
 30
0.0
 40
0.2598076211353662
 50
270.0
 51
90.0
210
0.0
220
0.0
230
-1.0
  0
LINE
  5
6F
  8
1
  6
________________
 62
     7
 10
530.6833333333333
 20
300.7098076211354
 30
0.0
 11
515.9833333333333
 21
300.7098076211354
 31
0.0
  0
LINE
  5
70
  8
1
  6
________________
 62
     7
 10
515.9833333333333
 20
300.1901923788647
 30
0.0
 11
530.6833333333333
 21
300.1901923788647
 31
0.0
  0
LINE
  5
71
  8
1
  6
________________
 62
     7
 10
499.6833333333333
 20
300.1901923788647
 30
0.0
 11
510.3833333333333
 21
300.1901923788647
 31
0.0
  0
LINE
  5
72
  8
1
  6
________________
 62
     7
 10
510.3833333333333
 20
300.7098076211354
 30
0.0
 11
499.6833333333333
 21
300.7098076211354
 31
0.0
  0
ARC
  5
73
  8
1
  6
________________
 62
     7
 10
-510.3833333333333
 20
300.45
 30
0.0
 40
0.2598076211353106
 50
90.0
 51
270.0
210
0.0
220
0.0
230
-1.0
  0
ARC
  5
74
  8
1
  6
________________
 62
     7
 10
-515.9833333333333
 20
300.45
 30
0.0
 40
0.2598076211353662
 50
270.0
 51
90.0
210
0.0
220
0.0
230
-1.0
  0
ARC
  5
75
  8
1
  6
________________
 62
     7
 10
530.6833333333333
 20
300.45
 30
0.0
 40
0.2598076211353662
 50
270.0
 51
90.00000000000021
  0
LINE
  5
76
  8
1
  6
________________
 62
     7
 10
536.2833333333333
 20
300.7098076211354
 30
0.0
 11
546.9833333333332
 21
300.7098076211354
 31
0.0
  0
LINE
  5
77
  8
1
  6
________________
 62
     7
 10
546.9833333333332
 20
300.1901923788647
 30
0.0
 11
536.2833333333333
 21
300.1901923788647
 31
0.0
  0
ARC
  5
78
  8
1
  6
________________
 62
     7
 10
546.9833333333332
 20
300.45
 30
0.0
 40
0.2598076211353106
 50
270.0
 51
90.0
  0
ARC
  5
79
  8
1
  6
________________
 62
     7
 10
536.2833333333333
 20
300.45
 30
0.0
 40
0.2598076211353106
 50
90.00000000000001
 51
270.0
  0
ARC
  5
7A
  8
1
  6
________________
 62
     7
 10
-536.5433333333333
 20
303.21
 30
0.0
 40
0.5198076211353486
 50
269.9999999999998
 51
0.0000000000001705
210
0.0
220
0.0
230
-1.0
  0
ARC
  5
7B
  8
1
  6
________________
 62
     7
 10
536.5433333333333
 20
303.21
 30
0.0
 40
0.0001923788646163
 50
179.9999999994834
 51
270.0000000005166
  0
LINE
  5
7C
  8
1
  6
________________
 62
     7
 10
536.5433333333333
 20
303.2098076211354
 30
0.0
 11
546.9833333333332
 21
303.2098076211354
 31
0.0
  0
LINE
  5
7D
  8
1
  6
________________
 62
     7
 10
546.9833333333332
 20
302.6901923788647
 30
0.0
 11
536.5433333333333
 21
302.6901923788647
 31
0.0
  0
ARC
  5
7E
  8
1
  6
________________
 62
     7
 10
-515.9833333333333
 20
302.95
 30
0.0
 40
0.2598076211353662
 50
270.0
 51
90.0
210
0.0
220
0.0
230
-1.0
  0
ARC
  5
7F
  8
1
  6
________________
 62
     7
 10
-510.1233333333333
 20
303.21
 30
0.0
 40
0.0001923788646163
 50
179.9999999994834
 51
270.0000000005166
210
0.0
220
0.0
230
-1.0
  0
ARC
  5
80
  8
1
  6
________________
 62
     7
 10
510.1233333333333
 20
303.21
 30
0.0
 40
0.5198076211353486
 50
269.9999999999998
 51
0.0000000000002274
  0
LINE
  5
81
  8
1
  6
________________
 62
     7
 10
499.6833333333333
 20
302.6901923788647
 30
0.0
 11
510.1233333333333
 21
302.6901923788647
 31
0.0
  0
LINE
  5
82
  8
1
  6
________________
 62
     7
 10
510.1233333333333
 20
303.2098076211354
 30
0.0
 11
499.6833333333333
 21
303.2098076211354
 31
0.0
  0
LINE
  5
83
  8
1
  6
________________
 62
     7
 10
530.6833333333333
 20
303.2098076211354
 30
0.0
 11
515.9833333333333
 21
303.2098076211354
 31
0.0
  0
LINE
  5
84
  8
1
  6
________________
 62
     7
 10
515.9833333333333
 20
302.6901923788647
 30
0.0
 11
530.6833333333333
 21
302.6901923788647
 31
0.0
  0
ARC
  5
85
  8
1
  6
________________
 62
     7
 10
-499.6833333333333
 20
302.95
 30
0.0
 40
0.2598076211353662
 50
270.0
 51
90.0
210
0.0
220
0.0
230
-1.0
  0
ARC
  5
86
  8
1
  6
________________
 62
     7
 10
530.6833333333333
 20
302.95
 30
0.0
 40
0.2598076211353662
 50
270.0
 51
90.0
  0
ARC
  5
87
  8
1
  6
________________
 62
     7
 10
546.9833333333332
 20
302.95
 30
0.0
 40
0.2598076211353106
 50
270.0
 51
90.0
  0
LINE
  5
88
  8
1
  6
________________
 62
     7
 10
536.5431409544686
 20
308.65
 30
0.0
 11
536.5431409544686
 21
303.21
 31
0.0
  0
LINE
  5
89
  8
1
  6
________________
 62
     7
 10
536.023525712198
 20
303.21
 30
0.0
 11
536.023525712198
 21
308.65
 31
0.0
  0
LINE
  5
8A
  8
1
  6
________________
 62
     7
 10
510.6431409544686
 20
303.21
 30
0.0
 11
510.6431409544686
 21
308.65
 31
0.0
  0
LINE
  5
8B
  8
1
  6
________________
 62
     7
 10
510.123525712198
 20
308.65
 30
0.0
 11
510.123525712198
 21
303.21
 31
0.0
  0
ARC
  5
8C
  8
1
  6
________________
 62
     7
 10
536.2833333333333
 20
308.65
 30
0.0
 40
0.2598076211353106
 50
0.000000000000007
 51
180.0
  0
ARC
  5
8D
  8
1
  6
________________
 62
     7
 10
-510.3833333333333
 20
308.65
 30
0.0
 40
0.2598076211353106
 50
0.0
 51
180.0
210
0.0
220
0.0
230
-1.0
  0
LINE
  5
8E
  8
1
  6
________________
 62
     7
 10
524.8333333333333
 20
292.3048861143233
 30
0.0
 11
524.8333333333334
 21
287.6951138856768
 31
0.0
  0
ARC
  5
8F
  8
1
  6
________________
 62
     7
 10
523.3333333333333
 20
290.0000000000001
 30
0.0
 40
2.749999999999972
 50
56.94426884914601
 51
123.055731150854
  0
LINE
  5
90
  8
1
  6
________________
 62
     7
 10
521.8333333333334
 20
292.3048861143233
 30
0.0
 11
521.8333333333334
 21
287.6951138856768
 31
0.0
  0
ARC
  5
91
  8
1
  6
________________
 62
     7
 10
-523.3333333333333
 20
290.0000000000001
 30
0.0
 40
2.750000000000032
 50
236.944268849146
 51
303.055731150854
210
0.0
220
0.0
230
-1.0
  0
POLYLINE
  5
92
  8
1
  6
________________
 62
     7
 66
     1
 10
0.0
 20
0.0
 30
0.0
  0
VERTEX
  5
170
  8
1
  6
________________
 62
     7
 10
548.3708588648335
 20
273.9623221607565
 30
0.0
  0
VERTEX
  5
171
  8
1
  6
________________
 62
     7
 10
548.2940044881898
 20
273.1819743587481
 30
0.0
  0
VERTEX
  5
172
  8
1
  6
________________
 62
     7
 10
548.0663945434108
 20
272.431623692181
 30
0.0
  0
VERTEX
  5
173
  8
1
  6
________________
 62
     7
 10
547.6967751076718
 20
271.7401029295216
 30
0.0
  0
VERTEX
  5
174
  8
1
  6
________________
 62
     7
 10
547.1993490758141
 20
271.1339842575192
 30
0.0
  0
VERTEX
  5
175
  8
1
  6
________________
 62
     7
 10
546.5932304038117
 20
270.6365582256616
 30
0.0
  0
VERTEX
  5
176
  8
1
  6
________________
 62
     7
 10
545.9017096411524
 20
270.2669387899226
 30
0.0
  0
VERTEX
  5
177
  8
1
  6
________________
 62
     7
 10
545.1513589745853
 20
270.0393288451435
 30
0.0
  0
VERTEX
  5
178
  8
1
  6
________________
 62
     7
 10
544.3710111725768
 20
269.9624744684998
 30
0.0
  0
SEQEND
  5
179
  8
1
  6
________________
 62
     7
  0
POLYLINE
  5
93
  8
1
  6
________________
 62
     7
 66
     1
 10
0.0
 20
0.0
 30
0.0
  0
VERTEX
  5
17A
  8
1
  6
________________
 62
     7
 10
498.2958078018331
 20
273.9623221607564
 30
0.0
  0
VERTEX
  5
17B
  8
1
  6
________________
 62
     7
 10
498.3726621784768
 20
273.181974358748
 30
0.0
  0
VERTEX
  5
17C
  8
1
  6
________________
 62
     7
 10
498.6002721232559
 20
272.4316236921809
 30
0.0
  0
VERTEX
  5
17D
  8
1
  6
________________
 62
     7
 10
498.9698915589948
 20
271.7401029295215
 30
0.0
  0
VERTEX
  5
17E
  8
1
  6
________________
 62
     7
 10
499.4673175908525
 20
271.1339842575191
 30
0.0
  0
VERTEX
  5
17F
  8
1
  6
________________
 62
     7
 10
500.0734362628549
 20
270.6365582256615
 30
0.0
  0
VERTEX
  5
180
  8
1
  6
________________
 62
     7
 10
500.7649570255143
 20
270.2669387899225
 30
0.0
  0
VERTEX
  5
181
  8
1
  6
________________
 62
     7
 10
501.5153076920814
 20
270.0393288451435
 30
0.0
  0
VERTEX
  5
182
  8
1
  6
________________
 62
     7
 10
502.2956554940898
 20
269.9624744684997
 30
0.0
  0
SEQEND
  5
183
  8
1
  6
________________
 62
     7
  0
POLYLINE
  5
94
  8
1
  6
________________
 62
     7
 66
     1
 10
0.0
 20
0.0
 30
0.0
  0
VERTEX
  5
184
  8
1
  6
________________
 62
     7
 10
548.3708588648335
 20
306.0376778392437
 30
0.0
  0
VERTEX
  5
185
  8
1
  6
________________
 62
     7
 10
548.2940044881898
 20
306.8180256412521
 30
0.0
  0
VERTEX
  5
186
  8
1
  6
________________
 62
     7
 10
548.0663945434108
 20
307.5683763078192
 30
0.0
  0
VERTEX
  5
187
  8
1
  6
________________
 62
     7
 10
547.6967751076718
 20
308.2598970704785
 30
0.0
  0
VERTEX
  5
188
  8
1
  6
________________
 62
     7
 10
547.1993490758141
 20
308.866015742481
 30
0.0
  0
VERTEX
  5
189
  8
1
  6
________________
 62
     7
 10
546.5932304038117
 20
309.3634417743386
 30
0.0
  0
VERTEX
  5
18A
  8
1
  6
________________
 62
     7
 10
545.9017096411524
 20
309.7330612100776
 30
0.0
  0
VERTEX
  5
18B
  8
1
  6
________________
 62
     7
 10
545.1513589745853
 20
309.9606711548566
 30
0.0
  0
VERTEX
  5
18C
  8
1
  6
________________
 62
     7
 10
544.3710111725768
 20
310.0375255315004
 30
0.0
  0
SEQEND
  5
18D
  8
1
  6
________________
 62
     7
  0
POLYLINE
  5
95
  8
1
  6
________________
 62
     7
 66
     1
 10
0.0
 20
0.0
 30
0.0
  0
VERTEX
  5
18E
  8
1
  6
________________
 62
     7
 10
498.2958078018331
 20
306.0376778392435
 30
0.0
  0
VERTEX
  5
18F
  8
1
  6
________________
 62
     7
 10
498.3726621784768
 20
306.818025641252
 30
0.0
  0
VERTEX
  5
190
  8
1
  6
________________
 62
     7
 10
498.6002721232559
 20
307.5683763078191
 30
0.0
  0
VERTEX
  5
191
  8
1
  6
________________
 62
     7
 10
498.9698915589949
 20
308.2598970704784
 30
0.0
  0
VERTEX
  5
192
  8
1
  6
________________
 62
     7
 10
499.4673175908525
 20
308.8660157424808
 30
0.0
  0
VERTEX
  5
193
  8
1
  6
________________
 62
     7
 10
500.073436262855
 20
309.3634417743385
 30
0.0
  0
VERTEX
  5
194
  8
1
  6
________________
 62
     7
 10
500.7649570255143
 20
309.7330612100774
 30
0.0
  0
VERTEX
  5
195
  8
1
  6
________________
 62
     7
 10
501.5153076920814
 20
309.9606711548565
 30
0.0
  0
VERTEX
  5
196
  8
1
  6
________________
 62
     7
 10
502.2956554940898
 20
310.0375255315003
 30
0.0
  0
SEQEND
  5
197
  8
1
  6
________________
 62
     7
  0
LINE
  5
96
  8
1
  6
________________
 62
     7
 10
502.2956554940897
 20
269.9624744684997
 30
0.0
 11
544.3710111725769
 21
269.9624744684998
 31
0.0
  0
LINE
  5
97
  8
1
  6
________________
 62
     7
 10
548.3708588648336
 20
273.9623221607565
 30
0.0
 11
548.3708588648336
 21
306.0376778392436
 31
0.0
  0
LINE
  5
98
  8
1
  6
________________
 62
     7
 10
498.295807801833
 20
273.9623221607565
 30
0.0
 11
498.295807801833
 21
306.0376778392436
 31
0.0
  0
LINE
  5
99
  8
1
  6
________________
 62
     7
 10
502.2956554940897
 20
310.0375255315003
 30
0.0
 11
544.3710111725769
 21
310.0375255315003
 31
0.0
  0
ENDBLK
  8
0
  0
BLOCK
  8
0
  2
_1736
 70
     0
 10
0.0
 20
0.0
 30
0.0
  0
LINE
  5
9E
  8
1
  6
________________
 62
     7
 10
498.295807801833
 20
238.7565283400851
 30
0.0
 11
502.2956554940897
 21
238.7565283400851
 31
0.0
  0
LINE
  5
9F
  8
1
  6
________________
 62
     7
 10
498.3290079770987
 20
242.5608916078343
 30
0.0
 11
498.295807801833
 21
238.7565283400851
 31
0.0
  0
LINE
  5
A0
  8
1
  6
________________
 62
     7
 10
502.2956554940897
 20
238.7565283400851
 30
0.0
 11
544.3710111725769
 21
238.7565283400851
 31
0.0
  0
LINE
  5
A1
  8
1
  6
________________
 62
     7
 10
548.337658689568
 20
242.5608916078343
 30
0.0
 11
548.3708588648336
 21
238.7565283400851
 31
0.0
  0
LINE
  5
A2
  8
1
  6
________________
 62
     7
 10
548.3708588648336
 20
238.7565283400851
 30
0.0
 11
544.3710111725769
 21
238.7565283400851
 31
0.0
  0
LINE
  5
A3
  8
1
  6
________________
 62
     7
 10
544.3378109973113
 20
243.0565283400851
 30
0.0
 11
502.3288556693553
 21
243.0565283400851
 31
0.0
  0
LINE
  5
A4
  8
1
  6
________________
 62
     7
 10
502.3288556693553
 20
243.0565283400851
 30
0.0
 11
498.8289889386308
 21
243.0565283400851
 31
0.0
  0
ARC
  5
A5
  8
1
  6
________________
 62
     7
 10
-498.8289889386308
 20
242.5565283400851
 30
0.0
 40
0.5000000000000016
 50
0.4999999999999942
 51
90.0
210
0.0
220
0.0
230
-1.0
  0
LINE
  5
A6
  8
1
  6
________________
 62
     7
 10
544.3378109973113
 20
243.0565283400851
 30
0.0
 11
547.8376777280358
 21
243.0565283400851
 31
0.0
  0
ARC
  5
A7
  8
1
  6
________________
 62
     7
 10
547.8376777280358
 20
242.5565283400851
 30
0.0
 40
0.5000000000000571
 50
0.4999999999999942
 51
90.0
  0
LINE
  5
A8
  8
1
  6
________________
 62
     7
 10
501.8844070773544
 20
238.7565283400851
 30
0.0
 11
501.8845685073523
 21
238.7565284752214
 31
0.0
  0
LINE
  5
A9
  8
1
  6
________________
 62
     7
 10
544.7822595893123
 20
238.7565283400851
 30
0.0
 11
544.7820981593143
 21
238.7565284752214
 31
0.0
  0
LINE
  5
AA
  8
1
  6
________________
 62
     7
 10
511.3680097834579
 20
238.7565283400851
 30
0.0
 11
511.2061406361406
 21
237.6835629533439
 31
0.0
  0
LINE
  5
AB
  8
1
  6
________________
 62
     7
 10
535.2986568832088
 20
238.7565283400851
 30
0.0
 11
535.4605260305261
 21
237.6835629533439
 31
0.0
  0
LINE
  5
AC
  8
1
  6
________________
 62
     7
 10
511.2061406361406
 20
237.6835629533439
 30
0.0
 11
511.0178891482231
 21
237.4805622206361
 31
0.0
  0
LINE
  5
AD
  8
1
  6
________________
 62
     7
 10
501.8845694895383
 20
238.7565283400851
 30
0.0
 11
511.0178891482231
 21
237.4805622206361
 31
0.0
  0
LINE
  5
AE
  8
1
  6
________________
 62
     7
 10
544.7820971771283
 20
238.7565283400851
 30
0.0
 11
535.6487775184435
 21
237.4805622206361
 31
0.0
  0
LINE
  5
AF
  8
1
  6
________________
 62
     7
 10
535.460526030526
 20
237.683562953344
 30
0.0
 11
535.6487775184435
 21
237.4805622206361
 31
0.0
  0
LINE
  5
B0
  8
1
  6
________________
 62
     7
 10
511.0178891482231
 20
237.4805622206361
 30
0.0
 11
510.9676323164465
 21
237.4805622206361
 31
0.0
  0
LINE
  5
B1
  8
1
  6
________________
 62
     7
 10
535.6487775184435
 20
237.4805622206361
 30
0.0
 11
535.6990343502201
 21
237.4805622206361
 31
0.0
  0
LINE
  5
B2
  8
1
  6
________________
 62
     7
 10
510.9676323164465
 20
237.480562220636
 30
0.0
 11
510.9551840329236
 21
237.4813566255243
 31
0.0
  0
LINE
  5
B3
  8
1
  6
________________
 62
     7
 10
535.6990343502201
 20
237.480562220636
 30
0.0
 11
535.711482633743
 21
237.4813566255243
 31
0.0
  0
LINE
  5
B4
  8
1
  6
________________
 62
     7
 10
513.9119620455249
 20
238.7565314965631
 30
0.0
 11
513.638974169035
 21
227.7216235272105
 31
0.0
  0
LINE
  5
B5
  8
1
  6
________________
 62
     7
 10
532.7547046211417
 20
238.7565314965631
 30
0.0
 11
533.0276924976317
 21
227.7216235272105
 31
0.0
  0
POLYLINE
  5
B6
  8
1
  6
________________
 62
     7
 10
0.0
 20
0.0
 30
0.0
 66
     1
 70
     8
  0
VERTEX
  5
B7
  8
1
  6
________________
 62
     7
 10
512.2017957988495
 20
225.7565283400851
 30
0.0
 70
    32
  0
VERTEX
  5
B8
  8
1
  6
________________
 62
     7
 10
512.3107086980506
 20
225.7632207589165
 30
0.0
 70
    32
  0
VERTEX
  5
B9
  8
1
  6
________________
 62
     7
 10
512.4211904316121
 20
225.7834801282627
 30
0.0
 70
    32
  0
VERTEX
  5
BA
  8
1
  6
________________
 62
     7
 10
512.534073058481
 20
225.8181065648573
 30
0.0
 70
    32
  0
SEQEND
  5
BC
  8
1
  6
________________
 62
     7
  0
ARC
  5
BB
  8
1
  6
________________
 62
     7
 10
511.5769380144933
 20
227.6461077263418
 30
0.0
 40
2.063418459454569
 50
297.6363978378711
 51
2.097346318859366
  0
LINE
  5
BD
  8
1
  6
________________
 62
     7
 10
512.0323209298793
 20
225.7565283400851
 30
0.0
 11
512.2017957988495
 21
225.7565283400851
 31
0.0
  0
POLYLINE
  5
BE
  8
1
  6
________________
 62
     7
 10
0.0
 20
0.0
 30
0.0
 66
     1
 70
     8
  0
VERTEX
  5
BF
  8
1
  6
________________
 62
     7
 10
534.4648708678171
 20
225.7565283400851
 30
0.0
 70
    32
  0
VERTEX
  5
C0
  8
1
  6
________________
 62
     7
 10
534.355957968616
 20
225.7632207589165
 30
0.0
 70
    32
  0
VERTEX
  5
C1
  8
1
  6
________________
 62
     7
 10
534.2454762350544
 20
225.7834801282627
 30
0.0
 70
    32
  0
VERTEX
  5
C2
  8
1
  6
________________
 62
     7
 10
534.1325936081856
 20
225.8181065648573
 30
0.0
 70
    32
  0
SEQEND
  5
C4
  8
1
  6
________________
 62
     7
  0
ARC
  5
C3
  8
1
  6
________________
 62
     7
 10
-535.0897286521736
 20
227.6461077263418
 30
0.0
 40
2.063418459454722
 50
297.6363978378759
 51
2.097346318857717
210
0.0
220
0.0
230
-1.0
  0
LINE
  5
C5
  8
1
  6
________________
 62
     7
 10
534.6343457367873
 20
225.7565283400851
 30
0.0
 11
534.4648708678171
 21
225.7565283400851
 31
0.0
  0
LINE
  5
C6
  8
1
  6
________________
 62
     7
 10
511.2233546106656
 20
225.7565283400851
 30
0.0
 11
512.0323209298795
 21
225.7565283400851
 31
0.0
  0
LINE
  5
C7
  8
1
  6
________________
 62
     7
 10
535.443312056001
 20
225.7565283400851
 30
0.0
 11
534.6343457367873
 21
225.7565283400851
 31
0.0
  0
LINE
  5
C8
  8
1
  6
________________
 62
     7
 10
513.8706368431052
 20
237.0820204480896
 30
0.0
 11
519.3349780242165
 21
236.3186272380887
 31
0.0
  0
LINE
  5
C9
  8
1
  6
________________
 62
     7
 10
532.7960298235614
 20
237.0820204480896
 30
0.0
 11
527.3316886424501
 21
236.3186272380887
 31
0.0
  0
POLYLINE
  5
CA
  8
1
  6
________________
 62
     7
 10
0.0
 20
0.0
 30
0.0
 66
     1
 70
     8
  0
VERTEX
  5
CB
  8
1
  6
________________
 62
     7
 10
509.9958811160118
 20
227.7200501644492
 30
0.0
 70
    32
  0
VERTEX
  5
CC
  8
1
  6
________________
 62
     7
 10
509.9958209164376
 20
227.7200125530899
 30
0.0
 70
    32
  0
SEQEND
  5
CD
  8
1
  6
________________
 62
     7
  0
POLYLINE
  5
CE
  8
1
  6
________________
 62
     7
 10
0.0
 20
0.0
 30
0.0
 66
     1
 70
     8
  0
VERTEX
  5
CF
  8
1
  6
________________
 62
     7
 10
536.6707855506687
 20
227.7200501644446
 30
0.0
 70
    32
  0
VERTEX
  5
D0
  8
1
  6
________________
 62
     7
 10
536.6708457502291
 20
227.7200125530899
 30
0.0
 70
    32
  0
SEQEND
  5
D1
  8
1
  6
________________
 62
     7
  0
LINE
  5
D2
  8
1
  6
________________
 62
     7
 10
519.2717519166303
 20
236.3194944279583
 30
0.0
 11
519.2661679310564
 21
236.320456754646
 31
0.0
  0
LINE
  5
D3
  8
1
  6
________________
 62
     7
 10
527.3949147500364
 20
236.3194944279583
 30
0.0
 11
527.4004987356102
 21
236.320456754646
 31
0.0
  0
LINE
  5
D4
  8
1
  6
________________
 62
     7
 10
526.2543484381573
 20
223.4601383265816
 30
0.0
 11
520.4123182285093
 21
223.4601383265816
 31
0.0
  0
LINE
  5
D5
  8
1
  6
________________
 62
     7
 10
501.8275506958956
 20
238.7565283400851
 30
0.0
 11
510.9551879096006
 21
237.4813560839345
 31
0.0
  0
LINE
  5
D6
  8
1
  6
________________
 62
     7
 10
535.7114787570661
 20
237.4813560839345
 30
0.0
 11
544.8391159707711
 21
238.7565283400851
 31
0.0
  0
ARC
  5
D7
  8
1
  6
________________
 62
     7
 10
512.4083334527525
 20
227.630577578656
 30
0.0
 40
2.414110940918773
 50
177.8759982619071
 51
224.4048230542986
  0
POLYLINE
  5
D8
  8
1
  6
________________
 62
     7
 10
0.0
 20
0.0
 30
0.0
 66
     1
 70
     8
  0
VERTEX
  5
D9
  8
1
  6
________________
 62
     7
 10
510.6836593283813
 20
225.9413674674537
 30
0.0
 70
    32
  0
VERTEX
  5
DA
  8
1
  6
________________
 62
     7
 10
510.8033187288677
 20
225.8649164504552
 30
0.0
 70
    32
  0
VERTEX
  5
DB
  8
1
  6
________________
 62
     7
 10
510.927579125651
 20
225.8095037833524
 30
0.0
 70
    32
  0
VERTEX
  5
DC
  8
1
  6
________________
 62
     7
 10
511.0738845984871
 20
225.7717335635032
 30
0.0
 70
    32
  0
VERTEX
  5
DD
  8
1
  6
________________
 62
     7
 10
511.1844221409352
 20
225.7612261983281
 30
0.0
 70
    32
  0
SEQEND
  5
DE
  8
1
  6
________________
 62
     7
  0
POLYLINE
  5
DF
  8
1
  6
________________
 62
     7
 10
0.0
 20
0.0
 30
0.0
 66
     1
 70
     8
  0
VERTEX
  5
E0
  8
1
  6
________________
 62
     7
 10
535.4822445257314
 20
225.7612261983281
 30
0.0
 70
    32
  0
VERTEX
  5
E1
  8
1
  6
________________
 62
     7
 10
535.6210198787451
 20
225.7768514131534
 30
0.0
 70
    32
  0
VERTEX
  5
E2
  8
1
  6
________________
 62
     7
 10
535.74231843725
 20
225.8106617026819
 30
0.0
 70
    32
  0
VERTEX
  5
E3
  8
1
  6
________________
 62
     7
 10
535.8640189790182
 20
225.8652788910798
 30
0.0
 70
    32
  0
VERTEX
  5
E4
  8
1
  6
________________
 62
     7
 10
535.9795987700295
 20
225.9388429945983
 30
0.0
 70
    32
  0
SEQEND
  5
E6
  8
1
  6
________________
 62
     7
  0
ARC
  5
E5
  8
1
  6
________________
 62
     7
 10
534.2777608643923
 20
227.6239400427725
 30
0.0
 40
2.394953928331153
 50
315.2831978411159
 51
2.299912045726444
  0
LINE
  5
E7
  8
1
  6
________________
 62
     7
 10
513.8704403753461
 20
237.0740821118258
 30
0.0
 11
519.2717527445789
 21
236.3194943122902
 31
0.0
  0
LINE
  5
E8
  8
1
  6
________________
 62
     7
 10
527.3949139220878
 20
236.3194943122902
 30
0.0
 11
532.7962262913205
 21
237.0740821118258
 31
0.0
  0
LINE
  5
E9
  8
1
  6
________________
 62
     7
 10
509.7593310265445
 20
237.6483847991122
 30
0.0
 11
509.9958209166538
 21
227.720012555045
 31
0.0
  0
LINE
  5
EA
  8
1
  6
________________
 62
     7
 10
536.6708457500127
 20
227.720012555045
 30
0.0
 11
536.907335640122
 21
237.6483847991122
 31
0.0
  0
LINE
  5
EB
  8
1
  6
________________
 62
     7
 10
518.621261675054
 20
236.4103708606576
 30
0.0
 11
518.702273447657
 21
227.1273411935005
 31
0.0
  0
LINE
  5
EC
  8
1
  6
________________
 62
     7
 10
527.9643932190096
 20
227.1273411935005
 30
0.0
 11
528.0454049916126
 21
236.4103708606576
 31
0.0
  0
LINE
  5
ED
  8
1
  6
________________
 62
     7
 10
518.702273447657
 20
227.1273411935005
 30
0.0
 11
520.4123182285093
 21
223.4601383265816
 31
0.0
  0
LINE
  5
EE
  8
1
  6
________________
 62
     7
 10
526.2543484381573
 20
223.4601383265816
 30
0.0
 11
527.9643932190096
 21
227.1273411935005
 31
0.0
  0
LINE
  5
EF
  8
1
  6
________________
 62
     7
 10
519.2600486212026
 20
236.3219420587965
 30
0.0
 11
519.3747004186406
 21
236.2743425714105
 31
0.0
  0
LINE
  5
F0
  8
1
  6
________________
 62
     7
 10
527.291966248026
 20
236.2743425714105
 30
0.0
 11
527.406618045464
 21
236.3219420587965
 31
0.0
  0
ENDBLK
  8
0
  0
BLOCK
  8
0
  2
_1808
 70
     0
 10
0.0
 20
0.0
 30
0.0
  0
LINE
  5
F5
  8
1
  6
________________
 62
     7
 10
592.9101383265815
 20
273.9623221607565
 30
0.0
 11
592.9101383265815
 21
306.0376778392436
 31
0.0
  0
LINE
  5
F6
  8
1
  6
________________
 62
     7
 10
592.9101383265815
 20
273.9623221607565
 30
0.0
 11
592.9101383265815
 21
269.9624744684998
 31
0.0
  0
LINE
  5
F7
  8
1
  6
________________
 62
     7
 10
592.9101383265815
 20
269.9624744684998
 30
0.0
 11
589.1057750588325
 21
269.9956746437654
 31
0.0
  0
LINE
  5
F8
  8
1
  6
________________
 62
     7
 10
592.9101383265815
 20
310.0375255315003
 30
0.0
 11
589.1057750588325
 21
310.0043253562346
 31
0.0
  0
LINE
  5
F9
  8
1
  6
________________
 62
     7
 10
592.9101383265815
 20
306.0376778392436
 30
0.0
 11
592.9101383265815
 21
310.0375255315003
 31
0.0
  0
LINE
  5
FA
  8
1
  6
________________
 62
     7
 10
588.6101383265816
 20
306.004477663978
 30
0.0
 11
588.6101383265816
 21
273.9955223360221
 31
0.0
  0
ARC
  5
FB
  8
1
  6
________________
 62
     7
 10
-589.1101383265815
 20
270.4956556052975
 30
0.0
 40
0.5000000000000008
 50
270.5000000000001
 51
0.0
210
0.0
220
0.0
230
-1.0
  0
LINE
  5
FC
  8
1
  6
________________
 62
     7
 10
588.6101383265816
 20
270.4956556052975
 30
0.0
 11
588.6101383265816
 21
273.9955223360221
 31
0.0
  0
LINE
  5
FD
  8
1
  6
________________
 62
     7
 10
588.6101383265816
 20
309.5043443947025
 30
0.0
 11
588.6101383265816
 21
306.004477663978
 31
0.0
  0
ARC
  5
FE
  8
1
  6
________________
 62
     7
 10
589.1101383265816
 20
309.5043443947025
 30
0.0
 40
0.5000000000000018
 50
90.49999999999997
 51
180.0
  0
LINE
  5
FF
  8
1
  6
________________
 62
     7
 10
592.9101381914453
 20
272.8522959196666
 30
0.0
 11
592.9101383265815
 21
272.8520936968839
 31
0.0
  0
LINE
  5
100
  8
1
  6
________________
 62
     7
 10
592.9101381914453
 20
307.1477040803335
 30
0.0
 11
592.9101383265815
 21
307.1479063031163
 31
0.0
  0
LINE
  5
101
  8
1
  6
________________
 62
     7
 10
593.9831037133227
 20
280.3787641385817
 30
0.0
 11
592.9101383265815
 21
280.5614311791234
 31
0.0
  0
LINE
  5
102
  8
1
  6
________________
 62
     7
 10
593.9831037133227
 20
299.6212358614183
 30
0.0
 11
592.9101383265815
 21
299.4385688208766
 31
0.0
  0
POLYLINE
  5
103
  8
1
  6
________________
 62
     7
 10
0.0
 20
0.0
 30
0.0
 66
     1
 70
     8
  0
VERTEX
  5
104
  8
1
  6
________________
 62
     7
 10
594.1861044460305
 20
280.1589524390616
 30
0.0
 70
    32
  0
VERTEX
  5
105
  8
1
  6
________________
 62
     7
 10
594.1558506876726
 20
280.2629867579728
 30
0.0
 70
    32
  0
VERTEX
  5
106
  8
1
  6
________________
 62
     7
 10
594.0798183367931
 20
280.3415208521923
 30
0.0
 70
    32
  0
VERTEX
  5
107
  8
1
  6
________________
 62
     7
 10
593.9831037133227
 20
280.3787641385818
 30
0.0
 70
    32
  0
SEQEND
  5
108
  8
1
  6
________________
 62
     7
  0
POLYLINE
  5
109
  8
1
  6
________________
 62
     7
 10
0.0
 20
0.0
 30
0.0
 66
     1
 70
     8
  0
VERTEX
  5
10A
  8
1
  6
________________
 62
     7
 10
594.1861044460305
 20
299.8410475609384
 30
0.0
 70
    32
  0
VERTEX
  5
10B
  8
1
  6
________________
 62
     7
 10
594.1558144703038
 20
299.7369554324092
 30
0.0
 70
    32
  0
VERTEX
  5
10C
  8
1
  6
________________
 62
     7
 10
594.0797827674818
 20
299.6584569974867
 30
0.0
 70
    32
  0
VERTEX
  5
10D
  8
1
  6
________________
 62
     7
 10
593.9831037133227
 20
299.6212358614183
 30
0.0
 70
    32
  0
SEQEND
  5
10E
  8
1
  6
________________
 62
     7
  0
LINE
  5
10F
  8
1
  6
________________
 62
     7
 10
594.1861044460305
 20
280.0961313993408
 30
0.0
 11
594.1861044460305
 21
280.1589524390616
 31
0.0
  0
LINE
  5
110
  8
1
  6
________________
 62
     7
 10
594.1861044460305
 20
299.9038686006592
 30
0.0
 11
594.1861044460305
 21
299.8410475609384
 31
0.0
  0
LINE
  5
111
  8
1
  6
________________
 62
     7
 10
594.1840776414218
 20
280.0713536371196
 30
0.0
 11
594.1861044460306
 21
280.0961313993408
 31
0.0
  0
LINE
  5
112
  8
1
  6
________________
 62
     7
 10
594.1840776414218
 20
299.9286463628804
 30
0.0
 11
594.1861044460306
 21
299.9038686006592
 31
0.0
  0
LINE
  5
113
  8
1
  6
________________
 62
     7
 10
592.9101351701034
 20
283.2345765799426
 30
0.0
 11
603.9450431394562
 21
282.9723493780925
 31
0.0
  0
LINE
  5
114
  8
1
  6
________________
 62
     7
 10
592.9101351701034
 20
296.7654234200575
 30
0.0
 11
603.9450431394562
 21
297.0276506219076
 31
0.0
  0
ARC
  5
115
  8
1
  6
________________
 62
     7
 10
-603.9572872350309
 20
280.9482222942394
 30
0.0
 40
2.024164116237893
 50
89.65341778711442
 51
159.077412911244
210
0.0
220
0.0
230
-1.0
  0
POLYLINE
  5
116
  8
1
  6
________________
 62
     7
 10
0.0
 20
0.0
 30
0.0
 66
     1
 70
     8
  0
VERTEX
  5
117
  8
1
  6
________________
 62
     7
 10
605.8479855981374
 20
281.6710639568544
 30
0.0
 70
    32
  0
VERTEX
  5
118
  8
1
  6
________________
 62
     7
 10
605.8858797726033
 20
281.5185568597212
 30
0.0
 70
    32
  0
VERTEX
  5
119
  8
1
  6
________________
 62
     7
 10
605.907423908303
 20
281.3491528489725
 30
0.0
 70
    32
  0
VERTEX
  5
11A
  8
1
  6
________________
 62
     7
 10
605.9101383265815
 20
281.2642627744156
 30
0.0
 70
    32
  0
SEQEND
  5
11B
  8
1
  6
________________
 62
     7
  0
LINE
  5
11C
  8
1
  6
________________
 62
     7
 10
605.9101383265815
 20
281.2642627744156
 30
0.0
 11
605.9101383265815
 21
281.14120749906
 31
0.0
  0
LINE
  5
11D
  8
1
  6
________________
 62
     7
 10
605.9101383265815
 20
298.7357372255845
 30
0.0
 11
605.9101383265815
 21
298.8587925009401
 31
0.0
  0
ARC
  5
11E
  8
1
  6
________________
 62
     7
 10
603.9572872350309
 20
299.0517777057607
 30
0.0
 40
2.024164116237893
 50
269.6534177871144
 51
339.077412911244
  0
POLYLINE
  5
11F
  8
1
  6
________________
 62
     7
 10
0.0
 20
0.0
 30
0.0
 66
     1
 70
     8
  0
VERTEX
  5
120
  8
1
  6
________________
 62
     7
 10
605.8479855981374
 20
298.3289360431456
 30
0.0
 70
    32
  0
VERTEX
  5
121
  8
1
  6
________________
 62
     7
 10
605.8858797726033
 20
298.4814431402789
 30
0.0
 70
    32
  0
VERTEX
  5
122
  8
1
  6
________________
 62
     7
 10
605.907423908303
 20
298.6508471510276
 30
0.0
 70
    32
  0
VERTEX
  5
123
  8
1
  6
________________
 62
     7
 10
605.9101383265815
 20
298.7357372255844
 30
0.0
 70
    32
  0
SEQEND
  5
124
  8
1
  6
________________
 62
     7
  0
LINE
  5
125
  8
1
  6
________________
 62
     7
 10
605.9101383265815
 20
281.14120749906
 30
0.0
 11
605.9101383265815
 21
280.1299996000428
 31
0.0
  0
LINE
  5
126
  8
1
  6
________________
 62
     7
 10
605.9101383265815
 20
298.85879250094
 30
0.0
 11
605.9101383265815
 21
299.8700003999573
 31
0.0
  0
LINE
  5
127
  8
1
  6
________________
 62
     7
 10
605.9054404866646
 20
280.0982685162627
 30
0.0
 11
605.9101383265815
 21
280.1299996000428
 31
0.0
  0
LINE
  5
128
  8
1
  6
________________
 62
     7
 10
608.2065283400851
 20
292.9210151048241
 30
0.0
 11
608.2065283400851
 21
290.0000000000001
 31
0.0
  0
LINE
  5
129
  8
1
  6
________________
 62
     7
 10
608.2065283400851
 20
290.0000000000001
 30
0.0
 11
608.2065283400851
 21
287.078984895176
 31
0.0
  0
LINE
  5
12A
  8
1
  6
________________
 62
     7
 10
605.9101383265815
 20
280.1299996000428
 30
0.0
 11
605.8996156025914
 21
279.9775813006905
 31
0.0
  0
LINE
  5
12B
  8
1
  6
________________
 62
     7
 10
605.9101383265815
 20
299.8700003999573
 30
0.0
 11
605.8996015418151
 21
300.0225197623513
 31
0.0
  0
LINE
  5
12C
  8
1
  6
________________
 62
     7
 10
592.9101383265815
 20
272.7763041458502
 30
0.0
 11
594.1840786482524
 21
280.0713594026039
 31
0.0
  0
LINE
  5
12D
  8
1
  6
________________
 62
     7
 10
594.1840786482524
 20
299.9286405973962
 30
0.0
 11
592.9101383265815
 21
307.2236958541498
 31
0.0
  0
ARC
  5
12E
  8
1
  6
________________
 62
     7
 10
604.0035799199378
 20
280.7600973663294
 30
0.0
 40
2.154950937445237
 50
268.4923979186123
 51
321.284054616981
  0
ARC
  5
12F
  8
1
  6
________________
 62
     7
 10
604.6526362844927
 20
280.1240257847594
 30
0.0
 40
1.253941866457323
 50
325.4155075640325
 51
352.846996685971
  0
LINE
  5
130
  8
1
  6
________________
 62
     7
 10
605.8968189367683
 20
279.9678856802675
 30
0.0
 11
605.9054404683385
 21
280.0982684549589
 31
0.0
  0
ARC
  5
131
  8
1
  6
________________
 62
     7
 10
604.693519364309
 20
299.8879846674842
 30
0.0
 40
1.211999067258226
 50
0.6498808256374142
 51
27.83725516682712
  0
ARC
  5
132
  8
1
  6
________________
 62
     7
 10
604.0192644245649
 20
299.3055485840014
 30
0.0
 40
2.089812853650222
 50
33.33406594812291
 51
91.9848280320663
  0
LINE
  5
133
  8
1
  6
________________
 62
     7
 10
594.7289381063815
 20
283.1914269494127
 30
0.0
 11
595.3458916488448
 21
286.7243319894361
 31
0.0
  0
LINE
  5
134
  8
1
  6
________________
 62
     7
 10
595.3458916488448
 20
293.275668010564
 30
0.0
 11
594.7289381063815
 21
296.8085730505874
 31
0.0
  0
LINE
  5
135
  8
1
  6
________________
 62
     7
 10
593.8847185617601
 20
278.3568906048512
 30
0.0
 11
603.9468838509241
 21
278.6058924666374
 31
0.0
  0
LINE
  5
136
  8
1
  6
________________
 62
     7
 10
603.9468838509241
 20
301.3941075333627
 30
0.0
 11
593.8847185617601
 21
301.6431093951488
 31
0.0
  0
LINE
  5
137
  8
1
  6
________________
 62
     7
 10
595.0948054224482
 20
285.286519036494
 30
0.0
 11
604.5393254731662
 21
285.3689401143238
 31
0.0
  0
LINE
  5
138
  8
1
  6
________________
 62
     7
 10
604.5393254731662
 20
294.6310598856763
 30
0.0
 11
595.0948054224482
 21
294.7134809635061
 31
0.0
  0
LINE
  5
139
  8
1
  6
________________
 62
     7
 10
604.5393254731662
 20
285.3689401143237
 30
0.0
 11
608.2065283400851
 21
287.078984895176
 31
0.0
  0
LINE
  5
13A
  8
1
  6
________________
 62
     7
 10
608.2065283400851
 20
292.9210151048241
 30
0.0
 11
604.5393254731662
 21
294.6310598856763
 31
0.0
  0
LINE
  5
13B
  8
1
  6
________________
 62
     7
 10
595.346007401613
 20
286.7250043543056
 30
0.0
 11
595.3633577541804
 21
286.7561713428852
 31
0.0
  0
LINE
  5
13C
  8
1
  6
________________
 62
     7
 10
595.3535288568091
 20
293.2568247574682
 30
0.0
 11
595.346007401613
 21
293.2749956456945
 31
0.0
  0
ENDBLK
  8
0
  0
ENDSEC
  0
SECTION
  2
ENTITIES
  0
INSERT
  5
9A
  8
1
  6
________________
 62
     7
  2
_1483
 10
0.0
 20
0.0
 30
0.0
  0
INSERT
  5
F1
  8
1
  6
________________
 62
     7
  2
_1736
 10
0.0
 20
0.0
 30
0.0
  0
INSERT
  5
13D
  8
1
  6
________________
 62
     7
  2
_1808
 10
0.0
 20
0.0
 30
0.0
  0
LINE
  5
13E
  8
1
  6
________________0
 62
     1
 10
523.3333333333333
 20
265.0
 30
0.0
 11
523.3333333333333
 21
315.0000000000001
 31
0.0
  0
LINE
  5
140
  8
1
  6
________________0
 62
     1
 10
493.3333333333333
 20
290.0000000000001
 30
0.0
 11
553.3333333333334
 21
290.0000000000001
 31
0.0
  0
LINE
  5
141
  8
1
  6
________________0
 62
     1
 10
523.3333333333335
 20
244.4517889642708
 30
0.0
 11
523.3333333333325
 21
218.3333333333333
 31
0.0
  0
LINE
  5
142
  8
1
  6
________________0
 62
     1
 10
613.3333333333334
 20
290.0000000000005
 30
0.0
 11
587.1930609482924
 21
290.0
 31
0.0
  0
POINT
  5
143
  8
1
 62
     7
 10
493.3333333333333
 20
290.0000000000001
 30
0.0
  0
POINT
  5
144
  8
1
 62
     7
 10
553.3333333333334
 20
290.0000000000001
 30
0.0
  0
POINT
  5
145
  8
1
 62
     7
 10
523.3333333333333
 20
265.0
 30
0.0
  0
POINT
  5
146
  8
1
 62
     7
 10
523.3333333333333
 20
315.0000000000001
 30
0.0
  0
POINT
  5
147
  8
1
 62
     7
 10
523.3333333333333
 20
218.3333333333333
 30
0.0
  0
POINT
  5
148
  8
1
 62
     7
 10
613.3333333333334
 20
290.0000000000001
 30
0.0
  0
TEXT
  5
149
  8
1
 62
     7
 10
568.1503333333334
 20
238.3295454545455
 30
0.0
 40
3.0
  1
DND-S
  7
EXPLODED0
  0
ENDSEC
  0
EOF
