  0
SECTION
  2
HEADER
  9
$ACADVER
  1
AC1006
  9
$DWGCODEPAGE
  3
ansi_932
  9
$INSBASE
 10
0.0
 20
0.0
 30
0.0
  9
$EXTMIN
 10
455.8333333333334
 20
198.1382958595776
  9
$EXTMAX
 10
545.2000000000002
 20
282.1223990925063
  9
$LIMMIN
 10
0.0
 20
0.0
  9
$LIMMAX
 10
12.0
 20
9.0
  9
$ORTHOMODE
 70
     0
  9
$REGENMODE
 70
     1
  9
$FILLMODE
 70
     1
  9
$QTEXTMODE
 70
     0
  9
$MIRRTEXT
 70
     1
  9
$DRAGMODE
 70
     2
  9
$LTSCALE
 40
1.0
  9
$OSMODE
 70
    37
  9
$ATTMODE
 70
     1
  9
$TEXTSIZE
 40
0.2
  9
$TRACEWID
 40
0.05
  9
$TEXTSTYLE
  7
STANDARD
  9
$CLAYER
  8
0
  9
$CELTYPE
  6
BYLAYER
  9
$CECOLOR
 62
   256
  9
$DIMSCALE
 40
1.0
  9
$DIMASZ
 40
3.0
  9
$DIMEXO
 40
0.0625
  9
$DIMDLI
 40
0.38
  9
$DIMRND
 40
0.0
  9
$DIMDLE
 40
0.0
  9
$DIMEXE
 40
0.18
  9
$DIMTP
 40
0.0
  9
$DIMTM
 40
0.0
  9
$DIMTXT
 40
3.0
  9
$DIMCEN
 40
0.09
  9
$DIMTSZ
 40
0.0
  9
$DIMTOL
 70
     0
  9
$DIMLIM
 70
     0
  9
$DIMTIH
 70
     1
  9
$DIMTOH
 70
     1
  9
$DIMSE1
 70
     0
  9
$DIMSE2
 70
     0
  9
$DIMTAD
 70
     1
  9
$DIMZIN
 70
     0
  9
$DIMBLK
  1

  9
$DIMASO
 70
     1
  9
$DIMSHO
 70
     1
  9
$DIMPOST
  1

  9
$DIMAPOST
  1

  9
$DIMALT
 70
     0
  9
$DIMALTD
 70
     2
  9
$DIMALTF
 40
25.4
  9
$DIMLFAC
 40
1.0
  9
$DIMTOFL
 70
     0
  9
$DIMTVP
 40
0.0
  9
$DIMTIX
 70
     0
  9
$DIMSOXD
 70
     0
  9
$DIMSAH
 70
     0
  9
$DIMBLK1
  1

  9
$DIMBLK2
  1

  9
$LUNITS
 70
     2
  9
$LUPREC
 70
     4
  9
$SKETCHINC
 40
0.1
  9
$FILLETRAD
 40
0.5
  9
$AUNITS
 70
     0
  9
$AUPREC
 70
     0
  9
$MENU
  1
.
  9
$ELEVATION
 40
0.0
  9
$THICKNESS
 40
0.0
  9
$LIMCHECK
 70
     0
  9
$CHAMFERA
 40
0.5
  9
$CHAMFERB
 40
0.5
  9
$SKPOLY
 70
     0
  9
$TDCREATE
 40
2460339.408423009
  9
$TDUPDATE
 40
2460339.408423021
  9
$TDINDWG
 40
0.0000000116
  9
$TDUSRTIMER
 40
0.0000000116
  9
$USRTIMER
 70
     1
  9
$ANGBASE
 50
0.0
  9
$ANGDIR
 70
     0
  9
$PDMODE
 70
     0
  9
$PDSIZE
 40
0.0
  9
$PLINEWID
 40
0.0
  9
$COORDS
 70
     1
  9
$SPLFRAME
 70
     0
  9
$SPLINETYPE
 70
     6
  9
$SPLINESEGS
 70
     8
  9
$ATTDIA
 70
     0
  9
$ATTREQ
 70
     1
  9
$HANDLING
 70
     1
  9
$HANDSEED
  5
127
  9
$SURFTAB1
 70
     6
  9
$SURFTAB2
 70
     6
  9
$SURFTYPE
 70
     6
  9
$SURFU
 70
     6
  9
$SURFV
 70
     6
  9
$UCSNAME
  2

  9
$UCSORG
 10
0.0
 20
0.0
 30
0.0
  9
$UCSXDIR
 10
1.0
 20
0.0
 30
0.0
  9
$UCSYDIR
 10
0.0
 20
1.0
 30
0.0
  9
$USERI1
 70
     0
  9
$USERI2
 70
     0
  9
$USERI3
 70
     0
  9
$USERI4
 70
     0
  9
$USERI5
 70
     0
  9
$USERR1
 40
0.0
  9
$USERR2
 40
0.0
  9
$USERR3
 40
0.0
  9
$USERR4
 40
0.0
  9
$USERR5
 40
0.0
  9
$WORLDVIEW
 70
     1
  0
ENDSEC
  0
SECTION
  2
TABLES
  0
TABLE
  2
VPORT
 70
     1
  0
VPORT
  2
*ACTIVE
 70
     0
 10
0.0
 20
0.0
 11
1.0
 21
1.0
 12
500.5166666666668
 22
240.1303474760419
 13
0.0
 23
0.0
 14
0.5
 24
0.5
 15
0.5
 25
0.5
 16
0.0
 26
0.0
 36
1.0
 17
0.0
 27
0.0
 37
0.0
 40
83.98410323292873
 41
1.6
 42
50.0
 43
0.0
 44
0.0
 50
0.0
 51
0.0
 71
     0
 72
   100
 73
     1
 74
     3
 75
     0
 76
     0
 77
     0
 78
     0
  0
ENDTAB
  0
TABLE
  2
LTYPE
 70
     3
  0
LTYPE
  2
CONTINUOUS
 70
     0
  3
Solid line
 72
    65
 73
     0
 40
0.0
  0
LTYPE
  2
________________
 70
     0
  3

 72
    65
 73
     0
 40
0.0
  0
LTYPE
  2
________________0
 70
     0
  3

 72
    65
 73
     4
 40
7.2
 49
2.7
 49
-1.8
 49
0.8999999999999999
 49
-1.8
  0
ENDTAB
  0
TABLE
  2
LAYER
 70
     2
  0
LAYER
  2
0
 70
     0
 62
     7
  6
CONTINUOUS
  0
LAYER
  2
1
 70
     0
 62
     7
  6
CONTINUOUS
  0
ENDTAB
  0
TABLE
  2
STYLE
 70
     2
  0
STYLE
  2
STANDARD
 70
     0
 40
0.0
 41
1.0
 50
0.0
 71
     0
 42
0.2
  3
txt
  4

  0
STYLE
  2
EXPLODED0
 70
     0
 40
0.2
 41
1.0
 50
0.0
 71
     0
 42
0.2
  3
ＭＳ ゴシック
  4

  0
ENDTAB
  0
TABLE
  2
VIEW
 70
     0
  0
ENDTAB
  0
TABLE
  2
UCS
 70
     0
  0
ENDTAB
  0
ENDSEC
  0
SECTION
  2
BLOCKS
  0
BLOCK
  8
0
  2
_1483
 70
     0
 10
0.0
 20
0.0
 30
0.0
  0
ENDBLK
  8
0
  0
BLOCK
  8
0
  2
_1789
 70
     0
 10
0.0
 20
0.0
 30
0.0
  0
ENDBLK
  8
0
  0
BLOCK
  8
0
  2
_2271
 70
     0
 10
0.0
 20
0.0
 30
0.0
  0
ENDBLK
  8
0
  0
ENDSEC
  0
SECTION
  2
ENTITIES
  0
INSERT
  5
3D
  8
1
  6
________________
 62
     7
  2
_1483
 10
0.0
 20
0.0
 30
0.0
  0
LINE
  5
3F
  8
1
  6
________________
 62
     7
 10
494.0622191383903
 20
243.6452684034936
 30
0.0
 11
494.0176989241733
 21
243.6443358379472
 31
0.0
  0
LINE
  5
40
  8
1
  6
________________
 62
     7
 10
473.3718429831366
 20
243.2118668063735
 30
0.0
 11
473.3273227689197
 21
243.210934240827
 31
0.0
  0
LINE
  5
41
  8
1
  6
________________
 62
     7
 10
457.1502680366877
 20
259.0526766562795
 30
0.0
 11
457.1502680366877
 21
259.0972066366569
 31
0.0
  0
LINE
  5
42
  8
1
  6
________________
 62
     7
 10
457.1502680366877
 20
279.7475915483557
 30
0.0
 11
457.1502680366877
 21
279.7921215287331
 31
0.0
  0
LINE
  5
43
  8
1
  6
________________
 62
     7
 10
472.6720538839218
 20
258.7223990925064
 30
0.0
 11
472.8924055410573
 21
248.2029208467826
 31
0.0
  0
LINE
  5
44
  8
1
  6
________________
 62
     7
 10
472.8924055410573
 20
248.2029208467826
 30
0.0
 11
473.2916915633345
 21
244.908506008327
 31
0.0
  0
LINE
  5
45
  8
1
  6
________________
 62
     7
 10
494.0266750350144
 20
245.3421190387783
 30
0.0
 11
494.287712167419
 21
248.6510886322865
 31
0.0
  0
LINE
  5
46
  8
1
  6
________________
 62
     7
 10
483.1502680366877
 20
280.1223990925063
 30
0.0
 11
462.1502680366877
 21
280.1223990925063
 31
0.0
  0
LINE
  5
47
  8
1
  6
________________
 62
     7
 10
462.1502680366877
 20
258.7223990925064
 30
0.0
 11
472.6720538839218
 21
258.7223990925064
 31
0.0
  0
ARC
  5
48
  8
1
  6
________________
 62
     7
 10
483.1502680366877
 20
269.4223990925063
 30
0.0
 40
10.7
 50
1.199999999999995
 51
90.0
  0
LINE
  5
49
  8
1
  6
________________
 62
     7
 10
462.1502680366877
 20
280.1223990925063
 30
0.0
 11
458.8482137023147
 21
279.792193659069
 31
0.0
  0
LINE
  5
4A
  8
1
  6
________________
 62
     7
 10
458.8474909041245
 20
259.0526768057626
 30
0.0
 11
462.1502680366877
 21
258.7223990925064
 31
0.0
  0
LINE
  5
4B
  8
1
  6
________________
 62
     7
 10
494.0622191383903
 20
243.6452684034936
 30
0.0
 11
494.0266751844617
 21
245.3421190420553
 31
0.0
  0
LINE
  5
4C
  8
1
  6
________________
 62
     7
 10
473.2917631315198
 20
244.9085336004894
 30
0.0
 11
473.3273227689197
 21
243.210934240827
 31
0.0
  0
LINE
  5
4D
  8
1
  6
________________
 62
     7
 10
457.1502680366877
 20
259.0526766562795
 30
0.0
 11
458.8474923989556
 21
259.0526766562795
 31
0.0
  0
LINE
  5
4E
  8
1
  6
________________
 62
     7
 10
458.8474923989557
 20
279.7921215287331
 30
0.0
 11
457.1502680366877
 21
279.7921215287331
 31
0.0
  0
ARC
  5
4F
  8
1
  6
________________
 62
     7
 10
483.6926185556281
 20
210.8334180578069
 30
0.0
 40
10.20034356223725
 50
44.99739722944781
 51
67.49241428075143
  0
ARC
  5
50
  8
1
  6
________________
 62
     7
 10
483.6947709536551
 20
210.8386124610502
 30
0.0
 40
10.19472087228315
 50
67.4924142807526
 51
176.3206322878109
  0
ARC
  5
51
  8
1
  6
________________
 62
     7
 10
483.689489568968
 20
210.8333333333333
 30
0.0
 40
10.2030443561304
 50
0.9411228209966681
 51
22.49241565901013
  0
ARC
  5
52
  8
1
  6
________________
 62
     7
 10
483.6946853946514
 20
210.8354847090584
 30
0.0
 40
10.19742074323092
 50
22.49241565901025
 51
331.1920671686191
  0
ARC
  5
53
  8
1
  6
________________
 62
     7
 10
483.6946853946515
 20
210.8311819576082
 30
0.0
 40
10.1974207432308
 50
315.9441435441854
 51
337.5075843409887
  0
ARC
  5
54
  8
1
  6
________________
 62
     7
 10
483.689489568968
 20
210.8333333333333
 30
0.0
 40
10.20304435613034
 50
337.5075843409887
 51
0.941122820996725
  0
ARC
  5
55
  8
1
  6
________________
 62
     7
 10
483.694770953655
 20
210.8280542056167
 30
0.0
 40
10.19472087228337
 50
270.9416846592589
 51
292.5075857192465
  0
ARC
  5
56
  8
1
  6
________________
 62
     7
 10
483.6926185556279
 20
210.8332486088599
 30
0.0
 40
10.2003435622375
 50
292.5075857192487
 51
314.0613361609946
  0
ARC
  5
57
  8
1
  6
________________
 62
     7
 10
483.6969233516818
 20
210.8332486088598
 30
0.0
 40
10.20034356223725
 50
225.9386638390056
 51
247.4924142807515
  0
ARC
  5
58
  8
1
  6
________________
 62
     7
 10
483.6947709536549
 20
210.8280542056165
 30
0.0
 40
10.19472087228315
 50
247.4924142807526
 51
269.0583153407409
  0
ARC
  5
59
  8
1
  6
________________
 62
     7
 10
483.7000523383419
 20
210.8333333333333
 30
0.0
 40
10.2030443561304
 50
180.9411228209967
 51
202.4924156590102
  0
ARC
  5
5A
  8
1
  6
________________
 62
     7
 10
483.6948565126585
 20
210.8311819576082
 30
0.0
 40
10.19742074323092
 50
202.4924156590102
 51
224.0558564558144
  0
ARC
  5
5B
  8
1
  6
________________
 62
     7
 10
483.6948565126584
 20
210.8354847090585
 30
0.0
 40
10.1974207432308
 50
135.9441435441856
 51
157.5075843409888
  0
ARC
  5
5C
  8
1
  6
________________
 62
     7
 10
483.7000523383419
 20
210.8333333333334
 30
0.0
 40
10.20304435613034
 50
157.5075843409888
 51
179.0588771790033
  0
ARC
  5
5D
  8
1
  6
________________
 62
     7
 10
483.696923351682
 20
210.8334180578067
 30
0.0
 40
10.2003435622375
 50
114.1764644869632
 51
336.620715676294
  0
ARC
  5
5E
  8
1
  6
________________
 62
     7
 10
483.6953189491401
 20
210.8333333333333
 30
0.0
 40
9.148730572661801
 50
180.0
 51
197.2891164755093
  0
ARC
  5
5F
  8
1
  6
________________
 62
     7
 10
483.6953189491409
 20
210.8333333333333
 30
0.0
 40
9.148730572662632
 50
162.7108835244914
 51
179.9999999999995
  0
ARC
  5
60
  8
1
  6
________________
 62
     7
 10
483.6953189491401
 20
210.8333333333333
 30
0.0
 40
9.148730572661856
 50
197.2891164755091
 51
202.4924156590116
  0
ARC
  5
61
  8
1
  6
________________
 62
     7
 10
483.6906600250365
 20
210.8314042662639
 30
0.0
 40
9.14368806598749
 50
202.4924156590087
 51
224.9973972290879
  0
ARC
  5
62
  8
1
  6
________________
 62
     7
 10
483.6925132908567
 20
210.8332573637153
 30
0.0
 40
9.146308860593024
 50
224.997397229088
 51
247.4924142807515
  0
ARC
  5
63
  8
1
  6
________________
 62
     7
 10
483.6905833071239
 20
210.8285997150671
 30
0.0
 40
9.1412671814938
 50
247.4924142807533
 51
269.9999999999997
  0
ARC
  5
64
  8
1
  6
________________
 62
     7
 10
483.6905833071239
 20
210.8285997150657
 30
0.0
 40
9.14126718149244
 50
269.9999999999997
 51
292.5075857192491
  0
ARC
  5
65
  8
1
  6
________________
 62
     7
 10
483.6886533233914
 20
210.8332573637151
 30
0.0
 40
9.146308860592592
 50
292.5075857192466
 51
315.0026027709113
  0
ARC
  5
66
  8
1
  6
________________
 62
     7
 10
483.6905065892107
 20
210.8314042662645
 30
0.0
 40
9.143688065988256
 50
315.0026027709112
 51
337.507584340989
  0
ARC
  5
67
  8
1
  6
________________
 62
     7
 10
483.685847665107
 20
210.8333333333334
 30
0.0
 40
9.148730572662467
 50
337.5075843409892
 51
359.9999999999995
  0
ARC
  5
68
  8
1
  6
________________
 62
     7
 10
483.6858476651076
 20
210.8333333333334
 30
0.0
 40
9.148730572661856
 50
359.9999999999995
 51
22.49241565901156
  0
ARC
  5
69
  8
1
  6
________________
 62
     7
 10
483.6905065892112
 20
210.8352624004028
 30
0.0
 40
9.14368806598749
 50
22.4924156590087
 51
44.99739722908786
  0
ARC
  5
6A
  8
1
  6
________________
 62
     7
 10
483.6886533233911
 20
210.8334093029513
 30
0.0
 40
9.146308860593024
 50
44.99739722908797
 51
67.49241428075152
  0
ARC
  5
6B
  8
1
  6
________________
 62
     7
 10
483.6905833071239
 20
210.8380669515996
 30
0.0
 40
9.1412671814938
 50
67.49241428075334
 51
89.99999999999966
  0
ARC
  5
6C
  8
1
  6
________________
 62
     7
 10
483.6905833071239
 20
210.838066951601
 30
0.0
 40
9.14126718149244
 50
89.99999999999966
 51
112.507585719249
  0
ARC
  5
6D
  8
1
  6
________________
 62
     7
 10
483.6925132908564
 20
210.8334093029516
 30
0.0
 40
9.146308860592592
 50
112.5075857192467
 51
135.0026027709113
  0
ARC
  5
6E
  8
1
  6
________________
 62
     7
 10
483.6906600250371
 20
210.8352624004022
 30
0.0
 40
9.143688065988256
 50
135.0026027709113
 51
157.507584340989
  0
ARC
  5
6F
  8
1
  6
________________
 62
     7
 10
483.6953189491408
 20
210.8333333333333
 30
0.0
 40
9.148730572662467
 50
157.5075843409893
 51
162.7108835244908
  0
ARC
  5
70
  8
1
  6
________________
 62
     7
 10
-483.5900588542382
 20
210.838871241821
 30
0.0
 40
10.69446209151237
 50
90.0000000000009
 51
112.5075857192489
210
0.0
220
0.0
230
-1.0
  0
ARC
  5
71
  8
1
  6
________________
 62
     7
 10
-483.5878009465043
 20
210.8334222109676
 30
0.0
 40
10.70036040352311
 50
112.5075857192486
 51
135.0026027709124
210
0.0
220
0.0
230
-1.0
  0
ARC
  5
72
  8
1
  6
________________
 62
     7
 10
-483.589969101166
 20
210.835590168653
 30
0.0
 40
10.69729430907537
 50
135.0026027709124
 51
157.5075843409903
210
0.0
220
0.0
230
-1.0
  0
ARC
  5
73
  8
1
  6
________________
 62
     7
 10
-483.5845185781447
 20
210.8333333333333
 30
0.0
 40
10.7031935892743
 50
157.5075843409903
 51
180.0000000000004
210
0.0
220
0.0
230
-1.0
  0
ARC
  5
74
  8
1
  6
________________
 62
     7
 10
-483.5845185781448
 20
210.8333333333333
 30
0.0
 40
10.70319358927418
 50
180.0000000000004
 51
202.4924156590107
210
0.0
220
0.0
230
-1.0
  0
ARC
  5
75
  8
1
  6
________________
 62
     7
 10
-483.589969101166
 20
210.8310764980137
 30
0.0
 40
10.69729430907539
 50
202.4924156590106
 51
224.9973972290886
210
0.0
220
0.0
230
-1.0
  0
ARC
  5
76
  8
1
  6
________________
 62
     7
 10
-483.5878009465044
 20
210.833244455699
 30
0.0
 40
10.70036040352301
 50
224.9973972290888
 51
247.4924142807532
210
0.0
220
0.0
230
-1.0
  0
ARC
  5
77
  8
1
  6
________________
 62
     7
 10
-483.5900588542382
 20
210.8277954248463
 30
0.0
 40
10.69446209151295
 50
247.4924142807537
 51
270.0000000000006
210
0.0
220
0.0
230
-1.0
  0
LINE
  5
78
  8
1
  6
________________
 62
     7
 10
457.1502680366877
 20
200.63471012101
 30
0.0
 11
457.1502680366877
 21
203.5033175470003
 31
0.0
  0
LINE
  5
79
  8
1
  6
________________
 62
     7
 10
457.1502680366877
 20
203.7403178552656
 30
0.0
 11
457.1502680366877
 21
210.6657488082156
 31
0.0
  0
LINE
  5
7A
  8
1
  6
________________
 62
     7
 10
457.1502680366877
 20
211.0009178584511
 30
0.0
 11
457.1502680366877
 21
217.9263488114011
 31
0.0
  0
LINE
  5
7B
  8
1
  6
________________
 62
     7
 10
457.1502680366877
 20
218.1633491196664
 30
0.0
 11
457.1502680366877
 21
221.0319565456567
 31
0.0
  0
LINE
  5
7C
  8
1
  6
________________
 62
     7
 10
457.1502680366877
 20
210.7501283038995
 30
0.0
 11
457.1502680366877
 21
210.9165383627671
 31
0.0
  0
LINE
  5
7D
  8
1
  6
________________
 62
     7
 10
457.1502680366877
 20
210.9165383627671
 30
0.0
 11
457.1502680366877
 21
211.0009178584511
 31
0.0
  0
LINE
  5
7E
  8
1
  6
________________
 62
     7
 10
457.1502680366877
 20
210.6657488082156
 30
0.0
 11
457.1502680366877
 21
210.7501283038995
 31
0.0
  0
LINE
  5
7F
  8
1
  6
________________
 62
     7
 10
457.1502680366877
 20
218.0755120953791
 30
0.0
 11
457.1502680366877
 21
218.1951237088929
 31
0.0
  0
LINE
  5
80
  8
1
  6
________________
 62
     7
 10
457.1502680366877
 20
203.4715429577737
 30
0.0
 11
457.1502680366877
 21
203.5911545712876
 31
0.0
  0
LINE
  5
81
  8
1
  6
________________
 62
     7
 10
457.1502680366877
 20
217.9263488114011
 30
0.0
 11
457.1502680366877
 21
218.0755120953791
 31
0.0
  0
LINE
  5
82
  8
1
  6
________________
 62
     7
 10
457.1502680366877
 20
203.5911545712876
 30
0.0
 11
457.1502680366877
 21
203.7403178552656
 31
0.0
  0
LINE
  5
83
  8
1
  6
________________
 62
     7
 10
457.1502680366877
 20
221.0319565456567
 30
0.0
 11
457.1502680366877
 21
221.1585257891826
 31
0.0
  0
LINE
  5
84
  8
1
  6
________________
 62
     7
 10
457.1502680366877
 20
200.508140877484
 30
0.0
 11
457.1502680366877
 21
200.63471012101
 31
0.0
  0
LINE
  5
85
  8
1
  6
________________
 62
     7
 10
457.1502680366877
 20
200.4636108971065
 30
0.0
 11
457.1502680366877
 21
200.508140877484
 31
0.0
  0
LINE
  5
86
  8
1
  6
________________
 62
     7
 10
457.1502680366877
 20
221.1585257891826
 30
0.0
 11
457.1502680366877
 21
221.2030557695601
 31
0.0
  0
LINE
  5
87
  8
1
  6
________________
 62
     7
 10
483.1502680366876
 20
200.1333333333333
 30
0.0
 11
483.5900588542381
 21
200.1333333333333
 31
0.0
  0
LINE
  5
88
  8
1
  6
________________
 62
     7
 10
483.5900588542383
 20
221.5333333333333
 30
0.0
 11
483.1502680366877
 21
221.5333333333334
 31
0.0
  0
LINE
  5
89
  8
1
  6
________________
 62
     7
 10
483.1502680366877
 20
221.5333333333334
 30
0.0
 11
462.1502680366877
 21
221.5333333333333
 31
0.0
  0
LINE
  5
8A
  8
1
  6
________________
 62
     7
 10
462.1502680366877
 20
200.1333333333333
 30
0.0
 11
483.1502680366877
 21
200.1333333333333
 31
0.0
  0
LINE
  5
8B
  8
1
  6
________________
 62
     7
 10
462.1502680366877
 20
221.5333333333333
 30
0.0
 11
458.8482135934451
 21
221.2031278890091
 31
0.0
  0
LINE
  5
8C
  8
1
  6
________________
 62
     7
 10
458.8474909041062
 20
200.4636110465915
 30
0.0
 11
462.1502680366877
 21
200.1333333333333
 31
0.0
  0
LINE
  5
8D
  8
1
  6
________________
 62
     7
 10
457.1502680366877
 20
200.4636108971065
 30
0.0
 11
458.8474923989556
 21
200.4636108971065
 31
0.0
  0
LINE
  5
8E
  8
1
  6
________________
 62
     7
 10
458.8474923989557
 20
221.2030557695601
 30
0.0
 11
457.1502680366877
 21
221.2030557695601
 31
0.0
  0
INSERT
  5
92
  8
1
  6
________________
 62
     7
  2
_1789
 10
0.0
 20
0.0
 30
0.0
  0
LINE
  5
93
  8
1
  6
________________
 62
     7
 10
483.5272231825929
 20
243.4245916966694
 30
0.0
 11
476.6033110910948
 21
243.2795564137795
 31
0.0
  0
LINE
  5
94
  8
1
  6
________________
 62
     7
 10
476.3663627609135
 20
243.2745930538113
 30
0.0
 11
473.4983844679359
 21
243.2145174726157
 31
0.0
  0
LINE
  5
95
  8
1
  6
________________
 62
     7
 10
493.8911574393741
 20
243.6416851717049
 30
0.0
 11
491.0231791463964
 21
243.5816095905093
 31
0.0
  0
LINE
  5
96
  8
1
  6
________________
 62
     7
 10
490.7862308162152
 20
243.5766462305412
 30
0.0
 11
483.862318724717
 21
243.4316109476513
 31
0.0
  0
LINE
  5
97
  8
1
  6
________________
 62
     7
 10
457.1502680366877
 20
259.223775880183
 30
0.0
 11
457.1502680366877
 21
262.0923833061732
 31
0.0
  0
LINE
  5
98
  8
1
  6
________________
 62
     7
 10
457.1502680366877
 20
262.3293836144387
 30
0.0
 11
457.1502680366877
 21
269.2548145673886
 31
0.0
  0
LINE
  5
99
  8
1
  6
________________
 62
     7
 10
457.1502680366877
 20
269.5899836176241
 30
0.0
 11
457.1502680366877
 21
276.515414570574
 31
0.0
  0
LINE
  5
9A
  8
1
  6
________________
 62
     7
 10
457.1502680366877
 20
276.7524148788394
 30
0.0
 11
457.1502680366877
 21
279.6210223048297
 31
0.0
  0
LINE
  5
9B
  8
1
  6
________________
 62
     7
 10
483.7779577348508
 20
243.4298438368232
 30
0.0
 11
483.6115841724591
 21
243.4263588074975
 31
0.0
  0
LINE
  5
9C
  8
1
  6
________________
 62
     7
 10
457.1502680366877
 20
269.3391940630726
 30
0.0
 11
457.1502680366877
 21
269.5056041219401
 31
0.0
  0
LINE
  5
9D
  8
1
  6
________________
 62
     7
 10
457.1502680366877
 20
269.2548145673886
 30
0.0
 11
457.1502680366877
 21
269.3391940630726
 31
0.0
  0
LINE
  5
9E
  8
1
  6
________________
 62
     7
 10
483.862318724717
 20
243.4316109476513
 30
0.0
 11
483.7779577348508
 21
243.4298438368232
 31
0.0
  0
LINE
  5
9F
  8
1
  6
________________
 62
     7
 10
457.1502680366877
 20
269.5056041219401
 30
0.0
 11
457.1502680366877
 21
269.5899836176241
 31
0.0
  0
LINE
  5
A0
  8
1
  6
________________
 62
     7
 10
483.6115841724591
 20
243.4263588074975
 30
0.0
 11
483.5272231825929
 21
243.4245916966694
 31
0.0
  0
LINE
  5
A1
  8
1
  6
________________
 62
     7
 10
491.0549467669305
 20
243.5822750272986
 30
0.0
 11
490.9353613862201
 21
243.5797700706654
 31
0.0
  0
LINE
  5
A2
  8
1
  6
________________
 62
     7
 10
476.4541805210898
 20
243.2764325736553
 30
0.0
 11
476.3345951403795
 21
243.2739276170221
 31
0.0
  0
LINE
  5
A3
  8
1
  6
________________
 62
     7
 10
457.1502680366877
 20
276.6645778545521
 30
0.0
 11
457.1502680366877
 21
276.7841894680659
 31
0.0
  0
LINE
  5
A4
  8
1
  6
________________
 62
     7
 10
457.1502680366877
 20
262.0606087169467
 30
0.0
 11
457.1502680366877
 21
262.1802203304605
 31
0.0
  0
LINE
  5
A5
  8
1
  6
________________
 62
     7
 10
457.1502680366877
 20
276.515414570574
 30
0.0
 11
457.1502680366877
 21
276.6645778545521
 31
0.0
  0
LINE
  5
A6
  8
1
  6
________________
 62
     7
 10
476.6033110910948
 20
243.2795564137795
 30
0.0
 11
476.4541805210898
 21
243.2764325736553
 31
0.0
  0
LINE
  5
A7
  8
1
  6
________________
 62
     7
 10
457.1502680366877
 20
262.1802203304605
 30
0.0
 11
457.1502680366877
 21
262.3293836144387
 31
0.0
  0
LINE
  5
A8
  8
1
  6
________________
 62
     7
 10
490.9353613862201
 20
243.5797700706654
 30
0.0
 11
490.7862308162152
 21
243.5766462305412
 31
0.0
  0
LINE
  5
A9
  8
1
  6
________________
 62
     7
 10
457.1502680366877
 20
279.6210223048297
 30
0.0
 11
457.1502680366877
 21
279.7475915483557
 31
0.0
  0
LINE
  5
AA
  8
1
  6
________________
 62
     7
 10
473.4983844679359
 20
243.2145174726157
 30
0.0
 11
473.3718429831366
 21
243.2118668063735
 31
0.0
  0
LINE
  5
AB
  8
1
  6
________________
 62
     7
 10
457.1502680366877
 20
259.0972066366569
 30
0.0
 11
457.1502680366877
 21
259.223775880183
 31
0.0
  0
LINE
  5
AC
  8
1
  6
________________
 62
     7
 10
494.0176989241733
 20
243.6443358379472
 30
0.0
 11
493.8911574393741
 21
243.6416851717049
 31
0.0
  0
LINE
  5
AD
  8
1
  6
________________
 62
     7
 10
494.287712167419
 20
248.6510886322865
 30
0.0
 11
493.8479213498686
 21
269.6464829852582
 31
0.0
  0
ARC
  5
AE
  8
1
  6
________________
 62
     7
 10
522.3628776365902
 20
243.4281013221603
 30
0.0
 40
0.0628776365900752
 50
183.2661154047049
 51
295.963345428246
  0
ARC
  5
AF
  8
1
  6
________________
 62
     7
 10
-522.4661252277158
 20
243.2160682205558
 30
0.0
 40
0.1729572659356452
 50
64.03665457178343
 51
99.9432230900023
210
1.368455531566763E-48
220
-4.428125080286644E-60
230
-1.0
  0
ARC
  5
B0
  8
1
  6
________________
 62
     7
 10
522.8247417714668
 20
245.2617355707196
 30
0.0
 40
1.903905929601758
 50
260.056776909999
 51
268.8233791217689
  0
ARC
  5
B1
  8
1
  6
________________
 62
     7
 10
-522.6383137100132
 20
236.1848615264943
 30
0.0
 40
7.174882416693577
 50
91.17662087822488
 51
93.50079177657102
210
1.368455531566841E-48
220
-4.288027473765700E-60
230
-1.0
  0
ARC
  5
B2
  8
1
  6
________________
 62
     7
 10
524.6849695645269
 20
269.6398018508669
 30
0.0
 40
26.34260305423862
 50
266.4992082234287
 51
268.9052360155873
  0
ARC
  5
B3
  8
1
  6
________________
 62
     7
 10
-521.1219506824089
 20
83.18765058228114
 30
0.0
 40
160.1435889714391
 50
91.09476398441437
 51
91.44845439827911
210
1.368455531566593E-48
220
-2.448147276211793E-59
230
-1.0
  0
ARC
  5
B4
  8
1
  6
________________
 62
     7
 10
529.6160411099625
 20
409.6296711652139
 30
0.0
 40
166.4089219275883
 50
268.5506319428916
 51
269.7512410484188
  0
ARC
  5
B5
  8
1
  6
________________
 62
     7
 10
532.4999999999999
 20
1073.87766458942
 30
0.0
 40
830.6631759500696
 50
269.7512410484172
 51
269.9884406983697
  0
ARC
  5
B6
  8
1
  6
________________
 62
     7
 10
532.5000000000003
 20
1073.87766458942
 30
0.0
 40
830.6631759500696
 50
270.0115593016303
 51
270.2487589515828
  0
ARC
  5
B7
  8
1
  6
________________
 62
     7
 10
535.3839588900378
 20
409.6296711652139
 30
0.0
 40
166.4089219275883
 50
270.2487589515814
 51
271.4493680571084
  0
ARC
  5
B8
  8
1
  6
________________
 62
     7
 10
-543.8780493175913
 20
83.18765058228111
 30
0.0
 40
160.1435889714391
 50
88.5515456017209
 51
88.90523601558563
210
0.0
220
0.0
230
-1.0
  0
ARC
  5
B9
  8
1
  6
________________
 62
     7
 10
540.3150304354732
 20
269.6398018508669
 30
0.0
 40
26.34260305423862
 50
271.0947639844127
 51
273.5007917765712
  0
ARC
  5
BA
  8
1
  6
________________
 62
     7
 10
-542.3616862899869
 20
236.1848615264943
 30
0.0
 40
7.174882416693577
 50
86.49920822342901
 51
88.82337912177512
210
0.0
220
0.0
230
-1.0
  0
ARC
  5
BB
  8
1
  6
________________
 62
     7
 10
542.1752582285333
 20
245.2617355707196
 30
0.0
 40
1.903905929601758
 50
271.1766208782311
 51
279.943223090001
  0
ARC
  5
BC
  8
1
  6
________________
 62
     7
 10
-542.5338747722843
 20
243.2160682205559
 30
0.0
 40
0.1729572659355359
 50
80.05677690999136
 51
115.9633454282367
210
0.0
220
0.0
230
-1.0
  0
ARC
  5
BD
  8
1
  6
________________
 62
     7
 10
542.63712236341
 20
243.4281013221603
 30
0.0
 40
0.0628776365900752
 50
244.0366545717651
 51
356.7338845952951
  0
ARC
  5
BE
  8
1
  6
________________
 62
     7
 10
522.1933495784061
 20
242.5468403309125
 30
0.0
 40
0.8833880423721417
 50
91.2029671323036
 51
92.19165047042111
  0
ARC
  5
BF
  8
1
  6
________________
 62
     7
 10
-522.1587327959163
 20
243.4513769417665
 30
0.0
 40
0.0218107214390289
 50
267.8083495295936
 51
310.3070654412918
210
0.0
220
0.0
230
-1.0
  0
ARC
  5
C0
  8
1
  6
________________
 62
     7
 10
522.1389886999624
 20
243.4281013221604
 30
0.0
 40
0.0087111361891656
 50
49.69293455851999
 51
180.0000000001825
  0
LINE
  5
C1
  8
1
  6
________________
 62
     7
 10
522.3013767876768
 20
243.4316109476513
 30
0.0
 11
522.1748075441508
 21
243.4298438368232
 31
0.0
  0
LINE
  5
C2
  8
1
  6
________________
 62
     7
 10
542.8251924558493
 20
243.4298438368232
 30
0.0
 11
542.6986232123235
 21
243.4316109476513
 31
0.0
  0
ARC
  5
C3
  8
1
  6
________________
 62
     7
 10
542.806650421594
 20
244.3093623134081
 30
0.0
 40
0.8833880423721417
 50
271.2029671322964
 51
272.1916504704211
  0
ARC
  5
C4
  8
1
  6
________________
 62
     7
 10
-542.8412672040839
 20
243.4048257025541
 30
0.0
 40
0.0218107214390289
 50
87.80834952959361
 51
130.3070654412918
210
0.0
220
0.0
230
-1.0
  0
ARC
  5
C5
  8
1
  6
________________
 62
     7
 10
542.8610113000377
 20
243.4281013221603
 30
0.0
 40
0.0087111361891656
 50
229.69293455852
 51
0.0000000001825242
  0
LINE
  5
C6
  8
1
  6
________________
 62
     7
 10
542.6986232123235
 20
243.4245916966694
 30
0.0
 11
542.8251924558493
 21
243.4263588074975
 31
0.0
  0
LINE
  5
C7
  8
1
  6
________________
 62
     7
 10
539.8598484431287
 20
243.2764325736553
 30
0.0
 11
539.8300157863332
 21
243.2795564137795
 31
0.0
  0
ARC
  5
C8
  8
1
  6
________________
 62
     7
 10
-539.7617903755597
 20
223.375342302248
 30
0.0
 40
19.89858531477415
 50
89.94353065780052
 51
90.0
210
0.0
220
0.0
230
-1.0
  0
ARC
  5
C9
  8
1
  6
________________
 62
     7
 10
-539.7617903755597
 20
223.375342302248
 30
0.0
 40
19.89858531477415
 50
90.0
 51
90.1018102941693
210
0.0
220
0.0
230
-1.0
  0
ARC
  5
CA
  8
1
  6
________________
 62
     7
 10
539.798718360927
 20
244.1572828502552
 30
0.0
 40
0.8833880423691143
 50
269.8981897058411
 51
272.1916504704214
  0
ARC
  5
CB
  8
1
  6
________________
 62
     7
 10
-539.8333351434167
 20
243.2527462394042
 30
0.0
 40
0.0218107214390566
 50
87.8083495295964
 51
130.3070654409279
210
0.0
220
0.0
230
-1.0
  0
ARC
  5
CC
  8
1
  6
________________
 62
     7
 10
539.8530792393705
 20
243.2760218590104
 30
0.0
 40
0.0087111361892767
 50
229.6929345584019
 51
0.0
  0
LINE
  5
CD
  8
1
  6
________________
 62
     7
 10
539.5930154780679
 20
243.2745930538113
 30
0.0
 11
539.7421787620459
 21
243.2739682857865
 31
0.0
  0
LINE
  5
CE
  8
1
  6
________________
 62
     7
 10
532.5832050294339
 20
243.2118668063735
 30
0.0
 11
532.6675845251178
 21
243.2145174726157
 31
0.0
  0
ARC
  5
CF
  8
1
  6
________________
 62
     7
 10
-532.428455232143
 20
243.1897528632093
 30
0.0
 40
0.0218107214388902
 50
62.19817133087799
 51
92.19165047042036
210
0.0
220
0.0
230
-1.0
  0
ARC
  5
D0
  8
1
  6
________________
 62
     7
 10
532.4630720146329
 20
244.0942894740601
 30
0.0
 40
0.8833880423691143
 50
267.8083495295786
 51
270.1018102941588
  0
ARC
  5
D1
  8
1
  6
________________
 62
     7
 10
-532.5000000000001
 20
223.3123489260529
 30
0.0
 40
19.89858531477415
 50
89.89818970583069
 51
90.0
210
0.0
220
0.0
230
-1.0
  0
ARC
  5
D2
  8
1
  6
________________
 62
     7
 10
-532.5000000000001
 20
223.3123489260529
 30
0.0
 40
19.89858531477415
 50
90.0
 51
90.1018102941693
210
0.0
220
0.0
230
-1.0
  0
ARC
  5
D3
  8
1
  6
________________
 62
     7
 10
532.5369279853674
 20
244.0942894740601
 30
0.0
 40
0.8833880423691143
 50
269.8981897058411
 51
272.1916504704214
  0
ARC
  5
D4
  8
1
  6
________________
 62
     7
 10
-532.5715447678571
 20
243.1897528632091
 30
0.0
 40
0.0218107214390566
 50
87.8083495295964
 51
117.801828668719
210
0.0
220
0.0
230
-1.0
  0
LINE
  5
D5
  8
1
  6
________________
 62
     7
 10
532.3324154748823
 20
243.2145174726157
 30
0.0
 11
532.4167949705662
 21
243.2118668063735
 31
0.0
  0
LINE
  5
D6
  8
1
  6
________________
 62
     7
 10
525.2578212379543
 20
243.2739682857865
 30
0.0
 11
525.4069845219325
 21
243.2745930538113
 31
0.0
  0
LINE
  5
D7
  8
1
  6
________________
 62
     7
 10
522.1748075441508
 20
243.4263588074975
 30
0.0
 11
522.3013767876768
 21
243.4245916966694
 31
0.0
  0
ARC
  5
D8
  8
1
  6
________________
 62
     7
 10
532.5000000000001
 20
269.4223990925063
 30
0.0
 40
10.70000000000004
 50
0.0000000000000084
 51
180.0
  0
ARC
  5
D9
  8
1
  6
________________
 62
     7
 10
522.1389886999624
 20
243.4281013221603
 30
0.0
 40
0.0087111361891656
 50
179.9999999998174
 51
310.3070654417162
  0
ARC
  5
DA
  8
1
  6
________________
 62
     7
 10
-522.1587327959163
 20
243.4048257025539
 30
0.0
 40
0.0218107214391953
 50
49.69293455908555
 51
92.19165047038967
210
0.0
220
0.0
230
-1.0
  0
ARC
  5
DB
  8
1
  6
________________
 62
     7
 10
522.1933495784061
 20
244.3093623134081
 30
0.0
 40
0.8833880423721417
 50
267.8083495295789
 51
268.7970328676964
  0
ARC
  5
DC
  8
1
  6
________________
 62
     7
 10
542.8610113000377
 20
243.4281013221604
 30
0.0
 40
0.0087111361891656
 50
359.9999999998174
 51
130.3070654417162
  0
ARC
  5
DD
  8
1
  6
________________
 62
     7
 10
-542.8412672040839
 20
243.4513769417667
 30
0.0
 40
0.0218107214391953
 50
229.6929345590856
 51
272.1916504703897
210
0.0
220
0.0
230
-1.0
  0
ARC
  5
DE
  8
1
  6
________________
 62
     7
 10
542.806650421594
 20
242.5468403309125
 30
0.0
 40
0.8833880423721417
 50
87.8083495295789
 51
88.79703286769639
  0
ARC
  5
DF
  8
1
  6
________________
 62
     7
 10
525.1469207606298
 20
243.2760218590104
 30
0.0
 40
0.0087111361891656
 50
179.9999999998174
 51
310.3070654417162
  0
ARC
  5
E0
  8
1
  6
________________
 62
     7
 10
-525.1666648565836
 20
243.252746239404
 30
0.0
 40
0.0218107214391953
 50
49.69293455908555
 51
92.19165047038967
210
0.0
220
0.0
230
-1.0
  0
ARC
  5
E1
  8
1
  6
________________
 62
     7
 10
525.2012816390734
 20
244.1572828502582
 30
0.0
 40
0.8833880423721417
 50
267.8083495295789
 51
270.1018102941586
  0
ARC
  5
E2
  8
1
  6
________________
 62
     7
 10
-525.2382096244405
 20
223.3753423024326
 30
0.0
 40
19.89858531458949
 50
89.89818970583008
 51
90.0
210
0.0
220
0.0
230
-1.0
  0
ARC
  5
E3
  8
1
  6
________________
 62
     7
 10
-525.2382096244405
 20
223.3753423024326
 30
0.0
 40
19.89858531458949
 50
90.0
 51
90.05646934220002
210
0.0
220
0.0
230
-1.0
  0
ARC
  5
E4
  8
1
  6
________________
 62
     7
 10
539.8530792393705
 20
243.2760218590104
 30
0.0
 40
0.0087111361892767
 50
0.0
 51
3.472107435461623
  0
LINE
  5
E5
  8
1
  6
________________
 62
     7
 10
521.8000000000001
 20
269.4223990925063
 30
0.0
 11
521.8000000000001
 21
248.4270047395345
 31
0.0
  0
LINE
  5
E6
  8
1
  6
________________
 62
     7
 10
543.2000000000002
 20
248.4270047395345
 30
0.0
 11
543.2000000000002
 21
269.4223990925063
 31
0.0
  0
LINE
  5
E7
  8
1
  6
________________
 62
     7
 10
521.8000234746163
 20
248.4265353506927
 30
0.0
 11
522.1302775637732
 21
245.1247260047356
 31
0.0
  0
LINE
  5
E8
  8
1
  6
________________
 62
     7
 10
542.8697224362269
 20
245.1247260047356
 30
0.0
 11
543.1999765253838
 21
248.4265353506927
 31
0.0
  0
LINE
  5
E9
  8
1
  6
________________
 62
     7
 10
522.1302775637732
 20
245.1253414279934
 30
0.0
 11
522.1302775637732
 21
243.4281013221603
 31
0.0
  0
LINE
  5
EA
  8
1
  6
________________
 62
     7
 10
542.8697224362269
 20
243.4281013221603
 30
0.0
 11
542.8697224362269
 21
245.1249518722915
 31
0.0
  0
INSERT
  5
EE
  8
1
  6
________________
 62
     7
  2
_2271
 10
0.0
 20
0.0
 30
0.0
  0
LINE
  5
EF
  8
1
  6
________________
 62
     7
 10
522.1747588970018
 20
243.4263594866902
 30
0.0
 11
522.3013767876768
 21
243.4245916966694
 31
0.0
  0
LINE
  5
F0
  8
1
  6
________________
 62
     7
 10
542.6986232123235
 20
243.4245916966694
 30
0.0
 11
542.8252411029983
 21
243.4263594866902
 31
0.0
  0
LINE
  5
F1
  8
1
  6
________________
 62
     7
 10
494.0622191383903
 20
243.6452684034936
 30
0.0
 11
473.3273227689197
 21
243.2109342408272
 31
0.0
  0
LINE
  5
F2
  8
1
  6
________________
 62
     7
 10
457.1502680366877
 20
259.0526766562795
 30
0.0
 11
457.1502680366877
 21
279.7921215287331
 31
0.0
  0
LINE
  5
F3
  8
1
  6
________________
 62
     7
 10
462.1502680366877
 20
200.1333333333333
 30
0.0
 11
483.5900588542381
 21
200.1333333333333
 31
0.0
  0
LINE
  5
F4
  8
1
  6
________________
 62
     7
 10
483.5900588542383
 20
221.5333333333334
 30
0.0
 11
462.1502680366877
 21
221.5333333333333
 31
0.0
  0
LINE
  5
F5
  8
1
  6
________________
 62
     7
 10
457.1502680366877
 20
200.4636108971065
 30
0.0
 11
457.1502680366877
 21
221.2030557695601
 31
0.0
  0
TEXT
  5
F6
  8
1
 62
     7
 10
527.4806363636364
 20
216.3530303030303
 30
0.0
 40
3.0
  1
DPES-14
  7
EXPLODED0
  0
LINE
  5
F7
  8
1
  6
________________0
 62
     1
 10
455.8333333333334
 20
210.835590168653
 30
0.0
 11
496.2872634102413
 21
210.835590168653
 31
0.0
  0
LINE
  5
F9
  8
1
  6
________________0
 62
     1
 10
483.589969101166
 20
198.1382958595776
 30
0.0
 11
483.589969101166
 21
223.5328844777283
 31
0.0
  0
LINE
  5
FA
  8
1
  6
________________0
 62
     1
 10
519.8000000000001
 20
269.4223990925063
 30
0.0
 11
545.2000000000002
 21
269.4223990925063
 31
0.0
  0
LINE
  5
FB
  8
1
  6
________________0
 62
     1
 10
532.5000000000001
 20
241.6666666666667
 30
0.0
 11
532.5000000000001
 21
282.1223990925063
 31
0.0
  0
LINE
  5
FC
  8
1
  6
________________0
 62
     1
 10
495.8333333333334
 20
269.4223990925063
 30
0.0
 11
455.8333333333334
 21
269.4223990925063
 31
0.0
  0
LINE
  5
FD
  8
1
  6
________________0
 62
     1
 10
482.8928835094438
 20
281.7098080928533
 30
0.0
 11
483.7325895087805
 21
241.6226623565531
 31
0.0
  0
ENDSEC
  0
EOF
