  0
SECTION
  2
HEADER
  9
$ACADVER
  1
AC1006
  9
$DWGCODEPAGE
  3
ansi_932
  9
$INSBASE
 10
0.0
 20
0.0
 30
0.0
  9
$EXTMIN
 10
429.1666666666667
 20
164.15
  9
$EXTMAX
 10
526.3666666666667
 20
265.8742942379279
  9
$LIMMIN
 10
0.0
 20
0.0
  9
$LIMMAX
 10
12.0
 20
9.0
  9
$ORTHOMODE
 70
     0
  9
$REGENMODE
 70
     1
  9
$FILLMODE
 70
     1
  9
$QTEXTMODE
 70
     0
  9
$MIRRTEXT
 70
     1
  9
$DRAGMODE
 70
     2
  9
$LTSCALE
 40
1.0
  9
$OSMODE
 70
    37
  9
$ATTMODE
 70
     1
  9
$TEXTSIZE
 40
0.2
  9
$TRACEWID
 40
0.05
  9
$TEXTSTYLE
  7
STANDARD
  9
$CLAYER
  8
0
  9
$CELTYPE
  6
BYLAYER
  9
$CECOLOR
 62
   256
  9
$DIMSCALE
 40
1.0
  9
$DIMASZ
 40
3.0
  9
$DIMEXO
 40
0.0625
  9
$DIMDLI
 40
0.38
  9
$DIMRND
 40
0.0
  9
$DIMDLE
 40
0.0
  9
$DIMEXE
 40
0.18
  9
$DIMTP
 40
0.0
  9
$DIMTM
 40
0.0
  9
$DIMTXT
 40
3.0
  9
$DIMCEN
 40
0.09
  9
$DIMTSZ
 40
0.0
  9
$DIMTOL
 70
     0
  9
$DIMLIM
 70
     0
  9
$DIMTIH
 70
     1
  9
$DIMTOH
 70
     1
  9
$DIMSE1
 70
     0
  9
$DIMSE2
 70
     0
  9
$DIMTAD
 70
     1
  9
$DIMZIN
 70
     0
  9
$DIMBLK
  1

  9
$DIMASO
 70
     1
  9
$DIMSHO
 70
     1
  9
$DIMPOST
  1

  9
$DIMAPOST
  1

  9
$DIMALT
 70
     0
  9
$DIMALTD
 70
     2
  9
$DIMALTF
 40
25.4
  9
$DIMLFAC
 40
1.0
  9
$DIMTOFL
 70
     0
  9
$DIMTVP
 40
0.0
  9
$DIMTIX
 70
     0
  9
$DIMSOXD
 70
     0
  9
$DIMSAH
 70
     0
  9
$DIMBLK1
  1

  9
$DIMBLK2
  1

  9
$LUNITS
 70
     2
  9
$LUPREC
 70
     4
  9
$SKETCHINC
 40
0.1
  9
$FILLETRAD
 40
0.5
  9
$AUNITS
 70
     0
  9
$AUPREC
 70
     0
  9
$MENU
  1
.
  9
$ELEVATION
 40
0.0
  9
$THICKNESS
 40
0.0
  9
$LIMCHECK
 70
     0
  9
$CHAMFERA
 40
0.5
  9
$CHAMFERB
 40
0.5
  9
$SKPOLY
 70
     0
  9
$TDCREATE
 40
2460339.410951308
  9
$TDUPDATE
 40
2460339.41095132
  9
$TDINDWG
 40
0.0000000116
  9
$TDUSRTIMER
 40
0.0000000116
  9
$USRTIMER
 70
     1
  9
$ANGBASE
 50
0.0
  9
$ANGDIR
 70
     0
  9
$PDMODE
 70
     0
  9
$PDSIZE
 40
0.0
  9
$PLINEWID
 40
0.0
  9
$COORDS
 70
     1
  9
$SPLFRAME
 70
     0
  9
$SPLINETYPE
 70
     6
  9
$SPLINESEGS
 70
     8
  9
$ATTDIA
 70
     0
  9
$ATTREQ
 70
     1
  9
$HANDLING
 70
     1
  9
$HANDSEED
  5
192
  9
$SURFTAB1
 70
     6
  9
$SURFTAB2
 70
     6
  9
$SURFTYPE
 70
     6
  9
$SURFU
 70
     6
  9
$SURFV
 70
     6
  9
$UCSNAME
  2

  9
$UCSORG
 10
0.0
 20
0.0
 30
0.0
  9
$UCSXDIR
 10
1.0
 20
0.0
 30
0.0
  9
$UCSYDIR
 10
0.0
 20
1.0
 30
0.0
  9
$USERI1
 70
     0
  9
$USERI2
 70
     0
  9
$USERI3
 70
     0
  9
$USERI4
 70
     0
  9
$USERI5
 70
     0
  9
$USERR1
 40
0.0
  9
$USERR2
 40
0.0
  9
$USERR3
 40
0.0
  9
$USERR4
 40
0.0
  9
$USERR5
 40
0.0
  9
$WORLDVIEW
 70
     1
  0
ENDSEC
  0
SECTION
  2
TABLES
  0
TABLE
  2
VPORT
 70
     1
  0
VPORT
  2
*ACTIVE
 70
     0
 10
0.0
 20
0.0
 11
1.0
 21
1.0
 12
477.7666666666667
 22
215.012147118964
 13
0.0
 23
0.0
 14
0.5
 24
0.5
 15
0.5
 25
0.5
 16
0.0
 26
0.0
 36
1.0
 17
0.0
 27
0.0
 37
0.0
 40
101.7242942379279
 41
1.6
 42
50.0
 43
0.0
 44
0.0
 50
0.0
 51
0.0
 71
     0
 72
   100
 73
     1
 74
     3
 75
     0
 76
     0
 77
     0
 78
     0
  0
ENDTAB
  0
TABLE
  2
LTYPE
 70
     3
  0
LTYPE
  2
CONTINUOUS
 70
     0
  3
Solid line
 72
    65
 73
     0
 40
0.0
  0
LTYPE
  2
________________
 70
     0
  3

 72
    65
 73
     0
 40
0.0
  0
LTYPE
  2
________________0
 70
     0
  3

 72
    65
 73
     4
 40
7.2
 49
2.7
 49
-1.8
 49
0.8999999999999999
 49
-1.8
  0
ENDTAB
  0
TABLE
  2
LAYER
 70
     2
  0
LAYER
  2
0
 70
     0
 62
     7
  6
CONTINUOUS
  0
LAYER
  2
1
 70
     0
 62
     7
  6
CONTINUOUS
  0
ENDTAB
  0
TABLE
  2
STYLE
 70
     2
  0
STYLE
  2
STANDARD
 70
     0
 40
0.0
 41
1.0
 50
0.0
 71
     0
 42
0.2
  3
txt
  4

  0
STYLE
  2
EXPLODED0
 70
     0
 40
0.2
 41
1.0
 50
0.0
 71
     0
 42
0.2
  3
ＭＳ ゴシック
  4

  0
ENDTAB
  0
TABLE
  2
VIEW
 70
     0
  0
ENDTAB
  0
TABLE
  2
UCS
 70
     0
  0
ENDTAB
  0
ENDSEC
  0
SECTION
  2
BLOCKS
  0
BLOCK
  8
0
  2
_1483
 70
     0
 10
0.0
 20
0.0
 30
0.0
  0
ENDBLK
  8
0
  0
BLOCK
  8
0
  2
_2014
 70
     0
 10
0.0
 20
0.0
 30
0.0
  0
ENDBLK
  8
0
  0
BLOCK
  8
0
  2
_2159
 70
     0
 10
0.0
 20
0.0
 30
0.0
  0
ENDBLK
  8
0
  0
ENDSEC
  0
SECTION
  2
ENTITIES
  0
INSERT
  5
3D
  8
1
  6
________________
 62
     7
  2
_1483
 10
0.0
 20
0.0
 30
0.0
  0
LINE
  5
3F
  8
1
  6
________________
 62
     7
 10
461.9027514902685
 20
220.6124232803641
 30
0.0
 11
453.5645157357721
 21
220.4377621400326
 31
0.0
  0
LINE
  5
40
  8
1
  6
________________
 62
     7
 10
453.3277821414619
 20
220.4328032781397
 30
0.0
 11
449.8739718056852
 21
220.3604562649949
 31
0.0
  0
LINE
  5
41
  8
1
  6
________________
 62
     7
 10
474.2663230345946
 20
220.8714031854762
 30
0.0
 11
470.812512698818
 21
220.7990561723313
 31
0.0
  0
LINE
  5
42
  8
1
  6
________________
 62
     7
 10
470.5757791045078
 20
220.7940973104384
 30
0.0
 11
462.2375433500113
 21
220.619436170107
 31
0.0
  0
LINE
  5
43
  8
1
  6
________________
 62
     7
 10
433.483759663406
 20
236.410937838459
 30
0.0
 11
433.483759663406
 21
239.8655058180809
 31
0.0
  0
LINE
  5
44
  8
1
  6
________________
 62
     7
 10
433.483759663406
 20
240.1022913433697
 30
0.0
 11
433.483759663406
 21
248.4423562119127
 31
0.0
  0
LINE
  5
45
  8
1
  6
________________
 62
     7
 10
433.483759663406
 20
248.7772215131498
 30
0.0
 11
433.483759663406
 21
257.1172863816927
 31
0.0
  0
LINE
  5
46
  8
1
  6
________________
 62
     7
 10
433.483759663406
 20
257.3540719069816
 30
0.0
 11
433.483759663406
 21
260.8086398866035
 31
0.0
  0
LINE
  5
47
  8
1
  6
________________
 62
     7
 10
462.1533342013358
 20
220.6176722398983
 30
0.0
 11
461.9869606389441
 21
220.6141872105727
 31
0.0
  0
LINE
  5
48
  8
1
  6
________________
 62
     7
 10
433.483759663406
 20
248.5265838330974
 30
0.0
 11
433.483759663406
 21
248.692993891965
 31
0.0
  0
LINE
  5
49
  8
1
  6
________________
 62
     7
 10
433.483759663406
 20
248.4423562119127
 30
0.0
 11
433.483759663406
 21
248.5265838330974
 31
0.0
  0
LINE
  5
4A
  8
1
  6
________________
 62
     7
 10
433.483759663406
 20
248.692993891965
 30
0.0
 11
433.483759663406
 21
248.7772215131498
 31
0.0
  0
LINE
  5
4B
  8
1
  6
________________
 62
     7
 10
462.2375433500114
 20
220.619436170107
 30
0.0
 11
462.1533342013358
 21
220.6176722398983
 31
0.0
  0
LINE
  5
4C
  8
1
  6
________________
 62
     7
 10
461.9869606389441
 20
220.6141872105727
 30
0.0
 11
461.9027514902686
 21
220.6124232803641
 31
0.0
  0
LINE
  5
4D
  8
1
  6
________________
 62
     7
 10
453.4156535856061
 20
220.4346439225025
 30
0.0
 11
453.2960682048957
 21
220.4321389658693
 31
0.0
  0
LINE
  5
4E
  8
1
  6
________________
 62
     7
 10
470.8442266353842
 20
220.7997204846017
 30
0.0
 11
470.7246412546739
 21
220.7972155279685
 31
0.0
  0
LINE
  5
4F
  8
1
  6
________________
 62
     7
 10
433.483759663406
 20
257.2661811869501
 30
0.0
 11
433.483759663406
 21
257.3857928004639
 31
0.0
  0
LINE
  5
50
  8
1
  6
________________
 62
     7
 10
433.483759663406
 20
239.8337849245985
 30
0.0
 11
433.483759663406
 21
239.9533965381123
 31
0.0
  0
LINE
  5
51
  8
1
  6
________________
 62
     7
 10
433.483759663406
 20
257.1172863816927
 30
0.0
 11
433.4837596634059
 21
257.2661811869501
 31
0.0
  0
LINE
  5
52
  8
1
  6
________________
 62
     7
 10
470.7246412546739
 20
220.7972155279685
 30
0.0
 11
470.5757791045078
 21
220.7940973104384
 31
0.0
  0
LINE
  5
53
  8
1
  6
________________
 62
     7
 10
453.5645157357721
 20
220.4377621400326
 30
0.0
 11
453.415653585606
 21
220.4346439225024
 31
0.0
  0
LINE
  5
54
  8
1
  6
________________
 62
     7
 10
433.483759663406
 20
239.9533965381123
 30
0.0
 11
433.483759663406
 21
240.1022913433697
 31
0.0
  0
LINE
  5
55
  8
1
  6
________________
 62
     7
 10
433.483759663406
 20
260.8086398866034
 30
0.0
 11
433.4837596634059
 21
260.9349813183806
 31
0.0
  0
LINE
  5
56
  8
1
  6
________________
 62
     7
 10
474.392636757608
 20
220.8740490807891
 30
0.0
 11
474.2663230345946
 21
220.8714031854762
 31
0.0
  0
LINE
  5
57
  8
1
  6
________________
 62
     7
 10
449.8739718056852
 20
220.3604562649949
 30
0.0
 11
449.747658082672
 21
220.3578103696819
 31
0.0
  0
LINE
  5
58
  8
1
  6
________________
 62
     7
 10
433.483759663406
 20
236.2845964066819
 30
0.0
 11
433.483759663406
 21
236.410937838459
 31
0.0
  0
LINE
  5
59
  8
1
  6
________________
 62
     7
 10
474.4371569718249
 20
220.8749816463356
 30
0.0
 11
474.392636757608
 21
220.8740490807891
 31
0.0
  0
LINE
  5
5A
  8
1
  6
________________
 62
     7
 10
449.7476580826719
 20
220.3578103696819
 30
0.0
 11
449.703137868455
 21
220.3568778041355
 31
0.0
  0
LINE
  5
5B
  8
1
  6
________________
 62
     7
 10
433.483759663406
 20
260.9349813183806
 30
0.0
 11
433.483759663406
 21
260.979511298758
 31
0.0
  0
LINE
  5
5C
  8
1
  6
________________
 62
     7
 10
433.483759663406
 20
236.2400664263044
 30
0.0
 11
433.483759663406
 21
236.2845964066819
 31
0.0
  0
LINE
  5
5D
  8
1
  6
________________
 62
     7
 10
449.0470008091885
 20
235.9097888625312
 30
0.0
 11
449.2682206405926
 21
225.3488644100911
 31
0.0
  0
LINE
  5
5E
  8
1
  6
________________
 62
     7
 10
474.6144732490845
 20
228.1807359839714
 30
0.0
 11
474.1809743435365
 21
248.8757575950498
 31
0.0
  0
LINE
  5
5F
  8
1
  6
________________
 62
     7
 10
474.6626500008537
 20
225.8808018751284
 30
0.0
 11
474.6144732490845
 21
228.1807359839714
 31
0.0
  0
LINE
  5
60
  8
1
  6
________________
 62
     7
 10
461.483759663406
 20
261.3097888625312
 30
0.0
 11
438.483759663406
 21
261.3097888625312
 31
0.0
  0
LINE
  5
61
  8
1
  6
________________
 62
     7
 10
438.483759663406
 20
235.9097888625312
 30
0.0
 11
449.0470008091885
 21
235.9097888625312
 31
0.0
  0
ARC
  5
62
  8
1
  6
________________
 62
     7
 10
461.483759663406
 20
248.6097888625312
 30
0.0
 40
12.7
 50
1.199999999999995
 51
90.0
  0
LINE
  5
63
  8
1
  6
________________
 62
     7
 10
449.2682206405926
 20
225.3488644100911
 30
0.0
 11
449.6675938832241
 21
222.0537299370537
 31
0.0
  0
LINE
  5
64
  8
1
  6
________________
 62
     7
 10
449.6675938832241
 20
222.0537299370537
 30
0.0
 11
449.6677477098925
 21
222.0524607494775
 31
0.0
  0
LINE
  5
65
  8
1
  6
________________
 62
     7
 10
474.401498095375
 20
222.5703773904752
 30
0.0
 11
474.401612986594
 21
222.5718337792541
 31
0.0
  0
LINE
  5
66
  8
1
  6
________________
 62
     7
 10
474.401612986594
 20
222.5718337792541
 30
0.0
 11
474.6626500008537
 21
225.8808018751284
 31
0.0
  0
LINE
  5
67
  8
1
  6
________________
 62
     7
 10
438.483759663406
 20
261.3097888625312
 30
0.0
 11
435.180984025674
 21
260.979511298758
 31
0.0
  0
LINE
  5
68
  8
1
  6
________________
 62
     7
 10
435.180984025674
 20
260.979511298758
 30
0.0
 11
435.1797118949482
 21
260.9793840856854
 31
0.0
  0
LINE
  5
69
  8
1
  6
________________
 62
     7
 10
435.179530362406
 20
236.2402117926312
 30
0.0
 11
435.1809840256738
 21
236.2400664263044
 31
0.0
  0
LINE
  5
6A
  8
1
  6
________________
 62
     7
 10
435.1809840256738
 20
236.2400664263044
 30
0.0
 11
438.483759663406
 21
235.9097888625312
 31
0.0
  0
LINE
  5
6B
  8
1
  6
________________
 62
     7
 10
474.4371569718249
 20
220.8749816463356
 30
0.0
 11
474.401612986594
 21
222.5718337792541
 31
0.0
  0
LINE
  5
6C
  8
1
  6
________________
 62
     7
 10
449.6675938832241
 20
222.0537299370537
 30
0.0
 11
449.703137868455
 21
220.3568778041355
 31
0.0
  0
LINE
  5
6D
  8
1
  6
________________
 62
     7
 10
435.180984025674
 20
260.979511298758
 30
0.0
 11
433.483759663406
 21
260.979511298758
 31
0.0
  0
LINE
  5
6E
  8
1
  6
________________
 62
     7
 10
433.483759663406
 20
236.2400664263044
 30
0.0
 11
435.1809840256738
 21
236.2400664263044
 31
0.0
  0
POLYLINE
  5
6F
  8
1
  6
________________
 62
     7
 66
     1
 10
0.0
 20
0.0
 30
0.0
  0
VERTEX
  5
BC
  8
1
  6
________________
 62
     7
 10
499.4678156425945
 20
220.6124232803641
 30
0.0
  0
VERTEX
  5
BD
  8
1
  6
________________
 62
     7
 10
499.7177006031455
 20
220.5643662296323
 30
0.0
  0
VERTEX
  5
BE
  8
1
  6
________________
 62
     7
 10
500.395336370029
 20
220.518155056335
 30
0.0
  0
VERTEX
  5
BF
  8
1
  6
________________
 62
     7
 10
501.4764648405655
 20
220.4754440347026
 30
0.0
  0
VERTEX
  5
C0
  8
1
  6
________________
 62
     7
 10
502.9223836222163
 20
220.4377621400326
 30
0.0
  0
SEQEND
  5
C1
  8
1
  6
________________
 62
     7
  0
POLYLINE
  5
70
  8
1
  6
________________
 62
     7
 66
     1
 10
0.0
 20
0.0
 30
0.0
  0
VERTEX
  5
C2
  8
1
  6
________________
 62
     7
 10
503.1591691475049
 20
220.4328032781397
 30
0.0
  0
VERTEX
  5
C3
  8
1
  6
________________
 62
     7
 10
504.9584786294001
 20
220.4025222398972
 30
0.0
  0
VERTEX
  5
C4
  8
1
  6
________________
 62
     7
 10
506.9979287918125
 20
220.3798807935193
 30
0.0
  0
VERTEX
  5
C5
  8
1
  6
________________
 62
     7
 10
509.2045111043965
 20
220.3656894607613
 30
0.0
  0
VERTEX
  5
C6
  8
1
  6
________________
 62
     7
 10
511.4992340160481
 20
220.3604562649949
 30
0.0
  0
SEQEND
  5
C7
  8
1
  6
________________
 62
     7
  0
POLYLINE
  5
71
  8
1
  6
________________
 62
     7
 66
     1
 10
0.0
 20
0.0
 30
0.0
  0
VERTEX
  5
C8
  8
1
  6
________________
 62
     7
 10
511.8340993172852
 20
220.3604562649949
 30
0.0
  0
VERTEX
  5
C9
  8
1
  6
________________
 62
     7
 10
514.1288222289369
 20
220.3656894607613
 30
0.0
  0
VERTEX
  5
CA
  8
1
  6
________________
 62
     7
 10
516.335404541521
 20
220.3798807935193
 30
0.0
  0
VERTEX
  5
CB
  8
1
  6
________________
 62
     7
 10
518.3748547039334
 20
220.4025222398972
 30
0.0
  0
VERTEX
  5
CC
  8
1
  6
________________
 62
     7
 10
520.1741641858285
 20
220.4328032781397
 30
0.0
  0
SEQEND
  5
CD
  8
1
  6
________________
 62
     7
  0
POLYLINE
  5
72
  8
1
  6
________________
 62
     7
 66
     1
 10
0.0
 20
0.0
 30
0.0
  0
VERTEX
  5
CE
  8
1
  6
________________
 62
     7
 10
520.410949711117
 20
220.4377621400326
 30
0.0
  0
VERTEX
  5
CF
  8
1
  6
________________
 62
     7
 10
521.8568684927678
 20
220.4754440347025
 30
0.0
  0
VERTEX
  5
D0
  8
1
  6
________________
 62
     7
 10
522.9379969633044
 20
220.518155056335
 30
0.0
  0
VERTEX
  5
D1
  8
1
  6
________________
 62
     7
 10
523.6156327301879
 20
220.5643662296323
 30
0.0
  0
VERTEX
  5
D2
  8
1
  6
________________
 62
     7
 10
523.8655176907389
 20
220.6124232803641
 30
0.0
  0
SEQEND
  5
D3
  8
1
  6
________________
 62
     7
  0
POLYLINE
  5
73
  8
1
  6
________________
 62
     7
 66
     1
 10
0.0
 20
0.0
 30
0.0
  0
VERTEX
  5
D4
  8
1
  6
________________
 62
     7
 10
523.991859122516
 20
220.6141872105727
 30
0.0
  0
VERTEX
  5
D5
  8
1
  6
________________
 62
     7
 10
524.0070405844908
 20
220.6144476338427
 30
0.0
  0
VERTEX
  5
D6
  8
1
  6
________________
 62
     7
 10
524.0195011795291
 20
220.6147651340964
 30
0.0
  0
VERTEX
  5
D7
  8
1
  6
________________
 62
     7
 10
524.0287610362925
 20
220.6151274840469
 30
0.0
  0
VERTEX
  5
D8
  8
1
  6
________________
 62
     7
 10
524.0344635474239
 20
220.6155207291956
 30
0.0
  0
VERTEX
  5
D9
  8
1
  6
________________
 62
     7
 10
524.0363891028935
 20
220.6159297252355
 30
0.0
  0
SEQEND
  5
DA
  8
1
  6
________________
 62
     7
  0
LINE
  5
74
  8
1
  6
________________
 62
     7
 10
523.865517690739
 20
220.6124232803641
 30
0.0
 11
523.9918591225161
 21
220.6141872105727
 31
0.0
  0
LINE
  5
75
  8
1
  6
________________
 62
     7
 10
520.4407286721685
 20
220.4346439225024
 30
0.0
 11
520.410949711117
 21
220.4377621400326
 31
0.0
  0
POLYLINE
  5
76
  8
1
  6
________________
 62
     7
 66
     1
 10
0.0
 20
0.0
 30
0.0
  0
VERTEX
  5
DB
  8
1
  6
________________
 62
     7
 10
520.3230589910854
 20
220.4321796346337
 30
0.0
  0
VERTEX
  5
DC
  8
1
  6
________________
 62
     7
 10
520.3425776251459
 20
220.4321389667746
 30
0.0
  0
VERTEX
  5
DD
  8
1
  6
________________
 62
     7
 10
520.3620998365724
 20
220.4321788744242
 30
0.0
  0
VERTEX
  5
DE
  8
1
  6
________________
 62
     7
 10
520.3808745121665
 20
220.4322978221438
 30
0.0
  0
VERTEX
  5
DF
  8
1
  6
________________
 62
     7
 10
520.3981793000223
 20
220.4324912334434
 30
0.0
  0
VERTEX
  5
E0
  8
1
  6
________________
 62
     7
 10
520.4133484018721
 20
220.4327516668618
 30
0.0
  0
VERTEX
  5
E1
  8
1
  6
________________
 62
     7
 10
520.4257981895418
 20
220.4330691022751
 30
0.0
  0
VERTEX
  5
E2
  8
1
  6
________________
 62
     7
 10
520.4350496599292
 20
220.433431326419
 30
0.0
  0
VERTEX
  5
E3
  8
1
  6
________________
 62
     7
 10
520.4407468645529
 20
220.4338244027915
 30
0.0
  0
VERTEX
  5
E4
  8
1
  6
________________
 62
     7
 10
520.4426706045994
 20
220.4342332078577
 30
0.0
  0
SEQEND
  5
E5
  8
1
  6
________________
 62
     7
  0
LINE
  5
77
  8
1
  6
________________
 62
     7
 10
520.1741641858282
 20
220.4328032781397
 30
0.0
 11
520.3230589910854
 21
220.4321796346337
 31
0.0
  0
LINE
  5
78
  8
1
  6
________________
 62
     7
 10
511.7498716961004
 20
220.3578103696819
 30
0.0
 11
511.8340993172852
 21
220.3604562649949
 31
0.0
  0
POLYLINE
  5
79
  8
1
  6
________________
 62
     7
 66
     1
 10
0.0
 20
0.0
 30
0.0
  0
VERTEX
  5
E6
  8
1
  6
________________
 62
     7
 10
511.5834616372329
 20
220.3578103696819
 30
0.0
  0
VERTEX
  5
E7
  8
1
  6
________________
 62
     7
 10
511.5958968415426
 20
220.3574924331308
 30
0.0
  0
VERTEX
  5
E8
  8
1
  6
________________
 62
     7
 10
511.6110574703292
 20
220.3572314781175
 30
0.0
  0
VERTEX
  5
E9
  8
1
  6
________________
 62
     7
 10
511.6283596709592
 20
220.3570375543091
 30
0.0
  0
VERTEX
  5
EA
  8
1
  6
________________
 62
     7
 10
511.6471371164914
 20
220.3569181299266
 30
0.0
  0
VERTEX
  5
EB
  8
1
  6
________________
 62
     7
 10
511.6666666666666
 20
220.3568778041355
 30
0.0
  0
VERTEX
  5
EC
  8
1
  6
________________
 62
     7
 10
511.6861962168419
 20
220.3569181299266
 30
0.0
  0
VERTEX
  5
ED
  8
1
  6
________________
 62
     7
 10
511.7049736623741
 20
220.3570375543091
 30
0.0
  0
VERTEX
  5
EE
  8
1
  6
________________
 62
     7
 10
511.7222758630041
 20
220.3572314781175
 30
0.0
  0
VERTEX
  5
EF
  8
1
  6
________________
 62
     7
 10
511.7374364917907
 20
220.3574924331308
 30
0.0
  0
VERTEX
  5
F0
  8
1
  6
________________
 62
     7
 10
511.7498716961004
 20
220.3578103696819
 30
0.0
  0
SEQEND
  5
F1
  8
1
  6
________________
 62
     7
  0
LINE
  5
7A
  8
1
  6
________________
 62
     7
 10
511.4992340160482
 20
220.3604562649949
 30
0.0
 11
511.583461637233
 21
220.3578103696819
 31
0.0
  0
LINE
  5
7B
  8
1
  6
________________
 62
     7
 10
503.0102743422478
 20
220.4321796346337
 30
0.0
 11
503.1591691475052
 21
220.4328032781397
 31
0.0
  0
LINE
  5
7C
  8
1
  6
________________
 62
     7
 10
499.3414742108174
 20
220.6141872105727
 30
0.0
 11
499.4678156425945
 21
220.6124232803641
 31
0.0
  0
POLYLINE
  5
7D
  8
1
  6
________________
 62
     7
 66
     1
 10
0.0
 20
0.0
 30
0.0
  0
VERTEX
  5
F2
  8
1
  6
________________
 62
     7
 10
499.3414742108175
 20
220.6176722398983
 30
0.0
  0
VERTEX
  5
F3
  8
1
  6
________________
 62
     7
 10
499.3262927488427
 20
220.6174118166283
 30
0.0
  0
VERTEX
  5
F4
  8
1
  6
________________
 62
     7
 10
499.3138321538042
 20
220.6170943163746
 30
0.0
  0
VERTEX
  5
F5
  8
1
  6
________________
 62
     7
 10
499.304572297041
 20
220.6167319664241
 30
0.0
  0
VERTEX
  5
F6
  8
1
  6
________________
 62
     7
 10
499.2988697859095
 20
220.6163387212754
 30
0.0
  0
VERTEX
  5
F7
  8
1
  6
________________
 62
     7
 10
499.29694423044
 20
220.6159297252355
 30
0.0
  0
SEQEND
  5
F8
  8
1
  6
________________
 62
     7
  0
LINE
  5
7E
  8
1
  6
________________
 62
     7
 10
499.4678156425945
 20
220.619436170107
 30
0.0
 11
499.3414742108174
 21
220.6176722398983
 31
0.0
  0
LINE
  5
7F
  8
1
  6
________________
 62
     7
 10
523.9918591225161
 20
220.6176722398983
 30
0.0
 11
523.865517690739
 21
220.619436170107
 31
0.0
  0
ARC
  5
80
  8
1
  6
________________
 62
     7
 10
511.6666666666667
 20
248.6097888625312
 30
0.0
 40
12.69999999999999
 50
0.000000000000072
 51
180.0
  0
POLYLINE
  5
81
  8
1
  6
________________
 62
     7
 66
     1
 10
0.0
 20
0.0
 30
0.0
  0
VERTEX
  5
F9
  8
1
  6
________________
 62
     7
 10
499.29694423044
 20
220.6159297252355
 30
0.0
  0
VERTEX
  5
FA
  8
1
  6
________________
 62
     7
 10
499.2988697859095
 20
220.6155207291956
 30
0.0
  0
VERTEX
  5
FB
  8
1
  6
________________
 62
     7
 10
499.304572297041
 20
220.6151274840469
 30
0.0
  0
VERTEX
  5
FC
  8
1
  6
________________
 62
     7
 10
499.3138321538042
 20
220.6147651340964
 30
0.0
  0
VERTEX
  5
FD
  8
1
  6
________________
 62
     7
 10
499.3262927488426
 20
220.6144476338427
 30
0.0
  0
VERTEX
  5
FE
  8
1
  6
________________
 62
     7
 10
499.3414742108175
 20
220.6141872105727
 30
0.0
  0
SEQEND
  5
FF
  8
1
  6
________________
 62
     7
  0
POLYLINE
  5
82
  8
1
  6
________________
 62
     7
 66
     1
 10
0.0
 20
0.0
 30
0.0
  0
VERTEX
  5
100
  8
1
  6
________________
 62
     7
 10
524.0363891028935
 20
220.6159297252355
 30
0.0
  0
VERTEX
  5
101
  8
1
  6
________________
 62
     7
 10
524.0344635474239
 20
220.6163387212754
 30
0.0
  0
VERTEX
  5
102
  8
1
  6
________________
 62
     7
 10
524.0287610362925
 20
220.6167319664241
 30
0.0
  0
VERTEX
  5
103
  8
1
  6
________________
 62
     7
 10
524.0195011795291
 20
220.6170943163746
 30
0.0
  0
VERTEX
  5
104
  8
1
  6
________________
 62
     7
 10
524.0070405844908
 20
220.6174118166283
 30
0.0
  0
VERTEX
  5
105
  8
1
  6
________________
 62
     7
 10
523.991859122516
 20
220.6176722398983
 30
0.0
  0
SEQEND
  5
106
  8
1
  6
________________
 62
     7
  0
POLYLINE
  5
83
  8
1
  6
________________
 62
     7
 66
     1
 10
0.0
 20
0.0
 30
0.0
  0
VERTEX
  5
107
  8
1
  6
________________
 62
     7
 10
502.8906627287341
 20
220.4342332078577
 30
0.0
  0
VERTEX
  5
108
  8
1
  6
________________
 62
     7
 10
502.8925864687804
 20
220.4338244027915
 30
0.0
  0
VERTEX
  5
109
  8
1
  6
________________
 62
     7
 10
502.8982836734042
 20
220.433431326419
 30
0.0
  0
VERTEX
  5
10A
  8
1
  6
________________
 62
     7
 10
502.9075351437916
 20
220.4330691022751
 30
0.0
  0
VERTEX
  5
10B
  8
1
  6
________________
 62
     7
 10
502.9199849314613
 20
220.4327516668618
 30
0.0
  0
VERTEX
  5
10C
  8
1
  6
________________
 62
     7
 10
502.935154033311
 20
220.4324912334434
 30
0.0
  0
VERTEX
  5
10D
  8
1
  6
________________
 62
     7
 10
502.9524588211668
 20
220.4322978221438
 30
0.0
  0
VERTEX
  5
10E
  8
1
  6
________________
 62
     7
 10
502.971233496761
 20
220.4321788744242
 30
0.0
  0
VERTEX
  5
10F
  8
1
  6
________________
 62
     7
 10
502.9907557081875
 20
220.4321389667746
 30
0.0
  0
VERTEX
  5
110
  8
1
  6
________________
 62
     7
 10
503.010274342248
 20
220.4321796346337
 30
0.0
  0
SEQEND
  5
111
  8
1
  6
________________
 62
     7
  0
LINE
  5
84
  8
1
  6
________________
 62
     7
 10
520.4426706045994
 20
220.4342332078577
 30
0.0
 11
520.4407286721685
 21
220.4346439225025
 31
0.0
  0
LINE
  5
85
  8
1
  6
________________
 62
     7
 10
498.9666666666667
 20
248.6097888625312
 30
0.0
 11
498.9666666666667
 21
225.6148331426098
 31
0.0
  0
LINE
  5
86
  8
1
  6
________________
 62
     7
 10
524.3666666666667
 20
225.6148331426098
 30
0.0
 11
524.3666666666667
 21
248.6097888625312
 31
0.0
  0
LINE
  5
87
  8
1
  6
________________
 62
     7
 10
498.9666945290617
 20
225.6142760175358
 30
0.0
 11
499.29694423044
 21
222.3125105396464
 31
0.0
  0
LINE
  5
88
  8
1
  6
________________
 62
     7
 10
524.0363891028935
 20
222.3125105396467
 30
0.0
 11
524.3666388042718
 21
225.6142760175358
 31
0.0
  0
LINE
  5
89
  8
1
  6
________________
 62
     7
 10
499.29694423044
 20
222.313563594385
 30
0.0
 11
499.29694423044
 21
220.6159297252355
 31
0.0
  0
LINE
  5
8A
  8
1
  6
________________
 62
     7
 10
524.0363891028935
 20
220.6159297252355
 30
0.0
 11
524.0363891028935
 21
222.3127796912758
 31
0.0
  0
INSERT
  5
8E
  8
1
  6
________________
 62
     7
  2
_2014
 10
0.0
 20
0.0
 30
0.0
  0
POLYLINE
  5
8F
  8
1
  6
________________
 62
     7
 66
     1
 10
0.0
 20
0.0
 30
0.0
 70
     1
  0
VERTEX
  5
112
  8
1
  6
________________
 62
     7
 10
462.07014742014
 20
189.7
 30
0.0
  0
VERTEX
  5
113
  8
1
  6
________________
 62
     7
 10
459.6905674872277
 20
189.4655804209194
 30
0.0
  0
VERTEX
  5
114
  8
1
  6
________________
 62
     7
 10
457.4024334766535
 20
188.7713302966378
 30
0.0
  0
VERTEX
  5
115
  8
1
  6
________________
 62
     7
 10
455.2936770952433
 20
187.6439292700911
 30
0.0
  0
VERTEX
  5
116
  8
1
  6
________________
 62
     7
 10
453.4453366681306
 20
186.1267027304759
 30
0.0
  0
VERTEX
  5
117
  8
1
  6
________________
 62
     7
 10
451.9284428813679
 20
184.2779568428392
 30
0.0
  0
VERTEX
  5
118
  8
1
  6
________________
 62
     7
 10
450.8012891124968
 20
182.1687378748542
 30
0.0
  0
VERTEX
  5
119
  8
1
  6
________________
 62
     7
 10
450.1071912487399
 20
179.8801019285968
 30
0.0
  0
VERTEX
  5
11A
  8
1
  6
________________
 62
     7
 10
449.8728230817468
 20
177.5000000000001
 30
0.0
  0
VERTEX
  5
11B
  8
1
  6
________________
 62
     7
 10
450.1071912487399
 20
175.1198980714033
 30
0.0
  0
VERTEX
  5
11C
  8
1
  6
________________
 62
     7
 10
450.8012891124968
 20
172.831262125146
 30
0.0
  0
VERTEX
  5
11D
  8
1
  6
________________
 62
     7
 10
451.9284428813678
 20
170.722043157161
 30
0.0
  0
VERTEX
  5
11E
  8
1
  6
________________
 62
     7
 10
453.4453366681304
 20
168.8732972695242
 30
0.0
  0
VERTEX
  5
11F
  8
1
  6
________________
 62
     7
 10
455.2936770952432
 20
167.356070729909
 30
0.0
  0
VERTEX
  5
120
  8
1
  6
________________
 62
     7
 10
457.4024334766534
 20
166.2286697033624
 30
0.0
  0
VERTEX
  5
121
  8
1
  6
________________
 62
     7
 10
459.6905674872277
 20
165.5344195790806
 30
0.0
  0
VERTEX
  5
122
  8
1
  6
________________
 62
     7
 10
462.0701474201399
 20
165.3
 30
0.0
  0
VERTEX
  5
123
  8
1
  6
________________
 62
     7
 10
464.4497273530522
 20
165.5344195790806
 30
0.0
  0
VERTEX
  5
124
  8
1
  6
________________
 62
     7
 10
466.7378613636265
 20
166.2286697033623
 30
0.0
  0
VERTEX
  5
125
  8
1
  6
________________
 62
     7
 10
468.8466177450367
 20
167.356070729909
 30
0.0
  0
VERTEX
  5
126
  8
1
  6
________________
 62
     7
 10
470.6949581721494
 20
168.8732972695241
 30
0.0
  0
VERTEX
  5
127
  8
1
  6
________________
 62
     7
 10
472.211851958912
 20
170.7220431571608
 30
0.0
  0
VERTEX
  5
128
  8
1
  6
________________
 62
     7
 10
473.3390057277831
 20
172.8312621251459
 30
0.0
  0
VERTEX
  5
129
  8
1
  6
________________
 62
     7
 10
474.03310359154
 20
175.1198980714032
 30
0.0
  0
VERTEX
  5
12A
  8
1
  6
________________
 62
     7
 10
474.2674717585331
 20
177.5
 30
0.0
  0
VERTEX
  5
12B
  8
1
  6
________________
 62
     7
 10
474.03310359154
 20
179.8801019285968
 30
0.0
  0
VERTEX
  5
12C
  8
1
  6
________________
 62
     7
 10
473.3390057277831
 20
182.1687378748541
 30
0.0
  0
VERTEX
  5
12D
  8
1
  6
________________
 62
     7
 10
472.2118519589121
 20
184.2779568428391
 30
0.0
  0
VERTEX
  5
12E
  8
1
  6
________________
 62
     7
 10
470.6949581721495
 20
186.1267027304759
 30
0.0
  0
VERTEX
  5
12F
  8
1
  6
________________
 62
     7
 10
468.8466177450367
 20
187.6439292700911
 30
0.0
  0
VERTEX
  5
130
  8
1
  6
________________
 62
     7
 10
466.7378613636265
 20
188.7713302966377
 30
0.0
  0
VERTEX
  5
131
  8
1
  6
________________
 62
     7
 10
464.4497273530523
 20
189.4655804209194
 30
0.0
  0
SEQEND
  5
132
  8
1
  6
________________
 62
     7
  0
POLYLINE
  5
90
  8
1
  6
________________
 62
     7
 66
     1
 10
0.0
 20
0.0
 30
0.0
  0
VERTEX
  5
133
  8
1
  6
________________
 62
     7
 10
450.9224034760136
 20
177.5
 30
0.0
  0
VERTEX
  5
134
  8
1
  6
________________
 62
     7
 10
451.0490733773241
 20
175.8242038417591
 30
0.0
  0
VERTEX
  5
135
  8
1
  6
________________
 62
     7
 10
451.4262033427828
 20
174.1865055632816
 30
0.0
  0
SEQEND
  5
136
  8
1
  6
________________
 62
     7
  0
POLYLINE
  5
91
  8
1
  6
________________
 62
     7
 66
     1
 10
0.0
 20
0.0
 30
0.0
  0
VERTEX
  5
137
  8
1
  6
________________
 62
     7
 10
451.4262033427828
 20
180.8134944367185
 30
0.0
  0
VERTEX
  5
138
  8
1
  6
________________
 62
     7
 10
451.0490733773241
 20
179.175796158241
 30
0.0
  0
VERTEX
  5
139
  8
1
  6
________________
 62
     7
 10
450.9224034760136
 20
177.5
 30
0.0
  0
SEQEND
  5
13A
  8
1
  6
________________
 62
     7
  0
POLYLINE
  5
92
  8
1
  6
________________
 62
     7
 66
     1
 10
0.0
 20
0.0
 30
0.0
  0
VERTEX
  5
13B
  8
1
  6
________________
 62
     7
 10
451.4262033427827
 20
174.1865055632816
 30
0.0
  0
VERTEX
  5
13C
  8
1
  6
________________
 62
     7
 10
452.2742455709726
 20
172.1789476746155
 30
0.0
  0
VERTEX
  5
13D
  8
1
  6
________________
 62
     7
 10
453.4966517917708
 20
170.3748281576364
 30
0.0
  0
VERTEX
  5
13E
  8
1
  6
________________
 62
     7
 10
455.0466860747837
 20
168.8431234317476
 30
0.0
  0
VERTEX
  5
13F
  8
1
  6
________________
 62
     7
 10
456.8650863734628
 20
167.6423947544384
 30
0.0
  0
VERTEX
  5
140
  8
1
  6
________________
 62
     7
 10
458.8823302750939
 20
166.8185492643745
 30
0.0
  0
VERTEX
  5
141
  8
1
  6
________________
 62
     7
 10
461.0212930326256
 20
166.403084826033
 30
0.0
  0
VERTEX
  5
142
  8
1
  6
________________
 62
     7
 10
463.2001962545137
 20
166.4118857802664
 30
0.0
  0
VERTEX
  5
143
  8
1
  6
________________
 62
     7
 10
465.3357345161134
 20
166.8446156425431
 30
0.0
  0
VERTEX
  5
144
  8
1
  6
________________
 62
     7
 10
467.3462603537185
 20
167.6847299676711
 30
0.0
  0
VERTEX
  5
145
  8
1
  6
________________
 62
     7
 10
469.1549058702242
 20
168.9001088891495
 30
0.0
  0
VERTEX
  5
146
  8
1
  6
________________
 62
     7
 10
470.6925216048967
 20
170.4442851494421
 30
0.0
  0
VERTEX
  5
147
  8
1
  6
________________
 62
     7
 10
471.9003203062273
 20
172.2582206702172
 30
0.0
  0
VERTEX
  5
148
  8
1
  6
________________
 62
     7
 10
472.7321245292113
 20
174.2725637394216
 30
0.0
  0
VERTEX
  5
149
  8
1
  6
________________
 62
     7
 10
473.1561321252624
 20
176.4103005167545
 30
0.0
  0
VERTEX
  5
14A
  8
1
  6
________________
 62
     7
 10
473.1561321252624
 20
178.5896994832455
 30
0.0
  0
VERTEX
  5
14B
  8
1
  6
________________
 62
     7
 10
472.7321245292114
 20
180.7274362605784
 30
0.0
  0
VERTEX
  5
14C
  8
1
  6
________________
 62
     7
 10
471.9003203062274
 20
182.7417793297828
 30
0.0
  0
VERTEX
  5
14D
  8
1
  6
________________
 62
     7
 10
470.6925216048966
 20
184.5557148505579
 30
0.0
  0
VERTEX
  5
14E
  8
1
  6
________________
 62
     7
 10
469.1549058702242
 20
186.0998911108505
 30
0.0
  0
VERTEX
  5
14F
  8
1
  6
________________
 62
     7
 10
467.3462603537185
 20
187.3152700323289
 30
0.0
  0
VERTEX
  5
150
  8
1
  6
________________
 62
     7
 10
465.3357345161135
 20
188.1553843574569
 30
0.0
  0
VERTEX
  5
151
  8
1
  6
________________
 62
     7
 10
463.2001962545137
 20
188.5881142197337
 30
0.0
  0
VERTEX
  5
152
  8
1
  6
________________
 62
     7
 10
461.0212930326256
 20
188.596915173967
 30
0.0
  0
VERTEX
  5
153
  8
1
  6
________________
 62
     7
 10
458.8823302750939
 20
188.1814507356256
 30
0.0
  0
VERTEX
  5
154
  8
1
  6
________________
 62
     7
 10
456.8650863734628
 20
187.3576052455617
 30
0.0
  0
VERTEX
  5
155
  8
1
  6
________________
 62
     7
 10
455.0466860747837
 20
186.1568765682524
 30
0.0
  0
VERTEX
  5
156
  8
1
  6
________________
 62
     7
 10
453.4966517917707
 20
184.6251718423637
 30
0.0
  0
VERTEX
  5
157
  8
1
  6
________________
 62
     7
 10
452.2742455709726
 20
182.8210523253846
 30
0.0
  0
VERTEX
  5
158
  8
1
  6
________________
 62
     7
 10
451.4262033427829
 20
180.8134944367185
 30
0.0
  0
SEQEND
  5
159
  8
1
  6
________________
 62
     7
  0
POLYLINE
  5
93
  8
1
  6
________________
 62
     7
 66
     1
 10
0.0
 20
0.0
 30
0.0
  0
VERTEX
  5
15A
  8
1
  6
________________
 62
     7
 10
461.9654353207233
 20
190.2
 30
0.0
  0
VERTEX
  5
15B
  8
1
  6
________________
 62
     7
 10
464.4425390213779
 20
189.9559730611211
 30
0.0
  0
VERTEX
  5
15C
  8
1
  6
________________
 62
     7
 10
466.8244490159921
 20
189.2332700628934
 30
0.0
  0
VERTEX
  5
15D
  8
1
  6
________________
 62
     7
 10
469.0196298392633
 20
188.0596640762423
 30
0.0
  0
VERTEX
  5
15E
  8
1
  6
________________
 62
     7
 10
470.943721923225
 20
186.4802561210691
 30
0.0
  0
VERTEX
  5
15F
  8
1
  6
________________
 62
     7
 10
472.5227834881336
 20
184.5557419593489
 30
0.0
  0
VERTEX
  5
160
  8
1
  6
________________
 62
     7
 10
473.6961320835977
 20
182.3600795910366
 30
0.0
  0
VERTEX
  5
161
  8
1
  6
________________
 62
     7
 10
474.4186765811151
 20
179.9776470896048
 30
0.0
  0
VERTEX
  5
162
  8
1
  6
________________
 62
     7
 10
474.6626500008538
 20
177.4999999999999
 30
0.0
  0
VERTEX
  5
163
  8
1
  6
________________
 62
     7
 10
474.4186765811151
 20
175.0223529103951
 30
0.0
  0
VERTEX
  5
164
  8
1
  6
________________
 62
     7
 10
473.6961320835976
 20
172.6399204089633
 30
0.0
  0
VERTEX
  5
165
  8
1
  6
________________
 62
     7
 10
472.5227834881335
 20
170.444258040651
 30
0.0
  0
VERTEX
  5
166
  8
1
  6
________________
 62
     7
 10
470.9437219232248
 20
168.5197438789308
 30
0.0
  0
VERTEX
  5
167
  8
1
  6
________________
 62
     7
 10
469.0196298392631
 20
166.9403359237577
 30
0.0
  0
VERTEX
  5
168
  8
1
  6
________________
 62
     7
 10
466.8244490159919
 20
165.7667299371066
 30
0.0
  0
VERTEX
  5
169
  8
1
  6
________________
 62
     7
 10
464.4425390213777
 20
165.044026938879
 30
0.0
  0
VERTEX
  5
16A
  8
1
  6
________________
 62
     7
 10
461.9654353207231
 20
164.8
 30
0.0
  0
SEQEND
  5
16B
  8
1
  6
________________
 62
     7
  0
LINE
  5
94
  8
1
  6
________________
 62
     7
 10
433.483759663406
 20
165.3011489759278
 30
0.0
 11
433.483759663406
 21
168.7557169555497
 31
0.0
  0
LINE
  5
95
  8
1
  6
________________
 62
     7
 10
433.483759663406
 20
168.9925024808385
 30
0.0
 11
433.483759663406
 21
177.3325673493815
 31
0.0
  0
LINE
  5
96
  8
1
  6
________________
 62
     7
 10
433.483759663406
 20
177.6674326506185
 30
0.0
 11
433.483759663406
 21
186.0074975191615
 31
0.0
  0
LINE
  5
97
  8
1
  6
________________
 62
     7
 10
433.483759663406
 20
186.2442830444503
 30
0.0
 11
433.483759663406
 21
189.6988510240722
 31
0.0
  0
LINE
  5
98
  8
1
  6
________________
 62
     7
 10
433.483759663406
 20
177.4167949705662
 30
0.0
 11
433.483759663406
 21
177.5832050294338
 31
0.0
  0
LINE
  5
99
  8
1
  6
________________
 62
     7
 10
433.483759663406
 20
177.5832050294338
 30
0.0
 11
433.483759663406
 21
177.6674326506185
 31
0.0
  0
LINE
  5
9A
  8
1
  6
________________
 62
     7
 10
433.483759663406
 20
177.3325673493815
 30
0.0
 11
433.483759663406
 21
177.4167949705662
 31
0.0
  0
LINE
  5
9B
  8
1
  6
________________
 62
     7
 10
433.483759663406
 20
168.7239960620673
 30
0.0
 11
433.483759663406
 21
168.8436076755812
 31
0.0
  0
LINE
  5
9C
  8
1
  6
________________
 62
     7
 10
433.483759663406
 20
186.1563923244189
 30
0.0
 11
433.483759663406
 21
186.2760039379327
 31
0.0
  0
LINE
  5
9D
  8
1
  6
________________
 62
     7
 10
433.483759663406
 20
168.8436076755812
 30
0.0
 11
433.483759663406
 21
168.9925024808385
 31
0.0
  0
LINE
  5
9E
  8
1
  6
________________
 62
     7
 10
433.483759663406
 20
186.0074975191615
 30
0.0
 11
433.483759663406
 21
186.1563923244189
 31
0.0
  0
LINE
  5
9F
  8
1
  6
________________
 62
     7
 10
433.483759663406
 20
189.6988510240722
 30
0.0
 11
433.483759663406
 21
189.8251924558494
 31
0.0
  0
LINE
  5
A0
  8
1
  6
________________
 62
     7
 10
433.483759663406
 20
165.1748075441507
 30
0.0
 11
433.483759663406
 21
165.3011489759278
 31
0.0
  0
LINE
  5
A1
  8
1
  6
________________
 62
     7
 10
433.483759663406
 20
189.8251924558494
 30
0.0
 11
433.483759663406
 21
189.8697224362268
 31
0.0
  0
LINE
  5
A2
  8
1
  6
________________
 62
     7
 10
433.483759663406
 20
165.1302775637732
 30
0.0
 11
433.483759663406
 21
165.1748075441507
 31
0.0
  0
LINE
  5
A3
  8
1
  6
________________
 62
     7
 10
461.4837596634059
 20
164.8
 30
0.0
 11
461.9654353207231
 21
164.8
 31
0.0
  0
LINE
  5
A4
  8
1
  6
________________
 62
     7
 10
461.9654353207233
 20
190.2
 30
0.0
 11
461.4837596634061
 21
190.2
 31
0.0
  0
LINE
  5
A5
  8
1
  6
________________
 62
     7
 10
461.483759663406
 20
190.2
 30
0.0
 11
438.483759663406
 21
190.2
 31
0.0
  0
LINE
  5
A6
  8
1
  6
________________
 62
     7
 10
438.483759663406
 20
164.8
 30
0.0
 11
461.483759663406
 21
164.8
 31
0.0
  0
LINE
  5
A7
  8
1
  6
________________
 62
     7
 10
438.483759663406
 20
190.2
 30
0.0
 11
435.180984025674
 21
189.8697224362268
 31
0.0
  0
LINE
  5
A8
  8
1
  6
________________
 62
     7
 10
435.180984025674
 20
189.8697224362268
 30
0.0
 11
435.1795303624052
 21
189.8695770698999
 31
0.0
  0
LINE
  5
A9
  8
1
  6
________________
 62
     7
 10
435.179530362406
 20
165.1304229301
 30
0.0
 11
435.1809840256738
 21
165.1302775637732
 31
0.0
  0
LINE
  5
AA
  8
1
  6
________________
 62
     7
 10
435.1809840256738
 20
165.1302775637732
 30
0.0
 11
438.483759663406
 21
164.8
 31
0.0
  0
LINE
  5
AB
  8
1
  6
________________
 62
     7
 10
435.180984025674
 20
189.8697224362268
 30
0.0
 11
433.483759663406
 21
189.8697224362268
 31
0.0
  0
LINE
  5
AC
  8
1
  6
________________
 62
     7
 10
433.483759663406
 20
165.1302775637732
 30
0.0
 11
435.1809840256738
 21
165.1302775637732
 31
0.0
  0
INSERT
  5
B0
  8
1
  6
________________
 62
     7
  2
_2159
 10
0.0
 20
0.0
 30
0.0
  0
LINE
  5
B1
  8
1
  6
________________0
 62
     1
 10
461.1221198291643
 20
265.8742942379279
 30
0.0
 11
462.1712040971469
 21
215.7915343511334
 31
0.0
  0
LINE
  5
B3
  8
1
  6
________________0
 62
     1
 10
429.1666666666667
 20
248.6097888625312
 30
0.0
 11
479.1666666666667
 21
248.6097888625312
 31
0.0
  0
LINE
  5
B4
  8
1
  6
________________0
 62
     1
 10
496.9666666666667
 20
248.6097888625312
 30
0.0
 11
526.3666666666667
 21
248.6097888625312
 31
0.0
  0
LINE
  5
B5
  8
1
  6
________________0
 62
     1
 10
511.6666666666667
 20
215.8333333333333
 30
0.0
 11
511.6666666666667
 21
263.3097888625312
 31
0.0
  0
LINE
  5
B6
  8
1
  6
________________0
 62
     1
 10
462.0701474201401
 20
190.85
 30
0.0
 11
462.0701474201398
 21
164.15
 31
0.0
  0
LINE
  5
B7
  8
1
  6
________________0
 62
     1
 10
475.4176581775795
 20
177.4999999999999
 30
0.0
 11
429.1666666666667
 21
177.5000000000002
 31
0.0
  0
TEXT
  5
B8
  8
1
 62
     7
 10
504.1473030303031
 20
187.1863636363636
 30
0.0
 40
3.0
  1
DPES-16
  7
EXPLODED0
  0
ENDSEC
  0
EOF
