  0
SECTION
  2
HEADER
  9
$ACADVER
  1
AC1006
  9
$DWGCODEPAGE
  3
ansi_932
  9
$INSBASE
 10
0.0
 20
0.0
 30
0.0
  9
$EXTMIN
 10
463.3333333333333
 20
177.9833333333333
  9
$EXTMAX
 10
571.7
 20
279.9340011877031
  9
$LIMMIN
 10
0.0
 20
0.0
  9
$LIMMAX
 10
12.0
 20
9.0
  9
$ORTHOMODE
 70
     0
  9
$REGENMODE
 70
     1
  9
$FILLMODE
 70
     1
  9
$QTEXTMODE
 70
     0
  9
$MIRRTEXT
 70
     1
  9
$DRAGMODE
 70
     2
  9
$LTSCALE
 40
1.0
  9
$OSMODE
 70
    37
  9
$ATTMODE
 70
     1
  9
$TEXTSIZE
 40
0.2
  9
$TRACEWID
 40
0.05
  9
$TEXTSTYLE
  7
STANDARD
  9
$CLAYER
  8
0
  9
$CELTYPE
  6
BYLAYER
  9
$CECOLOR
 62
   256
  9
$DIMSCALE
 40
1.0
  9
$DIMASZ
 40
3.0
  9
$DIMEXO
 40
0.0625
  9
$DIMDLI
 40
0.38
  9
$DIMRND
 40
0.0
  9
$DIMDLE
 40
0.0
  9
$DIMEXE
 40
0.18
  9
$DIMTP
 40
0.0
  9
$DIMTM
 40
0.0
  9
$DIMTXT
 40
3.0
  9
$DIMCEN
 40
0.09
  9
$DIMTSZ
 40
0.0
  9
$DIMTOL
 70
     0
  9
$DIMLIM
 70
     0
  9
$DIMTIH
 70
     1
  9
$DIMTOH
 70
     1
  9
$DIMSE1
 70
     0
  9
$DIMSE2
 70
     0
  9
$DIMTAD
 70
     1
  9
$DIMZIN
 70
     0
  9
$DIMBLK
  1

  9
$DIMASO
 70
     1
  9
$DIMSHO
 70
     1
  9
$DIMPOST
  1

  9
$DIMAPOST
  1

  9
$DIMALT
 70
     0
  9
$DIMALTD
 70
     2
  9
$DIMALTF
 40
25.4
  9
$DIMLFAC
 40
1.0
  9
$DIMTOFL
 70
     0
  9
$DIMTVP
 40
0.0
  9
$DIMTIX
 70
     0
  9
$DIMSOXD
 70
     0
  9
$DIMSAH
 70
     0
  9
$DIMBLK1
  1

  9
$DIMBLK2
  1

  9
$LUNITS
 70
     2
  9
$LUPREC
 70
     4
  9
$SKETCHINC
 40
0.1
  9
$FILLETRAD
 40
0.5
  9
$AUNITS
 70
     0
  9
$AUPREC
 70
     0
  9
$MENU
  1
.
  9
$ELEVATION
 40
0.0
  9
$THICKNESS
 40
0.0
  9
$LIMCHECK
 70
     0
  9
$CHAMFERA
 40
0.5
  9
$CHAMFERB
 40
0.5
  9
$SKPOLY
 70
     0
  9
$TDCREATE
 40
2460339.413217905
  9
$TDUPDATE
 40
2460339.413217917
  9
$TDINDWG
 40
0.0000000116
  9
$TDUSRTIMER
 40
0.0000000116
  9
$USRTIMER
 70
     1
  9
$ANGBASE
 50
0.0
  9
$ANGDIR
 70
     0
  9
$PDMODE
 70
     0
  9
$PDSIZE
 40
0.0
  9
$PLINEWID
 40
0.0
  9
$COORDS
 70
     1
  9
$SPLFRAME
 70
     0
  9
$SPLINETYPE
 70
     6
  9
$SPLINESEGS
 70
     8
  9
$ATTDIA
 70
     0
  9
$ATTREQ
 70
     1
  9
$HANDLING
 70
     1
  9
$HANDSEED
  5
19F
  9
$SURFTAB1
 70
     6
  9
$SURFTAB2
 70
     6
  9
$SURFTYPE
 70
     6
  9
$SURFU
 70
     6
  9
$SURFV
 70
     6
  9
$UCSNAME
  2

  9
$UCSORG
 10
0.0
 20
0.0
 30
0.0
  9
$UCSXDIR
 10
1.0
 20
0.0
 30
0.0
  9
$UCSYDIR
 10
0.0
 20
1.0
 30
0.0
  9
$USERI1
 70
     0
  9
$USERI2
 70
     0
  9
$USERI3
 70
     0
  9
$USERI4
 70
     0
  9
$USERI5
 70
     0
  9
$USERR1
 40
0.0
  9
$USERR2
 40
0.0
  9
$USERR3
 40
0.0
  9
$USERR4
 40
0.0
  9
$USERR5
 40
0.0
  9
$WORLDVIEW
 70
     1
  0
ENDSEC
  0
SECTION
  2
TABLES
  0
TABLE
  2
VPORT
 70
     1
  0
VPORT
  2
*ACTIVE
 70
     0
 10
0.0
 20
0.0
 11
1.0
 21
1.0
 12
517.5166666666667
 22
228.9586672605182
 13
0.0
 23
0.0
 14
0.5
 24
0.5
 15
0.5
 25
0.5
 16
0.0
 26
0.0
 36
1.0
 17
0.0
 27
0.0
 37
0.0
 40
101.9506678543698
 41
1.6
 42
50.0
 43
0.0
 44
0.0
 50
0.0
 51
0.0
 71
     0
 72
   100
 73
     1
 74
     3
 75
     0
 76
     0
 77
     0
 78
     0
  0
ENDTAB
  0
TABLE
  2
LTYPE
 70
     3
  0
LTYPE
  2
CONTINUOUS
 70
     0
  3
Solid line
 72
    65
 73
     0
 40
0.0
  0
LTYPE
  2
________________
 70
     0
  3

 72
    65
 73
     0
 40
0.0
  0
LTYPE
  2
________________0
 70
     0
  3

 72
    65
 73
     4
 40
7.2
 49
2.7
 49
-1.8
 49
0.8999999999999999
 49
-1.8
  0
ENDTAB
  0
TABLE
  2
LAYER
 70
     2
  0
LAYER
  2
0
 70
     0
 62
     7
  6
CONTINUOUS
  0
LAYER
  2
1
 70
     0
 62
     7
  6
CONTINUOUS
  0
ENDTAB
  0
TABLE
  2
STYLE
 70
     2
  0
STYLE
  2
STANDARD
 70
     0
 40
0.0
 41
1.0
 50
0.0
 71
     0
 42
0.2
  3
txt
  4

  0
STYLE
  2
EXPLODED0
 70
     0
 40
0.2
 41
1.0
 50
0.0
 71
     0
 42
0.2
  3
ＭＳ ゴシック
  4

  0
ENDTAB
  0
TABLE
  2
VIEW
 70
     0
  0
ENDTAB
  0
TABLE
  2
UCS
 70
     0
  0
ENDTAB
  0
ENDSEC
  0
SECTION
  2
BLOCKS
  0
BLOCK
  8
0
  2
_1483
 70
     0
 10
0.0
 20
0.0
 30
0.0
  0
ENDBLK
  8
0
  0
BLOCK
  8
0
  2
_2023
 70
     0
 10
0.0
 20
0.0
 30
0.0
  0
ENDBLK
  8
0
  0
BLOCK
  8
0
  2
_2160
 70
     0
 10
0.0
 20
0.0
 30
0.0
  0
ENDBLK
  8
0
  0
ENDSEC
  0
SECTION
  2
ENTITIES
  0
INSERT
  5
3D
  8
1
  6
________________
 62
     7
  2
_1483
 10
0.0
 20
0.0
 30
0.0
  0
LINE
  5
3F
  8
1
  6
________________
 62
     7
 10
510.3657208651146
 20
233.101119844481
 30
0.0
 11
506.3261279181613
 21
233.0165024348318
 31
0.0
  0
LINE
  5
40
  8
1
  6
________________
 62
     7
 10
506.0895480827256
 20
233.0115467937281
 30
0.0
 11
496.3371080037244
 21
232.8072622957402
 31
0.0
  0
LINE
  5
41
  8
1
  6
________________
 62
     7
 10
496.0025335918673
 20
232.8002539608812
 30
0.0
 11
486.250093512866
 21
232.5959694628933
 31
0.0
  0
LINE
  5
42
  8
1
  6
________________
 62
     7
 10
486.0135136774304
 20
232.5910138217896
 30
0.0
 11
481.9739207304771
 21
232.5063964121404
 31
0.0
  0
LINE
  5
43
  8
1
  6
________________
 62
     7
 10
465.5415482012951
 20
262.9645025353815
 30
0.0
 11
465.5415482012951
 21
272.7190819548454
 31
0.0
  0
LINE
  5
44
  8
1
  6
________________
 62
     7
 10
465.5415482012951
 20
272.9557136875304
 30
0.0
 11
465.5415482012951
 21
276.9961927783178
 31
0.0
  0
LINE
  5
45
  8
1
  6
________________
 62
     7
 10
465.5415482012951
 20
248.5981644867943
 30
0.0
 11
465.5415482012951
 21
252.6386435775817
 31
0.0
  0
LINE
  5
46
  8
1
  6
________________
 62
     7
 10
465.5415482012951
 20
252.8752753102667
 30
0.0
 11
465.5415482012951
 21
262.6298547297306
 31
0.0
  0
LINE
  5
47
  8
1
  6
________________
 62
     7
 10
496.2530075789917
 20
232.8055006429735
 30
0.0
 11
496.0866340166
 21
232.8020156136479
 31
0.0
  0
LINE
  5
48
  8
1
  6
________________
 62
     7
 10
465.5415482012951
 20
262.7139736031223
 30
0.0
 11
465.5415482012951
 21
262.8803836619899
 31
0.0
  0
LINE
  5
49
  8
1
  6
________________
 62
     7
 10
465.5415482012951
 20
262.6298547297306
 30
0.0
 11
465.5415482012951
 21
262.7139736031223
 31
0.0
  0
LINE
  5
4A
  8
1
  6
________________
 62
     7
 10
496.3371080037244
 20
232.8072622957402
 30
0.0
 11
496.2530075789917
 21
232.8055006429735
 31
0.0
  0
LINE
  5
4B
  8
1
  6
________________
 62
     7
 10
465.5415482012951
 20
262.8803836619899
 30
0.0
 11
465.5415482012951
 21
262.9645025353815
 31
0.0
  0
LINE
  5
4C
  8
1
  6
________________
 62
     7
 10
496.0866340166
 20
232.8020156136479
 30
0.0
 11
496.0025335918673
 21
232.8002539608812
 31
0.0
  0
LINE
  5
4D
  8
1
  6
________________
 62
     7
 10
506.3578034150089
 20
233.0171659419048
 30
0.0
 11
506.2382180342986
 21
233.0146609852717
 31
0.0
  0
LINE
  5
4E
  8
1
  6
________________
 62
     7
 10
486.1014235612931
 20
232.5928552713497
 30
0.0
 11
485.9818381805828
 21
232.5903503147166
 31
0.0
  0
LINE
  5
4F
  8
1
  6
________________
 62
     7
 10
465.5415482012951
 20
272.867784519348
 30
0.0
 11
465.5415482012951
 21
272.9873961328618
 31
0.0
  0
LINE
  5
50
  8
1
  6
________________
 62
     7
 10
465.5415482012951
 20
252.6069611322503
 30
0.0
 11
465.5415482012951
 21
252.7265727457641
 31
0.0
  0
LINE
  5
51
  8
1
  6
________________
 62
     7
 10
465.5415482012951
 20
272.7190819548454
 30
0.0
 11
465.5415482012951
 21
272.867784519348
 31
0.0
  0
LINE
  5
52
  8
1
  6
________________
 62
     7
 10
486.250093512866
 20
232.5959694628932
 30
0.0
 11
486.1014235612931
 21
232.5928552713497
 31
0.0
  0
LINE
  5
53
  8
1
  6
________________
 62
     7
 10
506.2382180342986
 20
233.0146609852717
 30
0.0
 11
506.0895480827256
 21
233.0115467937282
 31
0.0
  0
LINE
  5
54
  8
1
  6
________________
 62
     7
 10
465.5415482012951
 20
252.7265727457641
 30
0.0
 11
465.5415482012951
 21
252.8752753102667
 31
0.0
  0
LINE
  5
55
  8
1
  6
________________
 62
     7
 10
465.5415482012951
 20
276.9961927783178
 30
0.0
 11
465.5415482012951
 21
277.1223710884054
 31
0.0
  0
LINE
  5
56
  8
1
  6
________________
 62
     7
 10
481.9739207304771
 20
232.5063964121404
 30
0.0
 11
481.8477700933781
 21
232.5037539329904
 31
0.0
  0
LINE
  5
57
  8
1
  6
________________
 62
     7
 10
465.5415482012951
 20
248.4719861767067
 30
0.0
 11
465.5415482012951
 21
248.5981644867943
 31
0.0
  0
LINE
  5
58
  8
1
  6
________________
 62
     7
 10
510.4918715022135
 20
233.103762323631
 30
0.0
 11
510.3657208651146
 21
233.101119844481
 31
0.0
  0
LINE
  5
59
  8
1
  6
________________
 62
     7
 10
510.5363917164305
 20
233.1046948891774
 30
0.0
 11
510.4918715022135
 21
233.103762323631
 31
0.0
  0
LINE
  5
5A
  8
1
  6
________________
 62
     7
 10
481.8477700933781
 20
232.5037539329904
 30
0.0
 11
481.8032498791612
 21
232.502821367444
 31
0.0
  0
LINE
  5
5B
  8
1
  6
________________
 62
     7
 10
465.5415482012951
 20
277.1223710884054
 30
0.0
 11
465.5415482012951
 21
277.1669010687828
 31
0.0
  0
LINE
  5
5C
  8
1
  6
________________
 62
     7
 10
465.5415482012951
 20
248.4274561963293
 30
0.0
 11
465.5415482012951
 21
248.4719861767068
 31
0.0
  0
LINE
  5
5D
  8
1
  6
________________
 62
     7
 10
481.1462446456261
 20
248.0971786325561
 30
0.0
 11
481.3683326512988
 21
237.4948079733996
 31
0.0
  0
LINE
  5
5E
  8
1
  6
________________
 62
     7
 10
510.7241883896693
 20
239.910120348225
 30
0.0
 11
510.2383242483753
 21
263.1050322048414
 31
0.0
  0
LINE
  5
5F
  8
1
  6
________________
 62
     7
 10
510.7618847454592
 20
238.1105151179703
 30
0.0
 11
510.7241883896692
 21
239.910120348225
 31
0.0
  0
LINE
  5
60
  8
1
  6
________________
 62
     7
 10
481.3683326512988
 20
237.4948079733996
 30
0.0
 11
481.7677058939303
 21
234.1996735003624
 31
0.0
  0
LINE
  5
61
  8
1
  6
________________
 62
     7
 10
510.5008477311996
 20
234.8015470220959
 30
0.0
 11
510.7618847454592
 21
238.1105151179703
 31
0.0
  0
ARC
  5
62
  8
1
  6
________________
 62
     7
 10
495.5415482012951
 20
262.7971786325561
 30
0.0
 40
14.7
 50
1.199999999999995
 51
90.0
  0
LINE
  5
63
  8
1
  6
________________
 62
     7
 10
495.5415482012951
 20
277.4971786325561
 30
0.0
 11
470.5415482012951
 21
277.4971786325561
 31
0.0
  0
LINE
  5
64
  8
1
  6
________________
 62
     7
 10
470.5415482012951
 20
248.0971786325561
 30
0.0
 11
481.1462446456261
 21
248.0971786325561
 31
0.0
  0
LINE
  5
65
  8
1
  6
________________
 62
     7
 10
470.5415482012951
 20
277.4971786325561
 30
0.0
 11
467.2387725635631
 21
277.1669010687829
 31
0.0
  0
LINE
  5
66
  8
1
  6
________________
 62
     7
 10
467.2387725635631
 20
248.4274561963293
 30
0.0
 11
470.5415482012951
 21
248.0971786325561
 31
0.0
  0
LINE
  5
67
  8
1
  6
________________
 62
     7
 10
510.5363917164305
 20
233.1046948891774
 30
0.0
 11
510.5008477311996
 21
234.8015470220959
 31
0.0
  0
LINE
  5
68
  8
1
  6
________________
 62
     7
 10
481.7677058939303
 20
234.1996735003624
 30
0.0
 11
481.8032498791612
 21
232.5028213674439
 31
0.0
  0
LINE
  5
69
  8
1
  6
________________
 62
     7
 10
467.2387725635631
 20
277.1669010687829
 30
0.0
 11
465.5415482012951
 21
277.1669010687829
 31
0.0
  0
LINE
  5
6A
  8
1
  6
________________
 62
     7
 10
465.5415482012951
 20
248.4274561963293
 30
0.0
 11
467.2387725635631
 21
248.4274561963293
 31
0.0
  0
POLYLINE
  5
6B
  8
1
  6
________________
 62
     7
 66
     1
 10
0.0
 20
0.0
 30
0.0
  0
VERTEX
  5
BC
  8
1
  6
________________
 62
     7
 10
540.8009858542382
 20
232.8002539608812
 30
0.0
  0
VERTEX
  5
BD
  8
1
  6
________________
 62
     7
 10
541.0894126685403
 20
232.7440242667109
 30
0.0
  0
VERTEX
  5
BE
  8
1
  6
________________
 62
     7
 10
541.8809106383399
 20
232.6899548251642
 30
0.0
  0
VERTEX
  5
BF
  8
1
  6
________________
 62
     7
 10
543.1468555374446
 20
232.6400010372451
 30
0.0
  0
VERTEX
  5
C0
  8
1
  6
________________
 62
     7
 10
544.8414649450257
 20
232.5959694628932
 30
0.0
  0
SEQEND
  5
C1
  8
1
  6
________________
 62
     7
  0
POLYLINE
  5
6C
  8
1
  6
________________
 62
     7
 66
     1
 10
0.0
 20
0.0
 30
0.0
  0
VERTEX
  5
C2
  8
1
  6
________________
 62
     7
 10
545.0780966777106
 20
232.5910138217896
 30
0.0
  0
VERTEX
  5
C3
  8
1
  6
________________
 62
     7
 10
547.1806031978297
 20
232.5555246000378
 30
0.0
  0
VERTEX
  5
C4
  8
1
  6
________________
 62
     7
 10
549.5658952604157
 20
232.5290126504115
 30
0.0
  0
VERTEX
  5
C5
  8
1
  6
________________
 62
     7
 10
552.1477096757463
 20
232.5124367675912
 30
0.0
  0
VERTEX
  5
C6
  8
1
  6
________________
 62
     7
 10
554.8326760971745
 20
232.5063964121404
 30
0.0
  0
SEQEND
  5
C7
  8
1
  6
________________
 62
     7
  0
POLYLINE
  5
6D
  8
1
  6
________________
 62
     7
 66
     1
 10
0.0
 20
0.0
 30
0.0
  0
VERTEX
  5
C8
  8
1
  6
________________
 62
     7
 10
555.1673239028255
 20
232.5063964121404
 30
0.0
  0
VERTEX
  5
C9
  8
1
  6
________________
 62
     7
 10
557.8522903242537
 20
232.5124367675912
 30
0.0
  0
VERTEX
  5
CA
  8
1
  6
________________
 62
     7
 10
560.4341047395843
 20
232.5290126504115
 30
0.0
  0
VERTEX
  5
CB
  8
1
  6
________________
 62
     7
 10
562.8193968021703
 20
232.5555246000378
 30
0.0
  0
VERTEX
  5
CC
  8
1
  6
________________
 62
     7
 10
564.9219033222894
 20
232.5910138217896
 30
0.0
  0
SEQEND
  5
CD
  8
1
  6
________________
 62
     7
  0
POLYLINE
  5
6E
  8
1
  6
________________
 62
     7
 66
     1
 10
0.0
 20
0.0
 30
0.0
  0
VERTEX
  5
CE
  8
1
  6
________________
 62
     7
 10
565.1585350549744
 20
232.5959694628932
 30
0.0
  0
VERTEX
  5
CF
  8
1
  6
________________
 62
     7
 10
566.8531444625555
 20
232.6400010372451
 30
0.0
  0
VERTEX
  5
D0
  8
1
  6
________________
 62
     7
 10
568.1190893616603
 20
232.6899548251642
 30
0.0
  0
VERTEX
  5
D1
  8
1
  6
________________
 62
     7
 10
568.9105873314597
 20
232.7440242667109
 30
0.0
  0
VERTEX
  5
D2
  8
1
  6
________________
 62
     7
 10
569.1990141457618
 20
232.8002539608812
 30
0.0
  0
SEQEND
  5
D3
  8
1
  6
________________
 62
     7
  0
POLYLINE
  5
6F
  8
1
  6
________________
 62
     7
 66
     1
 10
0.0
 20
0.0
 30
0.0
  0
VERTEX
  5
D4
  8
1
  6
________________
 62
     7
 10
569.3251924558492
 20
232.8020156136479
 30
0.0
  0
VERTEX
  5
D5
  8
1
  6
________________
 62
     7
 10
569.3403739178241
 20
232.8022760369179
 30
0.0
  0
VERTEX
  5
D6
  8
1
  6
________________
 62
     7
 10
569.3528345128625
 20
232.8025935371716
 30
0.0
  0
VERTEX
  5
D7
  8
1
  6
________________
 62
     7
 10
569.3620943696258
 20
232.8029558871221
 30
0.0
  0
VERTEX
  5
D8
  8
1
  6
________________
 62
     7
 10
569.3677968807573
 20
232.8033491322708
 30
0.0
  0
VERTEX
  5
D9
  8
1
  6
________________
 62
     7
 10
569.3697224362269
 20
232.8037581283107
 30
0.0
  0
SEQEND
  5
DA
  8
1
  6
________________
 62
     7
  0
LINE
  5
70
  8
1
  6
________________
 62
     7
 10
569.1990141457618
 20
232.8002539608812
 30
0.0
 11
569.3251924558493
 21
232.8020156136479
 31
0.0
  0
LINE
  5
71
  8
1
  6
________________
 62
     7
 10
565.1882755678749
 20
232.5928552713497
 30
0.0
 11
565.1585350549743
 21
232.5959694628933
 31
0.0
  0
POLYLINE
  5
72
  8
1
  6
________________
 62
     7
 66
     1
 10
0.0
 20
0.0
 30
0.0
  0
VERTEX
  5
DB
  8
1
  6
________________
 62
     7
 10
565.0706058867919
 20
232.5903909834809
 30
0.0
  0
VERTEX
  5
DC
  8
1
  6
________________
 62
     7
 10
565.0901245208523
 20
232.5903503156218
 30
0.0
  0
VERTEX
  5
DD
  8
1
  6
________________
 62
     7
 10
565.1096467322789
 20
232.5903902232715
 30
0.0
  0
VERTEX
  5
DE
  8
1
  6
________________
 62
     7
 10
565.128421407873
 20
232.5905091709911
 30
0.0
  0
VERTEX
  5
DF
  8
1
  6
________________
 62
     7
 10
565.1457261957288
 20
232.5907025822907
 30
0.0
  0
VERTEX
  5
E0
  8
1
  6
________________
 62
     7
 10
565.1608952975786
 20
232.5909630157091
 30
0.0
  0
VERTEX
  5
E1
  8
1
  6
________________
 62
     7
 10
565.1733450852482
 20
232.5912804511224
 30
0.0
  0
VERTEX
  5
E2
  8
1
  6
________________
 62
     7
 10
565.1825965556357
 20
232.5916426752663
 30
0.0
  0
VERTEX
  5
E3
  8
1
  6
________________
 62
     7
 10
565.1882937602594
 20
232.5920357516388
 30
0.0
  0
VERTEX
  5
E4
  8
1
  6
________________
 62
     7
 10
565.1902175003058
 20
232.5924445567049
 30
0.0
  0
SEQEND
  5
E5
  8
1
  6
________________
 62
     7
  0
LINE
  5
73
  8
1
  6
________________
 62
     7
 10
564.9219033222894
 20
232.5910138217897
 30
0.0
 11
565.070605886792
 21
232.5903909834809
 31
0.0
  0
LINE
  5
74
  8
1
  6
________________
 62
     7
 10
555.0832050294339
 20
232.5037539329904
 30
0.0
 11
555.1673239028255
 21
232.5063964121404
 31
0.0
  0
POLYLINE
  5
75
  8
1
  6
________________
 62
     7
 66
     1
 10
0.0
 20
0.0
 30
0.0
  0
VERTEX
  5
E6
  8
1
  6
________________
 62
     7
 10
554.9167949705662
 20
232.5037539329904
 30
0.0
  0
VERTEX
  5
E7
  8
1
  6
________________
 62
     7
 10
554.9292301748759
 20
232.5034359964393
 30
0.0
  0
VERTEX
  5
E8
  8
1
  6
________________
 62
     7
 10
554.9443908036625
 20
232.503175041426
 30
0.0
  0
VERTEX
  5
E9
  8
1
  6
________________
 62
     7
 10
554.9616930042926
 20
232.5029811176176
 30
0.0
  0
VERTEX
  5
EA
  8
1
  6
________________
 62
     7
 10
554.9804704498247
 20
232.5028616932351
 30
0.0
  0
VERTEX
  5
EB
  8
1
  6
________________
 62
     7
 10
555.0
 20
232.5028213674439
 30
0.0
  0
VERTEX
  5
EC
  8
1
  6
________________
 62
     7
 10
555.0195295501753
 20
232.5028616932351
 30
0.0
  0
VERTEX
  5
ED
  8
1
  6
________________
 62
     7
 10
555.0383069957074
 20
232.5029811176176
 30
0.0
  0
VERTEX
  5
EE
  8
1
  6
________________
 62
     7
 10
555.0556091963374
 20
232.503175041426
 30
0.0
  0
VERTEX
  5
EF
  8
1
  6
________________
 62
     7
 10
555.0707698251241
 20
232.5034359964393
 30
0.0
  0
VERTEX
  5
F0
  8
1
  6
________________
 62
     7
 10
555.0832050294338
 20
232.5037539329904
 30
0.0
  0
SEQEND
  5
F1
  8
1
  6
________________
 62
     7
  0
LINE
  5
76
  8
1
  6
________________
 62
     7
 10
554.8326760971746
 20
232.5063964121404
 30
0.0
 11
554.9167949705662
 21
232.5037539329904
 31
0.0
  0
LINE
  5
77
  8
1
  6
________________
 62
     7
 10
544.9293941132081
 20
232.5903909834809
 30
0.0
 11
545.0780966777106
 21
232.5910138217897
 31
0.0
  0
LINE
  5
78
  8
1
  6
________________
 62
     7
 10
540.6748075441508
 20
232.8020156136479
 30
0.0
 11
540.8009858542383
 21
232.8002539608812
 31
0.0
  0
POLYLINE
  5
79
  8
1
  6
________________
 62
     7
 66
     1
 10
0.0
 20
0.0
 30
0.0
  0
VERTEX
  5
F2
  8
1
  6
________________
 62
     7
 10
540.6748075441508
 20
232.8055006429735
 30
0.0
  0
VERTEX
  5
F3
  8
1
  6
________________
 62
     7
 10
540.6596260821759
 20
232.8052402197035
 30
0.0
  0
VERTEX
  5
F4
  8
1
  6
________________
 62
     7
 10
540.6471654871375
 20
232.8049227194498
 30
0.0
  0
VERTEX
  5
F5
  8
1
  6
________________
 62
     7
 10
540.6379056303742
 20
232.8045603694993
 30
0.0
  0
VERTEX
  5
F6
  8
1
  6
________________
 62
     7
 10
540.6322031192428
 20
232.8041671243506
 30
0.0
  0
VERTEX
  5
F7
  8
1
  6
________________
 62
     7
 10
540.6302775637732
 20
232.8037581283107
 30
0.0
  0
SEQEND
  5
F8
  8
1
  6
________________
 62
     7
  0
LINE
  5
7A
  8
1
  6
________________
 62
     7
 10
540.8009858542382
 20
232.8072622957402
 30
0.0
 11
540.6748075441507
 21
232.8055006429735
 31
0.0
  0
LINE
  5
7B
  8
1
  6
________________
 62
     7
 10
569.3251924558493
 20
232.8055006429735
 30
0.0
 11
569.1990141457618
 21
232.8072622957402
 31
0.0
  0
ARC
  5
7C
  8
1
  6
________________
 62
     7
 10
555.0
 20
262.7971786325561
 30
0.0
 40
14.70000000000005
 50
0.0000000000000593
 51
180.0
  0
POLYLINE
  5
7D
  8
1
  6
________________
 62
     7
 66
     1
 10
0.0
 20
0.0
 30
0.0
  0
VERTEX
  5
F9
  8
1
  6
________________
 62
     7
 10
540.6302775637732
 20
232.8037581283107
 30
0.0
  0
VERTEX
  5
FA
  8
1
  6
________________
 62
     7
 10
540.6322031192428
 20
232.8033491322708
 30
0.0
  0
VERTEX
  5
FB
  8
1
  6
________________
 62
     7
 10
540.6379056303742
 20
232.8029558871221
 30
0.0
  0
VERTEX
  5
FC
  8
1
  6
________________
 62
     7
 10
540.6471654871375
 20
232.8025935371716
 30
0.0
  0
VERTEX
  5
FD
  8
1
  6
________________
 62
     7
 10
540.6596260821759
 20
232.8022760369179
 30
0.0
  0
VERTEX
  5
FE
  8
1
  6
________________
 62
     7
 10
540.6748075441508
 20
232.8020156136479
 30
0.0
  0
SEQEND
  5
FF
  8
1
  6
________________
 62
     7
  0
POLYLINE
  5
7E
  8
1
  6
________________
 62
     7
 66
     1
 10
0.0
 20
0.0
 30
0.0
  0
VERTEX
  5
100
  8
1
  6
________________
 62
     7
 10
569.3697224362269
 20
232.8037581283107
 30
0.0
  0
VERTEX
  5
101
  8
1
  6
________________
 62
     7
 10
569.3677968807573
 20
232.8041671243506
 30
0.0
  0
VERTEX
  5
102
  8
1
  6
________________
 62
     7
 10
569.3620943696259
 20
232.8045603694993
 30
0.0
  0
VERTEX
  5
103
  8
1
  6
________________
 62
     7
 10
569.3528345128625
 20
232.8049227194498
 30
0.0
  0
VERTEX
  5
104
  8
1
  6
________________
 62
     7
 10
569.3403739178242
 20
232.8052402197035
 30
0.0
  0
VERTEX
  5
105
  8
1
  6
________________
 62
     7
 10
569.3251924558493
 20
232.8055006429735
 30
0.0
  0
SEQEND
  5
106
  8
1
  6
________________
 62
     7
  0
POLYLINE
  5
7F
  8
1
  6
________________
 62
     7
 66
     1
 10
0.0
 20
0.0
 30
0.0
  0
VERTEX
  5
107
  8
1
  6
________________
 62
     7
 10
544.8097824996942
 20
232.5924445567049
 30
0.0
  0
VERTEX
  5
108
  8
1
  6
________________
 62
     7
 10
544.8117062397406
 20
232.5920357516388
 30
0.0
  0
VERTEX
  5
109
  8
1
  6
________________
 62
     7
 10
544.8174034443643
 20
232.5916426752663
 30
0.0
  0
VERTEX
  5
10A
  8
1
  6
________________
 62
     7
 10
544.8266549147518
 20
232.5912804511224
 30
0.0
  0
VERTEX
  5
10B
  8
1
  6
________________
 62
     7
 10
544.8391047024214
 20
232.5909630157091
 30
0.0
  0
VERTEX
  5
10C
  8
1
  6
________________
 62
     7
 10
544.8542738042712
 20
232.5907025822907
 30
0.0
  0
VERTEX
  5
10D
  8
1
  6
________________
 62
     7
 10
544.871578592127
 20
232.5905091709911
 30
0.0
  0
VERTEX
  5
10E
  8
1
  6
________________
 62
     7
 10
544.8903532677211
 20
232.5903902232715
 30
0.0
  0
VERTEX
  5
10F
  8
1
  6
________________
 62
     7
 10
544.9098754791476
 20
232.5903503156218
 30
0.0
  0
VERTEX
  5
110
  8
1
  6
________________
 62
     7
 10
544.9293941132081
 20
232.5903909834809
 30
0.0
  0
SEQEND
  5
111
  8
1
  6
________________
 62
     7
  0
LINE
  5
80
  8
1
  6
________________
 62
     7
 10
565.1902175003058
 20
232.5924445567049
 30
0.0
 11
565.1882755678749
 21
232.5928552713497
 31
0.0
  0
LINE
  5
81
  8
1
  6
________________
 62
     7
 10
540.3
 20
262.7971786325561
 30
0.0
 11
540.3
 21
237.8026615456849
 31
0.0
  0
LINE
  5
82
  8
1
  6
________________
 62
     7
 10
569.7
 20
237.802661545685
 30
0.0
 11
569.7
 21
262.7971786325561
 31
0.0
  0
LINE
  5
83
  8
1
  6
________________
 62
     7
 10
540.3000322501737
 20
237.8020166843789
 30
0.0
 11
540.6302775637731
 21
234.5002950745577
 31
0.0
  0
LINE
  5
84
  8
1
  6
________________
 62
     7
 10
569.3697224362269
 20
234.5002950745578
 30
0.0
 11
569.6999677498263
 21
237.8020166843789
 31
0.0
  0
LINE
  5
85
  8
1
  6
________________
 62
     7
 10
540.6302775637732
 20
234.5011408362895
 30
0.0
 11
540.6302775637732
 21
232.8037581283107
 31
0.0
  0
LINE
  5
86
  8
1
  6
________________
 62
     7
 10
569.3697224362269
 20
232.8037581283107
 30
0.0
 11
569.3697224362269
 21
234.5006083314082
 31
0.0
  0
INSERT
  5
8A
  8
1
  6
________________
 62
     7
  2
_2023
 10
0.0
 20
0.0
 30
0.0
  0
POLYLINE
  5
8B
  8
1
  6
________________
 62
     7
 66
     1
 10
0.0
 20
0.0
 30
0.0
  0
VERTEX
  5
112
  8
1
  6
________________
 62
     7
 10
486.250093512866
 20
183.174798278359
 30
0.0
  0
VERTEX
  5
113
  8
1
  6
________________
 62
     7
 10
488.352138918561
 20
181.4801888707779
 30
0.0
  0
VERTEX
  5
114
  8
1
  6
________________
 62
     7
 10
490.7369078471804
 20
180.2142439716731
 30
0.0
  0
VERTEX
  5
115
  8
1
  6
________________
 62
     7
 10
493.3181560279448
 20
179.4227460018736
 30
0.0
  0
VERTEX
  5
116
  8
1
  6
________________
 62
     7
 10
496.0025335918673
 20
179.1343191875716
 30
0.0
  0
SEQEND
  5
117
  8
1
  6
________________
 62
     7
  0
POLYLINE
  5
8C
  8
1
  6
________________
 62
     7
 66
     1
 10
0.0
 20
0.0
 30
0.0
  0
VERTEX
  5
118
  8
1
  6
________________
 62
     7
 10
482.0160236394016
 20
194.4388312915195
 30
0.0
  0
VERTEX
  5
119
  8
1
  6
________________
 62
     7
 10
482.0685420279714
 20
191.6881318566616
 30
0.0
  0
VERTEX
  5
11A
  8
1
  6
________________
 62
     7
 10
482.6503903343881
 20
188.9991895416156
 30
0.0
  0
VERTEX
  5
11B
  8
1
  6
________________
 62
     7
 10
483.739727297213
 20
186.4729411222548
 30
0.0
  0
VERTEX
  5
11C
  8
1
  6
________________
 62
     7
 10
485.2956616856255
 20
184.2042162158154
 30
0.0
  0
VERTEX
  5
11D
  8
1
  6
________________
 62
     7
 10
487.2597872631817
 20
182.2781775928478
 30
0.0
  0
SEQEND
  5
11E
  8
1
  6
________________
 62
     7
  0
POLYLINE
  5
8D
  8
1
  6
________________
 62
     7
 66
     1
 10
0.0
 20
0.0
 30
0.0
  0
VERTEX
  5
11F
  8
1
  6
________________
 62
     7
 10
486.0135136774304
 20
203.2552366556227
 30
0.0
  0
VERTEX
  5
120
  8
1
  6
________________
 62
     7
 10
484.3192759256962
 20
201.1527301355036
 30
0.0
  0
VERTEX
  5
121
  8
1
  6
________________
 62
     7
 10
483.0536086692276
 20
198.7674380729176
 30
0.0
  0
VERTEX
  5
122
  8
1
  6
________________
 62
     7
 10
482.2622842880125
 20
196.185623657587
 30
0.0
  0
VERTEX
  5
123
  8
1
  6
________________
 62
     7
 10
481.9739207304772
 20
193.5006572361588
 30
0.0
  0
SEQEND
  5
124
  8
1
  6
________________
 62
     7
  0
POLYLINE
  5
8E
  8
1
  6
________________
 62
     7
 66
     1
 10
0.0
 20
0.0
 30
0.0
  0
VERTEX
  5
125
  8
1
  6
________________
 62
     7
 10
497.6188175174403
 20
207.4591779896072
 30
0.0
  0
VERTEX
  5
126
  8
1
  6
________________
 62
     7
 10
494.9195763120408
 20
207.4781628787167
 30
0.0
  0
VERTEX
  5
127
  8
1
  6
________________
 62
     7
 10
492.2655325261507
 20
206.9857999457533
 30
0.0
  0
VERTEX
  5
128
  8
1
  6
________________
 62
     7
 10
489.7526321381392
 20
205.9998885365933
 30
0.0
  0
VERTEX
  5
129
  8
1
  6
________________
 62
     7
 10
487.4717186704662
 20
204.5560702014026
 30
0.0
  0
VERTEX
  5
12A
  8
1
  6
________________
 62
     7
 10
485.5052491177735
 20
202.7065402217716
 30
0.0
  0
SEQEND
  5
12B
  8
1
  6
________________
 62
     7
  0
POLYLINE
  5
8F
  8
1
  6
________________
 62
     7
 66
     1
 10
0.0
 20
0.0
 30
0.0
  0
VERTEX
  5
12C
  8
1
  6
________________
 62
     7
 10
506.0895480827256
 20
203.4918683883077
 30
0.0
  0
VERTEX
  5
12D
  8
1
  6
________________
 62
     7
 10
503.9875026770307
 20
205.1864777958888
 30
0.0
  0
VERTEX
  5
12E
  8
1
  6
________________
 62
     7
 10
501.6027337484113
 20
206.4524226949936
 30
0.0
  0
VERTEX
  5
12F
  8
1
  6
________________
 62
     7
 10
499.0214855676469
 20
207.2439206647931
 30
0.0
  0
VERTEX
  5
130
  8
1
  6
________________
 62
     7
 10
496.3371080037244
 20
207.5323474790951
 30
0.0
  0
SEQEND
  5
131
  8
1
  6
________________
 62
     7
  0
POLYLINE
  5
90
  8
1
  6
________________
 62
     7
 66
     1
 10
0.0
 20
0.0
 30
0.0
  0
VERTEX
  5
132
  8
1
  6
________________
 62
     7
 10
493.4800670025957
 20
179.3905197698774
 30
0.0
  0
VERTEX
  5
133
  8
1
  6
________________
 62
     7
 10
496.2421755125833
 20
179.1335177536099
 30
0.0
  0
VERTEX
  5
134
  8
1
  6
________________
 62
     7
 10
499.0015215103035
 20
179.4186665128315
 30
0.0
  0
VERTEX
  5
135
  8
1
  6
________________
 62
     7
 10
501.6527528125462
 20
180.2350790314346
 30
0.0
  0
VERTEX
  5
136
  8
1
  6
________________
 62
     7
 10
504.0946450690061
 20
181.5515845750111
 30
0.0
  0
VERTEX
  5
137
  8
1
  6
________________
 62
     7
 10
506.2339665209277
 20
183.31791879348
 30
0.0
  0
VERTEX
  5
138
  8
1
  6
________________
 62
     7
 10
507.9890376015824
 20
185.4666428204039
 30
0.0
  0
VERTEX
  5
139
  8
1
  6
________________
 62
     7
 10
509.2928494725754
 20
187.9157180975375
 30
0.0
  0
VERTEX
  5
13A
  8
1
  6
________________
 62
     7
 10
510.0956224298689
 20
190.5716386174772
 30
0.0
  0
VERTEX
  5
13B
  8
1
  6
________________
 62
     7
 10
510.3667064992505
 20
193.333000994986
 30
0.0
  0
VERTEX
  5
13C
  8
1
  6
________________
 62
     7
 10
510.0957516562701
 20
196.0943760612154
 30
0.0
  0
VERTEX
  5
13D
  8
1
  6
________________
 62
     7
 10
509.2931029914973
 20
198.7503341628599
 30
0.0
  0
VERTEX
  5
13E
  8
1
  6
________________
 62
     7
 10
507.9894057336403
 20
201.1994704798084
 30
0.0
  0
VERTEX
  5
13F
  8
1
  6
________________
 62
     7
 10
506.2344352107925
 20
203.3482766741492
 30
0.0
  0
VERTEX
  5
140
  8
1
  6
________________
 62
     7
 10
504.0951964220386
 20
205.1147110504744
 30
0.0
  0
SEQEND
  5
141
  8
1
  6
________________
 62
     7
  0
LINE
  5
91
  8
1
  6
________________
 62
     7
 10
501.4478033352659
 20
180.1511226966977
 30
0.0
 11
504.4819277140678
 21
181.8216626035727
 31
0.0
  0
POLYLINE
  5
92
  8
1
  6
________________
 62
     7
 66
     1
 10
0.0
 20
0.0
 30
0.0
  0
VERTEX
  5
142
  8
1
  6
________________
 62
     7
 10
483.0222655808894
 20
193.3333333333333
 30
0.0
  0
VERTEX
  5
143
  8
1
  6
________________
 62
     7
 10
483.3715398029826
 20
190.3228082255359
 30
0.0
  0
VERTEX
  5
144
  8
1
  6
________________
 62
     7
 10
484.4007991166803
 20
187.4722875941557
 30
0.0
  0
SEQEND
  5
145
  8
1
  6
________________
 62
     7
  0
POLYLINE
  5
93
  8
1
  6
________________
 62
     7
 66
     1
 10
0.0
 20
0.0
 30
0.0
  0
VERTEX
  5
146
  8
1
  6
________________
 62
     7
 10
484.4007991166804
 20
199.1943790725111
 30
0.0
  0
VERTEX
  5
147
  8
1
  6
________________
 62
     7
 10
483.3715398029826
 20
196.3438584411308
 30
0.0
  0
VERTEX
  5
148
  8
1
  6
________________
 62
     7
 10
483.0222655808894
 20
193.3333333333333
 30
0.0
  0
SEQEND
  5
149
  8
1
  6
________________
 62
     7
  0
POLYLINE
  5
94
  8
1
  6
________________
 62
     7
 66
     1
 10
0.0
 20
0.0
 30
0.0
  0
VERTEX
  5
14A
  8
1
  6
________________
 62
     7
 10
484.4007991166803
 20
187.4722875941557
 30
0.0
  0
VERTEX
  5
14B
  8
1
  6
________________
 62
     7
 10
485.7872012544022
 20
185.2670579640624
 30
0.0
  0
VERTEX
  5
14C
  8
1
  6
________________
 62
     7
 10
487.5811161979657
 20
183.3785534975775
 30
0.0
  0
VERTEX
  5
14D
  8
1
  6
________________
 62
     7
 10
489.7121052407822
 20
181.8809269924597
 30
0.0
  0
VERTEX
  5
14E
  8
1
  6
________________
 62
     7
 10
492.0964943421902
 20
180.832983284664
 30
0.0
  0
VERTEX
  5
14F
  8
1
  6
________________
 62
     7
 10
494.6406596183429
 20
180.2758702555989
 30
0.0
  0
VERTEX
  5
150
  8
1
  6
________________
 62
     7
 10
497.2447035172169
 20
180.2314631459676
 30
0.0
  0
VERTEX
  5
151
  8
1
  6
________________
 62
     7
 10
499.8063773314277
 20
180.7015056166814
 30
0.0
  0
VERTEX
  5
152
  8
1
  6
________________
 62
     7
 10
502.2250960299947
 20
181.6675412833965
 30
0.0
  0
VERTEX
  5
153
  8
1
  6
________________
 62
     7
 10
504.4058877652614
 20
183.0916384129913
 30
0.0
  0
VERTEX
  5
154
  8
1
  6
________________
 62
     7
 10
506.2631229761814
 20
184.9178793265227
 30
0.0
  0
VERTEX
  5
155
  8
1
  6
________________
 62
     7
 10
507.7238766634077
 20
187.0745560267247
 30
0.0
  0
VERTEX
  5
156
  8
1
  6
________________
 62
     7
 10
508.730791815259
 20
189.4769858379569
 30
0.0
  0
VERTEX
  5
157
  8
1
  6
________________
 62
     7
 10
509.2443315511294
 20
192.0308365015018
 30
0.0
  0
VERTEX
  5
158
  8
1
  6
________________
 62
     7
 10
509.2443315511295
 20
194.6358301651646
 30
0.0
  0
VERTEX
  5
159
  8
1
  6
________________
 62
     7
 10
508.7307918152591
 20
197.1896808287096
 30
0.0
  0
VERTEX
  5
15A
  8
1
  6
________________
 62
     7
 10
507.7238766634078
 20
199.5921106399418
 30
0.0
  0
VERTEX
  5
15B
  8
1
  6
________________
 62
     7
 10
506.2631229761816
 20
201.7487873401438
 30
0.0
  0
VERTEX
  5
15C
  8
1
  6
________________
 62
     7
 10
504.4058877652616
 20
203.5750282536753
 30
0.0
  0
VERTEX
  5
15D
  8
1
  6
________________
 62
     7
 10
502.225096029995
 20
204.9991253832701
 30
0.0
  0
VERTEX
  5
15E
  8
1
  6
________________
 62
     7
 10
499.806377331428
 20
205.9651610499852
 30
0.0
  0
VERTEX
  5
15F
  8
1
  6
________________
 62
     7
 10
497.244703517217
 20
206.4352035206991
 30
0.0
  0
VERTEX
  5
160
  8
1
  6
________________
 62
     7
 10
494.640659618343
 20
206.3907964110678
 30
0.0
  0
VERTEX
  5
161
  8
1
  6
________________
 62
     7
 10
492.0964943421905
 20
205.8336833820028
 30
0.0
  0
VERTEX
  5
162
  8
1
  6
________________
 62
     7
 10
489.7121052407824
 20
204.7857396742072
 30
0.0
  0
VERTEX
  5
163
  8
1
  6
________________
 62
     7
 10
487.581116197966
 20
203.2881131690893
 30
0.0
  0
VERTEX
  5
164
  8
1
  6
________________
 62
     7
 10
485.7872012544024
 20
201.3996087026045
 30
0.0
  0
VERTEX
  5
165
  8
1
  6
________________
 62
     7
 10
484.4007991166804
 20
199.1943790725111
 30
0.0
  0
SEQEND
  5
166
  8
1
  6
________________
 62
     7
  0
POLYLINE
  5
95
  8
1
  6
________________
 62
     7
 66
     1
 10
0.0
 20
0.0
 30
0.0
  0
VERTEX
  5
167
  8
1
  6
________________
 62
     7
 10
496.0651086983792
 20
208.0333333333333
 30
0.0
  0
VERTEX
  5
168
  8
1
  6
________________
 62
     7
 10
498.932307470003
 20
207.7508769552608
 30
0.0
  0
VERTEX
  5
169
  8
1
  6
________________
 62
     7
 10
501.6893214007769
 20
206.9143624612492
 30
0.0
  0
VERTEX
  5
16A
  8
1
  6
________________
 62
     7
 10
504.2301999914924
 20
205.5559366341807
 30
0.0
  0
VERTEX
  5
16B
  8
1
  6
________________
 62
     7
 10
506.4572987028496
 20
203.7278030167755
 30
0.0
  0
VERTEX
  5
16C
  8
1
  6
________________
 62
     7
 10
508.2850313803422
 20
201.5002157587214
 30
0.0
  0
VERTEX
  5
16D
  8
1
  6
________________
 62
     7
 10
509.6431592821787
 20
198.9587797891
 30
0.0
  0
VERTEX
  5
16E
  8
1
  6
________________
 62
     7
 10
510.4794903147381
 20
196.2011610669703
 30
0.0
  0
VERTEX
  5
16F
  8
1
  6
________________
 62
     7
 10
510.7618847454593
 20
193.3333333333332
 30
0.0
  0
VERTEX
  5
170
  8
1
  6
________________
 62
     7
 10
510.479490314738
 20
190.4655055996961
 30
0.0
  0
VERTEX
  5
171
  8
1
  6
________________
 62
     7
 10
509.6431592821785
 20
187.7078868775664
 30
0.0
  0
VERTEX
  5
172
  8
1
  6
________________
 62
     7
 10
508.2850313803421
 20
185.1664509079451
 30
0.0
  0
VERTEX
  5
173
  8
1
  6
________________
 62
     7
 10
506.4572987028494
 20
182.9388636498909
 30
0.0
  0
VERTEX
  5
174
  8
1
  6
________________
 62
     7
 10
504.2301999914922
 20
181.1107300324858
 30
0.0
  0
VERTEX
  5
175
  8
1
  6
________________
 62
     7
 10
501.6893214007766
 20
179.7523042054174
 30
0.0
  0
VERTEX
  5
176
  8
1
  6
________________
 62
     7
 10
498.9323074700026
 20
178.9157897114058
 30
0.0
  0
VERTEX
  5
177
  8
1
  6
________________
 62
     7
 10
496.0651086983789
 20
178.6333333333334
 30
0.0
  0
SEQEND
  5
178
  8
1
  6
________________
 62
     7
  0
LINE
  5
96
  8
1
  6
________________
 62
     7
 10
465.5415482012951
 20
179.1343191875716
 30
0.0
 11
465.5415482012951
 21
183.174798278359
 31
0.0
  0
LINE
  5
97
  8
1
  6
________________
 62
     7
 10
465.5415482012951
 20
183.411430011044
 30
0.0
 11
465.5415482012951
 21
193.1660094305079
 31
0.0
  0
LINE
  5
98
  8
1
  6
________________
 62
     7
 10
465.5415482012951
 20
193.5006572361588
 30
0.0
 11
465.5415482012951
 21
203.2552366556227
 31
0.0
  0
LINE
  5
99
  8
1
  6
________________
 62
     7
 10
465.5415482012951
 20
203.4918683883077
 30
0.0
 11
465.5415482012951
 21
207.5323474790951
 31
0.0
  0
LINE
  5
9A
  8
1
  6
________________
 62
     7
 10
465.5415482012951
 20
193.2501283038996
 30
0.0
 11
465.5415482012951
 21
193.4165383627671
 31
0.0
  0
LINE
  5
9B
  8
1
  6
________________
 62
     7
 10
465.5415482012951
 20
193.4165383627671
 30
0.0
 11
465.5415482012951
 21
193.5006572361588
 31
0.0
  0
LINE
  5
9C
  8
1
  6
________________
 62
     7
 10
465.5415482012951
 20
193.1660094305079
 30
0.0
 11
465.5415482012951
 21
193.2501283038996
 31
0.0
  0
LINE
  5
9D
  8
1
  6
________________
 62
     7
 10
465.5415482012951
 20
203.4039392201253
 30
0.0
 11
465.5415482012951
 21
203.5235508336391
 31
0.0
  0
LINE
  5
9E
  8
1
  6
________________
 62
     7
 10
465.5415482012951
 20
183.1431158330276
 30
0.0
 11
465.5415482012951
 21
183.2627274465414
 31
0.0
  0
LINE
  5
9F
  8
1
  6
________________
 62
     7
 10
465.5415482012951
 20
203.2552366556227
 30
0.0
 11
465.5415482012951
 21
203.4039392201253
 31
0.0
  0
LINE
  5
A0
  8
1
  6
________________
 62
     7
 10
465.5415482012951
 20
183.2627274465414
 30
0.0
 11
465.5415482012951
 21
183.411430011044
 31
0.0
  0
LINE
  5
A1
  8
1
  6
________________
 62
     7
 10
465.5415482012951
 20
207.5323474790951
 30
0.0
 11
465.5415482012951
 21
207.6585257891827
 31
0.0
  0
LINE
  5
A2
  8
1
  6
________________
 62
     7
 10
465.5415482012951
 20
179.008140877484
 30
0.0
 11
465.5415482012951
 21
179.1343191875715
 31
0.0
  0
LINE
  5
A3
  8
1
  6
________________
 62
     7
 10
465.5415482012951
 20
207.6585257891827
 30
0.0
 11
465.5415482012951
 21
207.7030557695602
 31
0.0
  0
LINE
  5
A4
  8
1
  6
________________
 62
     7
 10
465.5415482012951
 20
178.9636108971065
 30
0.0
 11
465.5415482012951
 21
179.008140877484
 31
0.0
  0
LINE
  5
A5
  8
1
  6
________________
 62
     7
 10
495.541548201295
 20
178.6333333333334
 30
0.0
 11
496.0651086983789
 21
178.6333333333334
 31
0.0
  0
LINE
  5
A6
  8
1
  6
________________
 62
     7
 10
496.0651086983792
 20
208.0333333333333
 30
0.0
 11
495.5415482012953
 21
208.0333333333333
 31
0.0
  0
LINE
  5
A7
  8
1
  6
________________
 62
     7
 10
495.5415482012951
 20
208.0333333333333
 30
0.0
 11
470.5415482012951
 21
208.0333333333333
 31
0.0
  0
LINE
  5
A8
  8
1
  6
________________
 62
     7
 10
470.5415482012951
 20
178.6333333333334
 30
0.0
 11
495.5415482012951
 21
178.6333333333334
 31
0.0
  0
LINE
  5
A9
  8
1
  6
________________
 62
     7
 10
470.5415482012951
 20
208.0333333333333
 30
0.0
 11
467.2387725635632
 21
207.7030557695602
 31
0.0
  0
LINE
  5
AA
  8
1
  6
________________
 62
     7
 10
467.2387725635631
 20
178.9636108971065
 30
0.0
 11
470.5415482012951
 21
178.6333333333334
 31
0.0
  0
LINE
  5
AB
  8
1
  6
________________
 62
     7
 10
467.2387725635632
 20
207.7030557695602
 30
0.0
 11
465.5415482012951
 21
207.7030557695602
 31
0.0
  0
LINE
  5
AC
  8
1
  6
________________
 62
     7
 10
465.5415482012951
 20
178.9636108971065
 30
0.0
 11
467.2387725635631
 21
178.9636108971065
 31
0.0
  0
INSERT
  5
B0
  8
1
  6
________________
 62
     7
  2
_2160
 10
0.0
 20
0.0
 30
0.0
  0
LINE
  5
B1
  8
1
  6
________________0
 62
     1
 10
495.1825829408651
 20
279.9340011877031
 30
0.0
 11
496.229474284095
 21
229.9559304352317
 31
0.0
  0
LINE
  5
B3
  8
1
  6
________________0
 62
     1
 10
463.3333333333333
 20
262.7971786325561
 30
0.0
 11
513.3333333333333
 21
262.7971786325561
 31
0.0
  0
LINE
  5
B4
  8
1
  6
________________0
 62
     1
 10
538.3
 20
262.7971786325561
 30
0.0
 11
571.7
 21
262.7971786325561
 31
0.0
  0
LINE
  5
B5
  8
1
  6
________________0
 62
     1
 10
555.0
 20
230.0
 30
0.0
 11
555.0
 21
279.4971786325561
 31
0.0
  0
LINE
  5
B6
  8
1
  6
________________0
 62
     1
 10
496.169820797796
 20
208.6833333333334
 30
0.0
 11
496.1698207977958
 21
177.9833333333333
 31
0.0
  0
LINE
  5
B7
  8
1
  6
________________0
 62
     1
 10
511.516892922185
 20
193.3333333333332
 30
0.0
 11
463.3333333333333
 21
193.3333333333336
 31
0.0
  0
TEXT
  5
B8
  8
1
 62
     7
 10
549.9806363636364
 20
199.6863636363636
 30
0.0
 40
3.0
  1
DPES-20
  7
EXPLODED0
  0
ENDSEC
  0
EOF
