  0
SECTION
  2
HEADER
  9
$ACADVER
  1
AC1006
  9
$DWGCODEPAGE
  3
ansi_932
  9
$INSBASE
 10
0.0
 20
0.0
 30
0.0
  9
$EXTMIN
 10
2.499999999999592
 20
364.3590909090909
  9
$EXTMAX
 10
196.7891119178509
 20
576.2891119178514
  9
$LIMMIN
 10
0.0
 20
0.0
  9
$LIMMAX
 10
12.0
 20
9.0
  9
$ORTHOMODE
 70
     0
  9
$REGENMODE
 70
     1
  9
$FILLMODE
 70
     1
  9
$QTEXTMODE
 70
     0
  9
$MIRRTEXT
 70
     1
  9
$DRAGMODE
 70
     2
  9
$LTSCALE
 40
1.0
  9
$OSMODE
 70
    37
  9
$ATTMODE
 70
     1
  9
$TEXTSIZE
 40
0.2
  9
$TRACEWID
 40
0.05
  9
$TEXTSTYLE
  7
STANDARD
  9
$CLAYER
  8
0
  9
$CELTYPE
  6
BYLAYER
  9
$CECOLOR
 62
   256
  9
$DIMSCALE
 40
1.0
  9
$DIMASZ
 40
3.0
  9
$DIMEXO
 40
0.0625
  9
$DIMDLI
 40
0.38
  9
$DIMRND
 40
0.0
  9
$DIMDLE
 40
0.0
  9
$DIMEXE
 40
1.5
  9
$DIMTP
 40
0.0
  9
$DIMTM
 40
0.0
  9
$DIMTXT
 40
3.0
  9
$DIMCEN
 40
0.09
  9
$DIMTSZ
 40
0.0
  9
$DIMTOL
 70
     0
  9
$DIMLIM
 70
     0
  9
$DIMTIH
 70
     1
  9
$DIMTOH
 70
     1
  9
$DIMSE1
 70
     0
  9
$DIMSE2
 70
     0
  9
$DIMTAD
 70
     1
  9
$DIMZIN
 70
     0
  9
$DIMBLK
  1

  9
$DIMASO
 70
     1
  9
$DIMSHO
 70
     1
  9
$DIMPOST
  1

  9
$DIMAPOST
  1

  9
$DIMALT
 70
     0
  9
$DIMALTD
 70
     2
  9
$DIMALTF
 40
25.4
  9
$DIMLFAC
 40
1.0
  9
$DIMTOFL
 70
     0
  9
$DIMTVP
 40
0.0
  9
$DIMTIX
 70
     0
  9
$DIMSOXD
 70
     0
  9
$DIMSAH
 70
     0
  9
$DIMBLK1
  1

  9
$DIMBLK2
  1

  9
$LUNITS
 70
     2
  9
$LUPREC
 70
     4
  9
$SKETCHINC
 40
0.1
  9
$FILLETRAD
 40
0.5
  9
$AUNITS
 70
     0
  9
$AUPREC
 70
     0
  9
$MENU
  1
.
  9
$ELEVATION
 40
0.0
  9
$THICKNESS
 40
0.0
  9
$LIMCHECK
 70
     0
  9
$CHAMFERA
 40
0.0
  9
$CHAMFERB
 40
0.0
  9
$SKPOLY
 70
     0
  9
$TDCREATE
 40
2460733.58679669
  9
$TDUPDATE
 40
2460733.586796991
  9
$TDINDWG
 40
0.0000000116
  9
$TDUSRTIMER
 40
0.0000000116
  9
$USRTIMER
 70
     1
  9
$ANGBASE
 50
0.0
  9
$ANGDIR
 70
     0
  9
$PDMODE
 70
     0
  9
$PDSIZE
 40
0.0
  9
$PLINEWID
 40
0.0
  9
$COORDS
 70
     1
  9
$SPLFRAME
 70
     0
  9
$SPLINETYPE
 70
     6
  9
$SPLINESEGS
 70
     8
  9
$ATTDIA
 70
     0
  9
$ATTREQ
 70
     1
  9
$HANDLING
 70
     1
  9
$HANDSEED
  5
3E1
  9
$SURFTAB1
 70
     6
  9
$SURFTAB2
 70
     6
  9
$SURFTYPE
 70
     6
  9
$SURFU
 70
     6
  9
$SURFV
 70
     6
  9
$UCSNAME
  2

  9
$UCSORG
 10
0.0
 20
0.0
 30
0.0
  9
$UCSXDIR
 10
1.0
 20
0.0
 30
0.0
  9
$UCSYDIR
 10
0.0
 20
1.0
 30
0.0
  9
$USERI1
 70
     0
  9
$USERI2
 70
     0
  9
$USERI3
 70
     0
  9
$USERI4
 70
     0
  9
$USERI5
 70
     0
  9
$USERR1
 40
0.0
  9
$USERR2
 40
0.0
  9
$USERR3
 40
0.0
  9
$USERR4
 40
0.0
  9
$USERR5
 40
0.0
  9
$WORLDVIEW
 70
     1
  0
ENDSEC
  0
SECTION
  2
TABLES
  0
TABLE
  2
VPORT
 70
     1
  0
VPORT
  2
*ACTIVE
 70
     0
 10
0.0
 20
0.0
 11
1.0
 21
1.0
 12
99.64455595892527
 22
470.3241014134712
 13
0.0
 23
0.0
 14
0.5
 24
0.5
 15
0.5
 25
0.5
 16
0.0
 26
0.0
 36
1.0
 17
0.0
 27
0.0
 37
0.0
 40
211.9300210087605
 41
1.6
 42
50.0
 43
0.0
 44
0.0
 50
0.0
 51
0.0
 71
     0
 72
   100
 73
     1
 74
     3
 75
     0
 76
     0
 77
     0
 78
     0
  0
ENDTAB
  0
TABLE
  2
LTYPE
 70
     2
  0
LTYPE
  2
CONTINUOUS
 70
     0
  3
Solid line
 72
    65
 73
     0
 40
0.0
  0
LTYPE
  2
________________
 70
     0
  3

 72
    65
 73
     4
 40
6.0
 49
2.25
 49
-1.5
 49
0.7499999999999999
 49
-1.5
  0
ENDTAB
  0
TABLE
  2
LAYER
 70
     1
  0
LAYER
  2
0
 70
     0
 62
     7
  6
CONTINUOUS
  0
ENDTAB
  0
TABLE
  2
STYLE
 70
     2
  0
STYLE
  2
STANDARD
 70
     0
 40
0.0
 41
1.0
 50
0.0
 71
     0
 42
0.2
  3
txt
  4

  0
STYLE
  2
ＭＳ_ゴシック
 70
     0
 40
0.0
 41
1.0
 50
0.0
 71
     0
 42
0.2
  3
ＭＳ ゴシック.shx
  4

  0
ENDTAB
  0
TABLE
  2
VIEW
 70
     0
  0
ENDTAB
  0
TABLE
  2
UCS
 70
     0
  0
ENDTAB
  0
ENDSEC
  0
SECTION
  2
BLOCKS
  0
ENDSEC
  0
SECTION
  2
ENTITIES
  0
TEXT
  5
6F
  8
0
  6
CONTINUOUS
 62
     7
 10
88.50244141553041
 20
364.3442728523196
 30
0.0
 40
3.0
  1
DPG-4050(G)
  0
LINE
  5
70
  8
0
  6
CONTINUOUS
 62
     7
 10
80.77058609289529
 20
418.9653493824296
 30
0.0
 11
77.49999999999959
 21
418.9653493824296
 31
0.0
  0
LINE
  5
71
  8
0
  6
CONTINUOUS
 62
     7
 10
10.72975897002117
 20
416.8303252613358
 30
0.0
 11
10.76761662332851
 21
416.7936343389538
 31
0.0
  0
LINE
  5
72
  8
0
  6
CONTINUOUS
 62
     7
 10
79.77143650191749
 20
419.0063656610462
 30
0.0
 11
79.27104924330563
 21
419.0106910172809
 31
0.0
  0
LINE
  5
73
  8
0
  6
CONTINUOUS
 62
     7
 10
79.23487675781769
 20
419.0456746437654
 30
0.0
 11
78.73445382613436
 21
419.0500000000001
 31
0.0
  0
LINE
  5
74
  8
0
  6
CONTINUOUS
 62
     7
 10
17.31051177665114
 20
416.8154515084307
 30
0.0
 11
33.56026352016329
 21
416.8154515084307
 31
0.0
  0
LINE
  5
75
  8
0
  6
CONTINUOUS
 62
     7
 10
80.77058609289529
 20
418.9653493824296
 30
0.0
 11
80.27024102997802
 21
418.9696747386644
 31
0.0
  0
LINE
  5
76
  8
0
  6
CONTINUOUS
 62
     7
 10
33.05868480706565
 20
416.8111261521962
 30
0.0
 11
33.56026352016331
 21
416.8154515084307
 31
0.0
  0
LINE
  5
77
  8
0
  6
CONTINUOUS
 62
     7
 10
58.00267054746988
 20
418.9889119254647
 30
0.0
 11
57.50109389053451
 21
418.9845484915693
 31
0.0
  0
LINE
  5
78
  8
0
  6
CONTINUOUS
 62
     7
 10
58.49923074647072
 20
419.0500000000001
 30
0.0
 11
78.73445382613436
 21
419.0500000000001
 31
0.0
  0
LINE
  5
79
  8
0
  6
CONTINUOUS
 62
     7
 10
33.05868480706565
 20
416.8111261521962
 30
0.0
 11
33.00674654552062
 21
416.7543253562346
 31
0.0
  0
LINE
  5
7A
  8
0
  6
CONTINUOUS
 62
     7
 10
58.49923074647072
 20
419.0500000000001
 30
0.0
 11
57.997600444021
 21
419.0456365661046
 31
0.0
  0
LINE
  5
7B
  8
0
  6
CONTINUOUS
 62
     7
 10
13.4999999999996
 20
416.8346506175703
 30
0.0
 11
17.31051177665114
 21
416.8154515084307
 31
0.0
  0
LINE
  5
7C
  8
0
  6
CONTINUOUS
 62
     7
 10
32.5051306212013
 20
416.7500000000001
 30
0.0
 11
33.00674654552062
 21
416.7543253562346
 31
0.0
  0
LINE
  5
7D
  8
0
  6
CONTINUOUS
 62
     7
 10
32.5051306212013
 20
416.7500000000001
 30
0.0
 11
12.26554617386486
 21
416.7500000000001
 31
0.0
  0
LINE
  5
7E
  8
0
  6
CONTINUOUS
 62
     7
 10
11.76512324218151
 20
416.7543253562346
 30
0.0
 11
12.26554617386485
 21
416.7500000000001
 31
0.0
  0
LINE
  5
7F
  8
0
  6
CONTINUOUS
 62
     7
 10
11.72895075669358
 20
416.7893089827193
 30
0.0
 11
11.76512324218151
 21
416.7543253562346
 31
0.0
  0
LINE
  5
80
  8
0
  6
CONTINUOUS
 62
     7
 10
11.2285634980817
 20
416.7936343389538
 30
0.0
 11
11.72895075669357
 21
416.7893089827193
 31
0.0
  0
LINE
  5
81
  8
0
  6
CONTINUOUS
 62
     7
 10
10.22941390710391
 20
416.8346506175703
 30
0.0
 11
13.4999999999996
 21
416.8346506175703
 31
0.0
  0
LINE
  5
82
  8
0
  6
CONTINUOUS
 62
     7
 10
79.23487675781769
 20
419.0456746437654
 30
0.0
 11
79.27104924330563
 21
419.0106910172809
 31
0.0
  0
LINE
  5
83
  8
0
  6
CONTINUOUS
 62
     7
 10
79.77143650191749
 20
419.0063656610462
 30
0.0
 11
80.23238337667067
 21
419.0063656610462
 31
0.0
  0
LINE
  5
84
  8
0
  6
CONTINUOUS
 62
     7
 10
80.23238337667067
 20
419.0063656610462
 30
0.0
 11
80.27024102997802
 21
418.9696747386644
 31
0.0
  0
LINE
  5
85
  8
0
  6
CONTINUOUS
 62
     7
 10
10.22941390710391
 20
416.8346506175703
 30
0.0
 11
10.72975897002116
 21
416.8303252613358
 31
0.0
  0
LINE
  5
86
  8
0
  6
CONTINUOUS
 62
     7
 10
77.49999999999959
 20
418.9653493824296
 30
0.0
 11
73.68948822334805
 21
418.9845484915693
 31
0.0
  0
LINE
  5
87
  8
0
  6
CONTINUOUS
 62
     7
 10
73.68948822334805
 20
418.9845484915693
 30
0.0
 11
57.50109389053451
 21
418.9845484915693
 31
0.0
  0
LINE
  5
88
  8
0
  6
CONTINUOUS
 62
     7
 10
57.99325345447858
 20
416.7543253562346
 30
0.0
 11
58.4948693787979
 21
416.7500000000001
 31
0.0
  0
LINE
  5
89
  8
0
  6
CONTINUOUS
 62
     7
 10
79.77143650191749
 20
416.7936343389538
 30
0.0
 11
80.23238337667067
 21
416.7936343389538
 31
0.0
  0
LINE
  5
8A
  8
0
  6
CONTINUOUS
 62
     7
 10
33.49890610946467
 20
418.9845484915693
 30
0.0
 11
32.99732945252931
 21
418.9889119254647
 31
0.0
  0
LINE
  5
8B
  8
0
  6
CONTINUOUS
 62
     7
 10
58.4948693787979
 20
416.7500000000001
 30
0.0
 11
78.73445382613436
 21
416.7500000000001
 31
0.0
  0
LINE
  5
8C
  8
0
  6
CONTINUOUS
 62
     7
 10
13.4999999999996
 20
418.9653493824296
 30
0.0
 11
17.31051177665114
 21
418.9845484915693
 31
0.0
  0
LINE
  5
8D
  8
0
  6
CONTINUOUS
 62
     7
 10
80.23238337667067
 20
416.7936343389538
 30
0.0
 11
80.27024102997802
 21
416.8303252613358
 31
0.0
  0
LINE
  5
8E
  8
0
  6
CONTINUOUS
 62
     7
 10
10.72975897002117
 20
418.9696747386644
 30
0.0
 11
10.2294139071039
 21
418.9653493824296
 31
0.0
  0
LINE
  5
8F
  8
0
  6
CONTINUOUS
 62
     7
 10
10.72975897002117
 20
418.9696747386644
 30
0.0
 11
10.76761662332851
 21
419.0063656610462
 31
0.0
  0
LINE
  5
90
  8
0
  6
CONTINUOUS
 62
     7
 10
79.23487675781767
 20
416.7543253562346
 30
0.0
 11
79.27104924330563
 21
416.7893089827193
 31
0.0
  0
LINE
  5
91
  8
0
  6
CONTINUOUS
 62
     7
 10
17.31051177665114
 20
418.9845484915693
 30
0.0
 11
33.49890610946467
 21
418.9845484915693
 31
0.0
  0
LINE
  5
92
  8
0
  6
CONTINUOUS
 62
     7
 10
10.76761662332852
 20
419.0063656610462
 30
0.0
 11
11.2285634980817
 21
419.0063656610462
 31
0.0
  0
LINE
  5
93
  8
0
  6
CONTINUOUS
 62
     7
 10
11.72895075669358
 20
419.0106910172809
 30
0.0
 11
11.76512324218151
 21
419.0456746437654
 31
0.0
  0
LINE
  5
94
  8
0
  6
CONTINUOUS
 62
     7
 10
32.50076925352848
 20
419.0500000000001
 30
0.0
 11
12.26554617386485
 21
419.0500000000001
 31
0.0
  0
LINE
  5
95
  8
0
  6
CONTINUOUS
 62
     7
 10
80.27024102997802
 20
416.8303252613358
 30
0.0
 11
80.77058609289529
 21
416.8346506175703
 31
0.0
  0
LINE
  5
96
  8
0
  6
CONTINUOUS
 62
     7
 10
77.49999999999959
 20
418.9653493824296
 30
0.0
 11
77.49999999999959
 21
416.8346506175703
 31
0.0
  0
ARC
  5
97
  8
0
  6
CONTINUOUS
 62
     7
 10
45.49999999999959
 20
417.9
 30
0.0
 40
40.0
 50
0.0
 51
180.0
  0
LINE
  5
98
  8
0
  6
CONTINUOUS
 62
     7
 10
22.91724217239086
 20
446.5478381967637
 30
0.0
 11
22.63242163326292
 21
449.8033518558968
 31
0.0
  0
LINE
  5
99
  8
0
  6
CONTINUOUS
 62
     7
 10
10.76761662332851
 20
416.7936343389538
 30
0.0
 11
11.2285634980817
 21
416.7936343389538
 31
0.0
  0
LINE
  5
9A
  8
0
  6
CONTINUOUS
 62
     7
 10
11.72895075669358
 20
419.0106910172809
 30
0.0
 11
11.2285634980817
 21
419.0063656610462
 31
0.0
  0
LINE
  5
9B
  8
0
  6
CONTINUOUS
 62
     7
 10
73.68948822334805
 20
418.9845484915693
 30
0.0
 11
73.68948822334805
 21
416.8154515084307
 31
0.0
  0
LINE
  5
9C
  8
0
  6
CONTINUOUS
 62
     7
 10
80.77058609289529
 20
416.8346506175703
 30
0.0
 11
77.49999999999959
 21
416.8346506175703
 31
0.0
  0
LINE
  5
9D
  8
0
  6
CONTINUOUS
 62
     7
 10
78.73445382613436
 20
416.7500000000001
 30
0.0
 11
79.23487675781766
 21
416.7543253562346
 31
0.0
  0
LINE
  5
9E
  8
0
  6
CONTINUOUS
 62
     7
 10
12.26554617386485
 20
419.0500000000001
 30
0.0
 11
11.76512324218151
 21
419.0456746437654
 31
0.0
  0
ARC
  5
9F
  8
0
  6
CONTINUOUS
 62
     7
 10
45.49999999999959
 20
417.9
 30
0.0
 40
39.99999999999999
 50
180.0
 51
0.0
  0
LINE
  5
A0
  8
0
  6
CONTINUOUS
 62
     7
 10
13.4999999999996
 20
418.9653493824296
 30
0.0
 11
13.4999999999996
 21
416.8346506175703
 31
0.0
  0
ARC
  5
A1
  8
0
  6
CONTINUOUS
 62
     7
 10
23.13051898230879
 20
449.8469297272707
 30
0.0
 40
0.4999999999999935
 50
124.9999999999999
 51
185.0000000000001
  0
ARC
  5
A2
  8
0
  6
CONTINUOUS
 62
     7
 10
23.41533952143674
 20
446.5914160681376
 30
0.0
 40
0.4999999999999831
 50
184.9999999999997
 51
304.9999999999995
  0
LINE
  5
A3
  8
0
  6
CONTINUOUS
 62
     7
 10
26.37907500122478
 20
448.056258697964
 30
0.0
 11
23.70212773961226
 21
446.1818400459932
 31
0.0
  0
LINE
  5
A4
  8
0
  6
CONTINUOUS
 62
     7
 10
33.00239955597819
 20
419.0456365661046
 30
0.0
 11
32.50076925352849
 21
419.0500000000001
 31
0.0
  0
LINE
  5
A5
  8
0
  6
CONTINUOUS
 62
     7
 10
57.4397364798359
 20
416.8154515084307
 30
0.0
 11
57.94131519293354
 21
416.8111261521962
 31
0.0
  0
LINE
  5
A6
  8
0
  6
CONTINUOUS
 62
     7
 10
77.49999999999959
 20
416.8346506175703
 30
0.0
 11
73.68948822334805
 21
416.8154515084307
 31
0.0
  0
LINE
  5
A7
  8
0
  6
CONTINUOUS
 62
     7
 10
79.27104924330563
 20
416.7893089827193
 30
0.0
 11
79.77143650191749
 21
416.7936343389538
 31
0.0
  0
LINE
  5
A8
  8
0
  6
CONTINUOUS
 62
     7
 10
57.99325345447858
 20
416.7543253562346
 30
0.0
 11
57.94131519293355
 21
416.8111261521962
 31
0.0
  0
LINE
  5
A9
  8
0
  6
CONTINUOUS
 62
     7
 10
10.22941390710391
 20
418.9653493824296
 30
0.0
 11
13.4999999999996
 21
418.9653493824296
 31
0.0
  0
LINE
  5
AA
  8
0
  6
CONTINUOUS
 62
     7
 10
73.68948822334805
 20
416.8154515084307
 30
0.0
 11
57.4397364798359
 21
416.8154515084307
 31
0.0
  0
POINT
  5
AB
  8
0
 62
     2
 10
45.4999999999996
 20
540.5249999999999
 30
0.0
  0
POINT
  5
AC
  8
0
 62
     2
 10
45.4999999999996
 20
540.5391119178513
 30
0.0
  0
LINE
  5
AD
  8
0
  6
CONTINUOUS
 62
     7
 10
47.45202126634329
 20
383.2059371173922
 30
0.0
 11
47.43552573219016
 21
383.2063496206973
 31
0.0
  0
LINE
  5
AE
  8
0
  6
CONTINUOUS
 62
     7
 10
47.43552573219016
 20
383.2063496206973
 30
0.0
 11
47.41907022037416
 21
383.2072989359344
 31
0.0
  0
LINE
  5
AF
  8
0
  6
CONTINUOUS
 62
     7
 10
47.41907022037416
 20
383.2072989359344
 30
0.0
 11
47.40254878505356
 21
383.2087959680815
 31
0.0
  0
LINE
  5
B0
  8
0
  6
CONTINUOUS
 62
     7
 10
47.40254878505356
 20
383.2087959680815
 30
0.0
 11
47.38613789680237
 21
383.2108261261731
 31
0.0
  0
LINE
  5
B1
  8
0
  6
CONTINUOUS
 62
     7
 10
47.38613789680237
 20
383.2108261261731
 30
0.0
 11
47.36944582879983
 21
383.2134537332159
 31
0.0
  0
LINE
  5
B2
  8
0
  6
CONTINUOUS
 62
     7
 10
47.36944582879983
 20
383.2134537332159
 30
0.0
 11
47.3529381130863
 21
383.2166180383796
 31
0.0
  0
LINE
  5
B3
  8
0
  6
CONTINUOUS
 62
     7
 10
47.3529381130863
 20
383.2166180383796
 30
0.0
 11
47.33651090685125
 21
383.2203367123706
 31
0.0
  0
LINE
  5
B4
  8
0
  6
CONTINUOUS
 62
     7
 10
47.33651090685125
 20
383.2203367123706
 30
0.0
 11
47.3203310601826
 21
383.2245666841515
 31
0.0
  0
LINE
  5
B5
  8
0
  6
CONTINUOUS
 62
     7
 10
47.3203310601826
 20
383.2245666841515
 30
0.0
 11
47.30504895115202
 21
383.2290937112086
 31
0.0
  0
LINE
  5
B6
  8
0
  6
CONTINUOUS
 62
     7
 10
47.30504895115202
 20
383.2290937112086
 30
0.0
 11
47.29002686458774
 21
383.2340601282003
 31
0.0
  0
LINE
  5
B7
  8
0
  6
CONTINUOUS
 62
     7
 10
47.29002686458774
 20
383.2340601282003
 30
0.0
 11
47.27529281035863
 21
383.2394427740135
 31
0.0
  0
LINE
  5
B8
  8
0
  6
CONTINUOUS
 62
     7
 10
47.27529281035863
 20
383.2394427740135
 30
0.0
 11
47.2608747983336
 21
383.2452184875347
 31
0.0
  0
LINE
  5
B9
  8
0
  6
CONTINUOUS
 62
     7
 10
47.2608747983336
 20
383.2452184875347
 30
0.0
 11
47.24169387335765
 21
383.2537178450364
 31
0.0
  0
LINE
  5
BA
  8
0
  6
CONTINUOUS
 62
     7
 10
47.24169387335765
 20
383.2537178450364
 30
0.0
 11
47.22311728086
 21
383.2628794352507
 31
0.0
  0
LINE
  5
BB
  8
0
  6
CONTINUOUS
 62
     7
 10
47.22311728086
 20
383.2628794352507
 30
0.0
 11
47.20518559477336
 21
383.2726451502699
 31
0.0
  0
LINE
  5
BC
  8
0
  6
CONTINUOUS
 62
     7
 10
47.20518559477336
 20
383.2726451502699
 30
0.0
 11
47.18738286464598
 21
383.2833010303182
 31
0.0
  0
LINE
  5
BD
  8
0
  6
CONTINUOUS
 62
     7
 10
47.18738286464598
 20
383.2833010303182
 30
0.0
 11
47.17027611183834
 21
383.2945089477573
 31
0.0
  0
LINE
  5
BE
  8
0
  6
CONTINUOUS
 62
     7
 10
47.17027611183834
 20
383.2945089477573
 30
0.0
 11
47.15374550988982
 21
383.3063171986169
 31
0.0
  0
LINE
  5
BF
  8
0
  6
CONTINUOUS
 62
     7
 10
47.15374550988982
 20
383.3063171986169
 30
0.0
 11
47.1379256876846
 21
383.3185985445579
 31
0.0
  0
LINE
  5
C0
  8
0
  6
CONTINUOUS
 62
     7
 10
47.1379256876846
 20
383.3185985445579
 30
0.0
 11
47.12250247466005
 21
383.3315866708101
 31
0.0
  0
LINE
  5
C1
  8
0
  6
CONTINUOUS
 62
     7
 10
47.12250247466005
 20
383.3315866708101
 30
0.0
 11
47.10781181194221
 21
383.3449882314374
 31
0.0
  0
LINE
  5
C2
  8
0
  6
CONTINUOUS
 62
     7
 10
47.10781181194221
 20
383.3449882314374
 30
0.0
 11
47.09376683360094
 21
383.3588493127873
 31
0.0
  0
LINE
  5
C3
  8
0
  6
CONTINUOUS
 62
     7
 10
47.09376683360094
 20
383.3588493127873
 30
0.0
 11
47.08044671523113
 21
383.3730591290915
 31
0.0
  0
LINE
  5
C4
  8
0
  6
CONTINUOUS
 62
     7
 10
47.08044671523113
 20
383.3730591290915
 30
0.0
 11
47.06377619157313
 21
383.3925215086176
 31
0.0
  0
LINE
  5
C5
  8
0
  6
CONTINUOUS
 62
     7
 10
47.06377619157313
 20
383.3925215086176
 30
0.0
 11
47.04835583151884
 21
383.4124851156971
 31
0.0
  0
LINE
  5
C6
  8
0
  6
CONTINUOUS
 62
     7
 10
47.04835583151884
 20
383.4124851156971
 30
0.0
 11
47.03405775079725
 21
383.4330474813299
 31
0.0
  0
LINE
  5
C7
  8
0
  6
CONTINUOUS
 62
     7
 10
47.03405775079725
 20
383.4330474813299
 30
0.0
 11
47.02097889049868
 21
383.454004496074
 31
0.0
  0
LINE
  5
C8
  8
0
  6
CONTINUOUS
 62
     7
 10
47.02097889049868
 20
383.454004496074
 30
0.0
 11
47.00885868068559
 21
383.475757892858
 31
0.0
  0
LINE
  5
C9
  8
0
  6
CONTINUOUS
 62
     7
 10
47.00885868068559
 20
383.475757892858
 30
0.0
 11
46.99796073091304
 21
383.4978251653424
 31
0.0
  0
LINE
  5
CA
  8
0
  6
CONTINUOUS
 62
     7
 10
46.99796073091304
 20
383.4978251653424
 30
0.0
 11
46.98820891031662
 21
383.5202978584961
 31
0.0
  0
LINE
  5
CB
  8
0
  6
CONTINUOUS
 62
     7
 10
46.98820891031662
 20
383.5202978584961
 30
0.0
 11
46.97965178555346
 21
383.5430058959279
 31
0.0
  0
LINE
  5
CC
  8
0
  6
CONTINUOUS
 62
     7
 10
46.97965178555346
 20
383.5430058959279
 30
0.0
 11
46.97156447391476
 21
383.5683279719053
 31
0.0
  0
LINE
  5
CD
  8
0
  6
CONTINUOUS
 62
     7
 10
46.97156447391476
 20
383.5683279719053
 30
0.0
 11
46.96489148769333
 21
383.5938579877107
 31
0.0
  0
LINE
  5
CE
  8
0
  6
CONTINUOUS
 62
     7
 10
46.96489148769333
 20
383.5938579877107
 30
0.0
 11
46.95962101475893
 21
383.6195345770764
 31
0.0
  0
LINE
  5
CF
  8
0
  6
CONTINUOUS
 62
     7
 10
46.95962101475893
 20
383.6195345770764
 30
0.0
 11
46.95569422022324
 21
383.6456764573861
 31
0.0
  0
LINE
  5
D0
  8
0
  6
CONTINUOUS
 62
     7
 10
46.95569422022324
 20
383.6456764573861
 30
0.0
 11
46.9531813064912
 21
383.6719079898363
 31
0.0
  0
LINE
  5
D1
  8
0
  6
CONTINUOUS
 62
     7
 10
46.9531813064912
 20
383.6719079898363
 30
0.0
 11
46.95207812084161
 21
383.6981721626472
 31
0.0
  0
LINE
  5
D2
  8
0
  6
CONTINUOUS
 62
     7
 10
46.95207812084161
 20
383.6981721626472
 30
0.0
 11
46.95204030481121
 21
383.7013198663074
 31
0.0
  0
LINE
  5
D3
  8
0
  6
CONTINUOUS
 62
     7
 10
35.89776002233926
 20
528.1137208197164
 30
0.0
 11
33.70281932226987
 21
530.0958370596538
 31
0.0
  0
LINE
  5
D4
  8
0
  6
CONTINUOUS
 62
     7
 10
33.70281932226988
 20
530.0958370596537
 30
0.0
 11
31.91232935951515
 21
532.4471028652329
 31
0.0
  0
LINE
  5
D5
  8
0
  6
CONTINUOUS
 62
     7
 10
31.91232935951515
 20
532.4471028652329
 30
0.0
 11
30.58767471445685
 21
535.0869081979486
 31
0.0
  0
LINE
  5
D6
  8
0
  6
CONTINUOUS
 62
     7
 10
30.58767471445685
 20
535.0869081979486
 30
0.0
 11
29.77426941969453
 21
537.9247508232118
 31
0.0
  0
LINE
  5
D7
  8
0
  6
CONTINUOUS
 62
     7
 10
29.77426941969453
 20
537.9247508232118
 30
0.0
 11
29.4999999999996
 21
540.8633390597703
 31
0.0
  0
LINE
  5
D8
  8
0
  6
CONTINUOUS
 62
     7
 10
55.10223997765988
 20
553.6129572998244
 30
0.0
 11
57.29718067772928
 21
551.630841059887
 31
0.0
  0
LINE
  5
D9
  8
0
  6
CONTINUOUS
 62
     7
 10
57.29718067772928
 20
551.630841059887
 30
0.0
 11
59.08767064048404
 21
549.2795752543078
 31
0.0
  0
LINE
  5
DA
  8
0
  6
CONTINUOUS
 62
     7
 10
59.08767064048404
 20
549.2795752543078
 30
0.0
 11
60.41232528554234
 21
546.6397699215921
 31
0.0
  0
LINE
  5
DB
  8
0
  6
CONTINUOUS
 62
     7
 10
60.41232528554234
 20
546.6397699215921
 30
0.0
 11
61.22573058030467
 21
543.801927296329
 31
0.0
  0
LINE
  5
DC
  8
0
  6
CONTINUOUS
 62
     7
 10
61.22573058030467
 20
543.8019272963289
 30
0.0
 11
61.4999999999996
 21
540.8633390597703
 31
0.0
  0
LINE
  5
DD
  8
0
  6
CONTINUOUS
 62
     7
 10
43.5479787336559
 20
452.5940628826078
 30
0.0
 11
43.56447426780903
 21
452.5936503793029
 31
0.0
  0
LINE
  5
DE
  8
0
  6
CONTINUOUS
 62
     7
 10
43.56447426780903
 20
452.5936503793029
 30
0.0
 11
43.58092977962504
 21
452.5927010640657
 31
0.0
  0
LINE
  5
DF
  8
0
  6
CONTINUOUS
 62
     7
 10
43.58092977962504
 20
452.5927010640657
 30
0.0
 11
43.59745121494564
 21
452.5912040319187
 31
0.0
  0
LINE
  5
E0
  8
0
  6
CONTINUOUS
 62
     7
 10
43.59745121494564
 20
452.5912040319187
 30
0.0
 11
43.61386210319683
 21
452.589173873827
 31
0.0
  0
LINE
  5
E1
  8
0
  6
CONTINUOUS
 62
     7
 10
43.61386210319683
 20
452.589173873827
 30
0.0
 11
43.63055417119935
 21
452.5865462667841
 31
0.0
  0
LINE
  5
E2
  8
0
  6
CONTINUOUS
 62
     7
 10
43.63055417119935
 20
452.5865462667841
 30
0.0
 11
43.64706188691291
 21
452.5833819616204
 31
0.0
  0
LINE
  5
E3
  8
0
  6
CONTINUOUS
 62
     7
 10
43.64706188691291
 20
452.5833819616204
 30
0.0
 11
43.66348909314794
 21
452.5796632876294
 31
0.0
  0
LINE
  5
E4
  8
0
  6
CONTINUOUS
 62
     7
 10
43.66348909314794
 20
452.5796632876294
 30
0.0
 11
43.67966893981661
 21
452.5754333158486
 31
0.0
  0
LINE
  5
E5
  8
0
  6
CONTINUOUS
 62
     7
 10
43.67966893981661
 20
452.5754333158486
 30
0.0
 11
43.69495104884717
 21
452.5709062887915
 31
0.0
  0
LINE
  5
E6
  8
0
  6
CONTINUOUS
 62
     7
 10
43.69495104884717
 20
452.5709062887915
 30
0.0
 11
43.70997313541146
 21
452.5659398717996
 31
0.0
  0
LINE
  5
E7
  8
0
  6
CONTINUOUS
 62
     7
 10
43.70997313541146
 20
452.5659398717996
 30
0.0
 11
43.72470718964058
 21
452.5605572259865
 31
0.0
  0
LINE
  5
E8
  8
0
  6
CONTINUOUS
 62
     7
 10
43.72470718964058
 20
452.5605572259865
 30
0.0
 11
43.73912520166559
 21
452.5547815124654
 31
0.0
  0
LINE
  5
E9
  8
0
  6
CONTINUOUS
 62
     7
 10
43.73912520166559
 20
452.5547815124654
 30
0.0
 11
43.75830612664155
 21
452.5462821549636
 31
0.0
  0
LINE
  5
EA
  8
0
  6
CONTINUOUS
 62
     7
 10
43.75830612664155
 20
452.5462821549636
 30
0.0
 11
43.77688271913922
 21
452.5371205647494
 31
0.0
  0
LINE
  5
EB
  8
0
  6
CONTINUOUS
 62
     7
 10
43.77688271913922
 20
452.5371205647494
 30
0.0
 11
43.79481440522584
 21
452.5273548497302
 31
0.0
  0
LINE
  5
EC
  8
0
  6
CONTINUOUS
 62
     7
 10
43.79481440522584
 20
452.5273548497302
 30
0.0
 11
43.8126171353532
 21
452.5166989696819
 31
0.0
  0
LINE
  5
ED
  8
0
  6
CONTINUOUS
 62
     7
 10
43.8126171353532
 20
452.5166989696819
 30
0.0
 11
43.82972388816086
 21
452.5054910522429
 31
0.0
  0
LINE
  5
EE
  8
0
  6
CONTINUOUS
 62
     7
 10
43.82972388816086
 20
452.5054910522429
 30
0.0
 11
43.84625449010937
 21
452.4936828013832
 31
0.0
  0
LINE
  5
EF
  8
0
  6
CONTINUOUS
 62
     7
 10
43.84625449010937
 20
452.4936828013832
 30
0.0
 11
43.86207431231459
 21
452.4814014554422
 31
0.0
  0
LINE
  5
F0
  8
0
  6
CONTINUOUS
 62
     7
 10
43.86207431231459
 20
452.4814014554422
 30
0.0
 11
43.87749752533916
 21
452.4684133291901
 31
0.0
  0
LINE
  5
F1
  8
0
  6
CONTINUOUS
 62
     7
 10
43.87749752533916
 20
452.4684133291901
 30
0.0
 11
43.89218818805701
 21
452.4550117685628
 31
0.0
  0
LINE
  5
F2
  8
0
  6
CONTINUOUS
 62
     7
 10
43.89218818805701
 20
452.4550117685628
 30
0.0
 11
43.90623316639827
 21
452.4411506872128
 31
0.0
  0
LINE
  5
F3
  8
0
  6
CONTINUOUS
 62
     7
 10
43.90623316639827
 20
452.4411506872128
 30
0.0
 11
43.91955328476806
 21
452.4269408709085
 31
0.0
  0
LINE
  5
F4
  8
0
  6
CONTINUOUS
 62
     7
 10
43.91955328476806
 20
452.4269408709085
 30
0.0
 11
43.93622380842606
 21
452.4074784913823
 31
0.0
  0
LINE
  5
F5
  8
0
  6
CONTINUOUS
 62
     7
 10
43.93622380842606
 20
452.4074784913823
 30
0.0
 11
43.95164416848036
 21
452.387514884303
 31
0.0
  0
LINE
  5
F6
  8
0
  6
CONTINUOUS
 62
     7
 10
43.95164416848036
 20
452.387514884303
 30
0.0
 11
43.96594224920195
 21
452.3669525186701
 31
0.0
  0
LINE
  5
F7
  8
0
  6
CONTINUOUS
 62
     7
 10
43.96594224920195
 20
452.3669525186701
 30
0.0
 11
43.97902110950051
 21
452.3459955039261
 31
0.0
  0
LINE
  5
F8
  8
0
  6
CONTINUOUS
 62
     7
 10
43.97902110950051
 20
452.3459955039261
 30
0.0
 11
43.99114131931361
 21
452.324242107142
 31
0.0
  0
LINE
  5
F9
  8
0
  6
CONTINUOUS
 62
     7
 10
43.99114131931361
 20
452.324242107142
 30
0.0
 11
44.00203926908618
 21
452.3021748346575
 31
0.0
  0
LINE
  5
FA
  8
0
  6
CONTINUOUS
 62
     7
 10
44.00203926908618
 20
452.3021748346575
 30
0.0
 11
44.01179108968258
 21
452.2797021415038
 31
0.0
  0
LINE
  5
FB
  8
0
  6
CONTINUOUS
 62
     7
 10
44.01179108968258
 20
452.2797021415038
 30
0.0
 11
44.02034821444574
 21
452.256994104072
 31
0.0
  0
LINE
  5
FC
  8
0
  6
CONTINUOUS
 62
     7
 10
44.02034821444574
 20
452.256994104072
 30
0.0
 11
44.02843552608444
 21
452.2316720280947
 31
0.0
  0
LINE
  5
FD
  8
0
  6
CONTINUOUS
 62
     7
 10
44.02843552608444
 20
452.2316720280947
 30
0.0
 11
44.03510851230588
 21
452.2061420122894
 31
0.0
  0
LINE
  5
FE
  8
0
  6
CONTINUOUS
 62
     7
 10
44.03510851230588
 20
452.2061420122894
 30
0.0
 11
44.04037898524027
 21
452.1804654229236
 31
0.0
  0
LINE
  5
FF
  8
0
  6
CONTINUOUS
 62
     7
 10
44.04037898524027
 20
452.1804654229236
 30
0.0
 11
44.04430577977597
 21
452.154323542614
 31
0.0
  0
LINE
  5
100
  8
0
  6
CONTINUOUS
 62
     7
 10
44.04430577977597
 20
452.154323542614
 30
0.0
 11
44.04681869350799
 21
452.1280920101638
 31
0.0
  0
LINE
  5
101
  8
0
  6
CONTINUOUS
 62
     7
 10
44.04681869350799
 20
452.1280920101638
 30
0.0
 11
44.04792187915758
 21
452.101827837353
 31
0.0
  0
LINE
  5
102
  8
0
  6
CONTINUOUS
 62
     7
 10
44.04792187915758
 20
452.101827837353
 30
0.0
 11
44.04795969518798
 21
452.0986801336928
 31
0.0
  0
LINE
  5
103
  8
0
  6
CONTINUOUS
 62
     7
 10
47.45202126634329
 20
452.5940628826078
 30
0.0
 11
47.43552573219016
 21
452.5936503793029
 31
0.0
  0
LINE
  5
104
  8
0
  6
CONTINUOUS
 62
     7
 10
47.43552573219016
 20
452.5936503793029
 30
0.0
 11
47.41907022037415
 21
452.5927010640657
 31
0.0
  0
LINE
  5
105
  8
0
  6
CONTINUOUS
 62
     7
 10
47.41907022037415
 20
452.5927010640657
 30
0.0
 11
47.40254878505356
 21
452.5912040319187
 31
0.0
  0
LINE
  5
106
  8
0
  6
CONTINUOUS
 62
     7
 10
47.40254878505356
 20
452.5912040319187
 30
0.0
 11
47.38613789680235
 21
452.589173873827
 31
0.0
  0
LINE
  5
107
  8
0
  6
CONTINUOUS
 62
     7
 10
47.38613789680235
 20
452.589173873827
 30
0.0
 11
47.36944582879983
 21
452.5865462667841
 31
0.0
  0
LINE
  5
108
  8
0
  6
CONTINUOUS
 62
     7
 10
47.36944582879983
 20
452.5865462667841
 30
0.0
 11
47.35293811308628
 21
452.5833819616204
 31
0.0
  0
LINE
  5
109
  8
0
  6
CONTINUOUS
 62
     7
 10
47.35293811308628
 20
452.5833819616204
 30
0.0
 11
47.33651090685125
 21
452.5796632876294
 31
0.0
  0
LINE
  5
10A
  8
0
  6
CONTINUOUS
 62
     7
 10
47.33651090685125
 20
452.5796632876294
 30
0.0
 11
47.3203310601826
 21
452.5754333158486
 31
0.0
  0
LINE
  5
10B
  8
0
  6
CONTINUOUS
 62
     7
 10
47.3203310601826
 20
452.5754333158486
 30
0.0
 11
47.30504895115202
 21
452.5709062887915
 31
0.0
  0
LINE
  5
10C
  8
0
  6
CONTINUOUS
 62
     7
 10
47.30504895115202
 20
452.5709062887915
 30
0.0
 11
47.29002686458772
 21
452.5659398717996
 31
0.0
  0
LINE
  5
10D
  8
0
  6
CONTINUOUS
 62
     7
 10
47.29002686458772
 20
452.5659398717996
 30
0.0
 11
47.27529281035863
 21
452.5605572259865
 31
0.0
  0
LINE
  5
10E
  8
0
  6
CONTINUOUS
 62
     7
 10
47.27529281035863
 20
452.5605572259865
 30
0.0
 11
47.2608747983336
 21
452.5547815124654
 31
0.0
  0
LINE
  5
10F
  8
0
  6
CONTINUOUS
 62
     7
 10
47.2608747983336
 20
452.5547815124654
 30
0.0
 11
47.24169387335763
 21
452.5462821549636
 31
0.0
  0
LINE
  5
110
  8
0
  6
CONTINUOUS
 62
     7
 10
47.24169387335763
 20
452.5462821549636
 30
0.0
 11
47.22311728085997
 21
452.5371205647494
 31
0.0
  0
LINE
  5
111
  8
0
  6
CONTINUOUS
 62
     7
 10
47.22311728085997
 20
452.5371205647494
 30
0.0
 11
47.20518559477335
 21
452.5273548497302
 31
0.0
  0
LINE
  5
112
  8
0
  6
CONTINUOUS
 62
     7
 10
47.20518559477335
 20
452.5273548497302
 30
0.0
 11
47.18738286464598
 21
452.5166989696819
 31
0.0
  0
LINE
  5
113
  8
0
  6
CONTINUOUS
 62
     7
 10
47.18738286464598
 20
452.5166989696819
 30
0.0
 11
47.17027611183833
 21
452.5054910522429
 31
0.0
  0
LINE
  5
114
  8
0
  6
CONTINUOUS
 62
     7
 10
47.17027611183833
 20
452.5054910522429
 30
0.0
 11
47.15374550988982
 21
452.4936828013832
 31
0.0
  0
LINE
  5
115
  8
0
  6
CONTINUOUS
 62
     7
 10
47.15374550988982
 20
452.4936828013832
 30
0.0
 11
47.13792568768459
 21
452.4814014554422
 31
0.0
  0
LINE
  5
116
  8
0
  6
CONTINUOUS
 62
     7
 10
47.13792568768459
 20
452.4814014554422
 30
0.0
 11
47.12250247466002
 21
452.4684133291901
 31
0.0
  0
LINE
  5
117
  8
0
  6
CONTINUOUS
 62
     7
 10
47.12250247466002
 20
452.4684133291901
 30
0.0
 11
47.10781181194218
 21
452.4550117685628
 31
0.0
  0
LINE
  5
118
  8
0
  6
CONTINUOUS
 62
     7
 10
47.10781181194218
 20
452.4550117685628
 30
0.0
 11
47.09376683360094
 21
452.4411506872128
 31
0.0
  0
LINE
  5
119
  8
0
  6
CONTINUOUS
 62
     7
 10
47.09376683360094
 20
452.4411506872128
 30
0.0
 11
47.08044671523112
 21
452.4269408709085
 31
0.0
  0
LINE
  5
11A
  8
0
  6
CONTINUOUS
 62
     7
 10
47.08044671523112
 20
452.4269408709085
 30
0.0
 11
47.06377619157313
 21
452.4074784913823
 31
0.0
  0
LINE
  5
11B
  8
0
  6
CONTINUOUS
 62
     7
 10
47.06377619157313
 20
452.4074784913823
 30
0.0
 11
47.04835583151883
 21
452.387514884303
 31
0.0
  0
LINE
  5
11C
  8
0
  6
CONTINUOUS
 62
     7
 10
47.04835583151883
 20
452.387514884303
 30
0.0
 11
47.03405775079724
 21
452.3669525186701
 31
0.0
  0
LINE
  5
11D
  8
0
  6
CONTINUOUS
 62
     7
 10
47.03405775079724
 20
452.3669525186701
 30
0.0
 11
47.02097889049868
 21
452.3459955039261
 31
0.0
  0
LINE
  5
11E
  8
0
  6
CONTINUOUS
 62
     7
 10
47.02097889049868
 20
452.3459955039261
 30
0.0
 11
47.00885868068558
 21
452.324242107142
 31
0.0
  0
LINE
  5
11F
  8
0
  6
CONTINUOUS
 62
     7
 10
47.00885868068558
 20
452.324242107142
 30
0.0
 11
46.99796073091302
 21
452.3021748346574
 31
0.0
  0
LINE
  5
120
  8
0
  6
CONTINUOUS
 62
     7
 10
46.99796073091302
 20
452.3021748346574
 30
0.0
 11
46.98820891031661
 21
452.2797021415038
 31
0.0
  0
LINE
  5
121
  8
0
  6
CONTINUOUS
 62
     7
 10
46.98820891031661
 20
452.2797021415038
 30
0.0
 11
46.97965178555344
 21
452.256994104072
 31
0.0
  0
LINE
  5
122
  8
0
  6
CONTINUOUS
 62
     7
 10
46.97965178555344
 20
452.256994104072
 30
0.0
 11
46.97156447391475
 21
452.2316720280946
 31
0.0
  0
LINE
  5
123
  8
0
  6
CONTINUOUS
 62
     7
 10
46.97156447391475
 20
452.2316720280946
 30
0.0
 11
46.96489148769331
 21
452.2061420122894
 31
0.0
  0
LINE
  5
124
  8
0
  6
CONTINUOUS
 62
     7
 10
46.96489148769331
 20
452.2061420122894
 30
0.0
 11
46.95962101475893
 21
452.1804654229236
 31
0.0
  0
LINE
  5
125
  8
0
  6
CONTINUOUS
 62
     7
 10
46.95962101475893
 20
452.1804654229236
 30
0.0
 11
46.95569422022322
 21
452.154323542614
 31
0.0
  0
LINE
  5
126
  8
0
  6
CONTINUOUS
 62
     7
 10
46.95569422022322
 20
452.154323542614
 30
0.0
 11
46.9531813064912
 21
452.1280920101638
 31
0.0
  0
LINE
  5
127
  8
0
  6
CONTINUOUS
 62
     7
 10
46.9531813064912
 20
452.1280920101638
 30
0.0
 11
46.95207812084161
 21
452.101827837353
 31
0.0
  0
LINE
  5
128
  8
0
  6
CONTINUOUS
 62
     7
 10
46.95207812084161
 20
452.101827837353
 30
0.0
 11
46.95204030481121
 21
452.0986801336928
 31
0.0
  0
LINE
  5
129
  8
0
  6
CONTINUOUS
 62
     7
 10
47.36464350156162
 20
430.3107052381544
 30
0.0
 11
47.34350882797087
 21
430.3143456738711
 31
0.0
  0
LINE
  5
12A
  8
0
  6
CONTINUOUS
 62
     7
 10
47.34350882797087
 20
430.3143456738711
 30
0.0
 11
47.32295111131889
 21
430.3187931748649
 31
0.0
  0
LINE
  5
12B
  8
0
  6
CONTINUOUS
 62
     7
 10
47.32295111131889
 20
430.3187931748649
 30
0.0
 11
47.30299579585864
 21
430.3239888516744
 31
0.0
  0
LINE
  5
12C
  8
0
  6
CONTINUOUS
 62
     7
 10
47.30299579585864
 20
430.3239888516744
 30
0.0
 11
47.28366404942075
 21
430.3298742810038
 31
0.0
  0
LINE
  5
12D
  8
0
  6
CONTINUOUS
 62
     7
 10
47.28366404942075
 20
430.3298742810038
 30
0.0
 11
47.26497298005526
 21
430.3363917424832
 31
0.0
  0
LINE
  5
12E
  8
0
  6
CONTINUOUS
 62
     7
 10
47.26497298005526
 20
430.3363917424832
 30
0.0
 11
47.24693585892323
 21
430.3434844296054
 31
0.0
  0
LINE
  5
12F
  8
0
  6
CONTINUOUS
 62
     7
 10
47.24693585892323
 20
430.3434844296054
 30
0.0
 11
47.22956234737104
 21
430.3510966358397
 31
0.0
  0
LINE
  5
130
  8
0
  6
CONTINUOUS
 62
     7
 10
47.22956234737104
 20
430.3510966358397
 30
0.0
 11
47.21014018145539
 21
430.3605616000999
 31
0.0
  0
LINE
  5
131
  8
0
  6
CONTINUOUS
 62
     7
 10
47.21014018145539
 20
430.3605616000999
 30
0.0
 11
47.1916342687668
 21
430.370575614695
 31
0.0
  0
LINE
  5
132
  8
0
  6
CONTINUOUS
 62
     7
 10
47.1916342687668
 20
430.370575614695
 30
0.0
 11
47.17404385373241
 21
430.3810575016872
 31
0.0
  0
LINE
  5
133
  8
0
  6
CONTINUOUS
 62
     7
 10
47.17404385373241
 20
430.3810575016872
 30
0.0
 11
47.15736332621384
 21
430.391929133523
 31
0.0
  0
LINE
  5
134
  8
0
  6
CONTINUOUS
 62
     7
 10
47.15736332621384
 20
430.391929133523
 30
0.0
 11
47.14158269947227
 21
430.4031155891967
 31
0.0
  0
LINE
  5
135
  8
0
  6
CONTINUOUS
 62
     7
 10
47.14158269947227
 20
430.4031155891967
 30
0.0
 11
47.1266880752241
 21
430.414545267914
 31
0.0
  0
LINE
  5
136
  8
0
  6
CONTINUOUS
 62
     7
 10
47.1266880752241
 20
430.414545267914
 30
0.0
 11
47.11266209329857
 21
430.4261499640359
 31
0.0
  0
LINE
  5
137
  8
0
  6
CONTINUOUS
 62
     7
 10
47.11266209329857
 20
430.4261499640359
 30
0.0
 11
47.0994843638619
 21
430.4378649070317
 31
0.0
  0
LINE
  5
138
  8
0
  6
CONTINUOUS
 62
     7
 10
47.0994843638619
 20
430.4378649070317
 30
0.0
 11
47.0871318805922
 21
430.449628770072
 31
0.0
  0
LINE
  5
139
  8
0
  6
CONTINUOUS
 62
     7
 10
47.0871318805922
 20
430.449628770072
 30
0.0
 11
47.07557941357509
 21
430.4613836507741
 31
0.0
  0
LINE
  5
13A
  8
0
  6
CONTINUOUS
 62
     7
 10
47.07557941357509
 20
430.4613836507741
 30
0.0
 11
47.0647998810422
 21
430.4730750274729
 31
0.0
  0
LINE
  5
13B
  8
0
  6
CONTINUOUS
 62
     7
 10
47.0647998810422
 20
430.4730750274729
 30
0.0
 11
47.05476469939139
 21
430.4846516942335
 31
0.0
  0
LINE
  5
13C
  8
0
  6
CONTINUOUS
 62
     7
 10
47.05476469939139
 20
430.4846516942335
 30
0.0
 11
47.04544411121362
 21
430.4960656776489
 31
0.0
  0
LINE
  5
13D
  8
0
  6
CONTINUOUS
 62
     7
 10
47.04544411121362
 20
430.4960656776489
 30
0.0
 11
47.03680749130231
 21
430.5072721382936
 31
0.0
  0
LINE
  5
13E
  8
0
  6
CONTINUOUS
 62
     7
 10
47.03680749130231
 20
430.5072721382936
 30
0.0
 11
47.02882363084343
 21
430.5182292595189
 31
0.0
  0
LINE
  5
13F
  8
0
  6
CONTINUOUS
 62
     7
 10
47.02882363084343
 20
430.5182292595189
 30
0.0
 11
47.02146100017586
 21
430.528898126087
 31
0.0
  0
LINE
  5
140
  8
0
  6
CONTINUOUS
 62
     7
 10
47.02146100017586
 20
430.528898126087
 30
0.0
 11
47.01468799067536
 21
430.5392425949637
 31
0.0
  0
LINE
  5
141
  8
0
  6
CONTINUOUS
 62
     7
 10
47.01468799067536
 20
430.5392425949637
 30
0.0
 11
47.00847313645353
 21
430.5492291604023
 31
0.0
  0
LINE
  5
142
  8
0
  6
CONTINUOUS
 62
     7
 10
47.00847313645353
 20
430.5492291604023
 30
0.0
 11
47.00356676119905
 21
430.5574806430623
 31
0.0
  0
LINE
  5
143
  8
0
  6
CONTINUOUS
 62
     7
 10
47.00356676119905
 20
430.5574806430623
 30
0.0
 11
46.99902829051561
 21
430.5654282155987
 31
0.0
  0
LINE
  5
144
  8
0
  6
CONTINUOUS
 62
     7
 10
46.99902829051561
 20
430.5654282155987
 30
0.0
 11
46.9948387919987
 21
430.5730549439163
 31
0.0
  0
LINE
  5
145
  8
0
  6
CONTINUOUS
 62
     7
 10
46.9948387919987
 20
430.5730549439163
 30
0.0
 11
46.99097976750529
 21
430.5803450365281
 31
0.0
  0
LINE
  5
146
  8
0
  6
CONTINUOUS
 62
     7
 10
46.99097976750529
 20
430.5803450365281
 30
0.0
 11
46.98743321778332
 21
430.5872837804769
 31
0.0
  0
LINE
  5
147
  8
0
  6
CONTINUOUS
 62
     7
 10
46.98743321778332
 20
430.5872837804769
 30
0.0
 11
46.98418170121326
 21
430.5938574785001
 31
0.0
  0
LINE
  5
148
  8
0
  6
CONTINUOUS
 62
     7
 10
46.98418170121326
 20
430.5938574785001
 30
0.0
 11
46.98120838702633
 21
430.6000533878154
 31
0.0
  0
LINE
  5
149
  8
0
  6
CONTINUOUS
 62
     7
 10
46.98120838702633
 20
430.6000533878154
 30
0.0
 11
46.97906134400196
 21
430.6046390638721
 31
0.0
  0
LINE
  5
14A
  8
0
  6
CONTINUOUS
 62
     7
 10
46.97906134400196
 20
430.6046390638721
 30
0.0
 11
46.9770678188818
 21
430.6089803271669
 31
0.0
  0
LINE
  5
14B
  8
0
  6
CONTINUOUS
 62
     7
 10
46.9770678188818
 20
430.6089803271669
 30
0.0
 11
46.97522055519316
 21
430.6130727415197
 31
0.0
  0
LINE
  5
14C
  8
0
  6
CONTINUOUS
 62
     7
 10
46.97522055519316
 20
430.6130727415197
 30
0.0
 11
46.97351262016616
 21
430.6169117382722
 31
0.0
  0
LINE
  5
14D
  8
0
  6
CONTINUOUS
 62
     7
 10
46.97351262016616
 20
430.6169117382722
 30
0.0
 11
46.97193737838186
 21
430.6204930349563
 31
0.0
  0
LINE
  5
14E
  8
0
  6
CONTINUOUS
 62
     7
 10
46.97193737838186
 20
430.6204930349563
 30
0.0
 11
46.97051330068002
 21
430.6237556607583
 31
0.0
  0
LINE
  5
14F
  8
0
  6
CONTINUOUS
 62
     7
 10
46.97051330068002
 20
430.6237556607583
 30
0.0
 11
46.96920541235374
 21
430.6267622852824
 31
0.0
  0
LINE
  5
150
  8
0
  6
CONTINUOUS
 62
     7
 10
46.96920541235374
 20
430.6267622852824
 30
0.0
 11
46.96800646517845
 21
430.6295150159548
 31
0.0
  0
LINE
  5
151
  8
0
  6
CONTINUOUS
 62
     7
 10
46.96800646517845
 20
430.6295150159548
 30
0.0
 11
46.96687689667353
 21
430.6321149320327
 31
0.0
  0
LINE
  5
152
  8
0
  6
CONTINUOUS
 62
     7
 10
46.96687689667353
 20
430.6321149320327
 30
0.0
 11
46.96495972346569
 21
430.6365467273595
 31
0.0
  0
LINE
  5
153
  8
0
  6
CONTINUOUS
 62
     7
 10
46.96495972346569
 20
430.6365467273595
 30
0.0
 11
46.96320986167671
 21
430.6405897609997
 31
0.0
  0
LINE
  5
154
  8
0
  6
CONTINUOUS
 62
     7
 10
46.96320986167671
 20
430.6405897609997
 30
0.0
 11
46.96161717855235
 21
430.6442353989469
 31
0.0
  0
LINE
  5
155
  8
0
  6
CONTINUOUS
 62
     7
 10
46.96161717855235
 20
430.6442353989469
 30
0.0
 11
46.96017197608207
 21
430.6474754628218
 31
0.0
  0
LINE
  5
156
  8
0
  6
CONTINUOUS
 62
     7
 10
46.96017197608207
 20
430.6474754628218
 30
0.0
 11
46.9588650042291
 21
430.6503022092579
 31
0.0
  0
LINE
  5
157
  8
0
  6
CONTINUOUS
 62
     7
 10
46.9588650042291
 20
430.6503022092579
 30
0.0
 11
46.9576874728162
 21
430.6527083103549
 31
0.0
  0
LINE
  5
158
  8
0
  6
CONTINUOUS
 62
     7
 10
46.9576874728162
 20
430.6527083103549
 30
0.0
 11
46.95663106219223
 21
430.6546868352705
 31
0.0
  0
LINE
  5
159
  8
0
  6
CONTINUOUS
 62
     7
 10
46.95663106219223
 20
430.6546868352705
 30
0.0
 11
46.95568793280061
 21
430.6562312330071
 31
0.0
  0
LINE
  5
15A
  8
0
  6
CONTINUOUS
 62
     7
 10
46.95568793280061
 20
430.6562312330071
 30
0.0
 11
46.95485073376604
 21
430.6573353164461
 31
0.0
  0
LINE
  5
15B
  8
0
  6
CONTINUOUS
 62
     7
 10
46.95485073376604
 20
430.6573353164461
 30
0.0
 11
46.95411261061059
 21
430.6579932476773
 31
0.0
  0
LINE
  5
15C
  8
0
  6
CONTINUOUS
 62
     7
 10
46.95411261061059
 20
430.6579932476773
 30
0.0
 11
46.9534672122056
 21
430.6581995246642
 31
0.0
  0
LINE
  5
15D
  8
0
  6
CONTINUOUS
 62
     7
 10
46.9534672122056
 20
430.6581995246642
 30
0.0
 11
46.95333297117259
 21
430.658182901019
 31
0.0
  0
LINE
  5
15E
  8
0
  6
CONTINUOUS
 62
     7
 10
61.4999999999996
 20
540.8633390597703
 30
0.0
 11
61.22611861890631
 21
537.9268123700249
 31
0.0
  0
LINE
  5
15F
  8
0
  6
CONTINUOUS
 62
     7
 10
61.22611861890631
 20
537.9268123700249
 30
0.0
 11
60.41385085199011
 21
535.090818178455
 31
0.0
  0
LINE
  5
160
  8
0
  6
CONTINUOUS
 62
     7
 10
60.41385085199011
 20
535.090818178455
 30
0.0
 11
59.09100482647863
 21
532.4524472358057
 31
0.0
  0
LINE
  5
161
  8
0
  6
CONTINUOUS
 62
     7
 10
59.09100482647863
 20
532.4524472358057
 30
0.0
 11
57.30286840442692
 21
530.1020246267782
 31
0.0
  0
LINE
  5
162
  8
0
  6
CONTINUOUS
 62
     7
 10
57.30286840442692
 20
530.1020246267782
 30
0.0
 11
55.11065874494185
 21
528.1200174751617
 31
0.0
  0
LINE
  5
163
  8
0
  6
CONTINUOUS
 62
     7
 10
46.96233447283569
 20
405.2344080798707
 30
0.0
 11
46.96251673575578
 21
405.2343648797061
 31
0.0
  0
LINE
  5
164
  8
0
  6
CONTINUOUS
 62
     7
 10
46.96251673575578
 20
405.2343648797061
 30
0.0
 11
46.96349460285151
 21
405.2344285397712
 31
0.0
  0
LINE
  5
165
  8
0
  6
CONTINUOUS
 62
     7
 10
46.96349460285151
 20
405.2344285397712
 30
0.0
 11
46.96454226812817
 21
405.234949222577
 31
0.0
  0
LINE
  5
166
  8
0
  6
CONTINUOUS
 62
     7
 10
46.96454226812817
 20
405.234949222577
 30
0.0
 11
46.96566240414085
 21
405.2358986727368
 31
0.0
  0
LINE
  5
167
  8
0
  6
CONTINUOUS
 62
     7
 10
46.96566240414085
 20
405.2358986727368
 30
0.0
 11
46.96659513427441
 21
405.2369279686662
 31
0.0
  0
LINE
  5
168
  8
0
  6
CONTINUOUS
 62
     7
 10
46.96659513427441
 20
405.2369279686662
 30
0.0
 11
46.9675756523275
 21
405.2381930280902
 31
0.0
  0
LINE
  5
169
  8
0
  6
CONTINUOUS
 62
     7
 10
46.9675756523275
 20
405.2381930280902
 30
0.0
 11
46.96860534066846
 21
405.2396819969982
 31
0.0
  0
LINE
  5
16A
  8
0
  6
CONTINUOUS
 62
     7
 10
46.96860534066846
 20
405.2396819969982
 30
0.0
 11
46.96968560555869
 21
405.2413835276628
 31
0.0
  0
LINE
  5
16B
  8
0
  6
CONTINUOUS
 62
     7
 10
46.96968560555869
 20
405.2413835276628
 30
0.0
 11
46.97081787653075
 21
405.2432867654566
 31
0.0
  0
LINE
  5
16C
  8
0
  6
CONTINUOUS
 62
     7
 10
46.97081787653075
 20
405.2432867654566
 30
0.0
 11
46.97177616578677
 21
405.2449727454483
 31
0.0
  0
LINE
  5
16D
  8
0
  6
CONTINUOUS
 62
     7
 10
46.97177616578677
 20
405.2449727454483
 30
0.0
 11
46.97277046222414
 21
405.2467794557671
 31
0.0
  0
LINE
  5
16E
  8
0
  6
CONTINUOUS
 62
     7
 10
46.97277046222414
 20
405.2467794557671
 30
0.0
 11
46.97380156243558
 21
405.2487017784968
 31
0.0
  0
LINE
  5
16F
  8
0
  6
CONTINUOUS
 62
     7
 10
46.97380156243558
 20
405.2487017784968
 30
0.0
 11
46.97487985010965
 21
405.2507564914178
 31
0.0
  0
LINE
  5
170
  8
0
  6
CONTINUOUS
 62
     7
 10
46.97487985010965
 20
405.2507564914178
 30
0.0
 11
46.97606518675524
 21
405.2530699086623
 31
0.0
  0
LINE
  5
171
  8
0
  6
CONTINUOUS
 62
     7
 10
46.97606518675524
 20
405.2530699086623
 30
0.0
 11
46.97737189336205
 21
405.2556604654565
 31
0.0
  0
LINE
  5
172
  8
0
  6
CONTINUOUS
 62
     7
 10
46.97737189336205
 20
405.2556604654565
 30
0.0
 11
46.97880517965817
 21
405.2585246223912
 31
0.0
  0
LINE
  5
173
  8
0
  6
CONTINUOUS
 62
     7
 10
46.97880517965817
 20
405.2585246223912
 30
0.0
 11
46.98037060726208
 21
405.2616585860275
 31
0.0
  0
LINE
  5
174
  8
0
  6
CONTINUOUS
 62
     7
 10
46.98037060726208
 20
405.2616585860275
 30
0.0
 11
46.98207408214422
 21
405.2650582973724
 31
0.0
  0
LINE
  5
175
  8
0
  6
CONTINUOUS
 62
     7
 10
46.98207408214422
 20
405.2650582973724
 30
0.0
 11
46.9839218463333
 21
405.2687194194593
 31
0.0
  0
LINE
  5
176
  8
0
  6
CONTINUOUS
 62
     7
 10
46.9839218463333
 20
405.2687194194593
 30
0.0
 11
46.98592046880933
 21
405.272637324059
 31
0.0
  0
LINE
  5
177
  8
0
  6
CONTINUOUS
 62
     7
 10
46.98592046880933
 20
405.272637324059
 30
0.0
 11
46.98807683552234
 21
405.2768070775568
 31
0.0
  0
LINE
  5
178
  8
0
  6
CONTINUOUS
 62
     7
 10
46.98807683552234
 20
405.2768070775568
 30
0.0
 11
46.99039813847413
 21
405.2812234260367
 31
0.0
  0
LINE
  5
179
  8
0
  6
CONTINUOUS
 62
     7
 10
46.99039813847413
 20
405.2812234260367
 30
0.0
 11
46.99289186379738
 21
405.2858807796084
 31
0.0
  0
LINE
  5
17A
  8
0
  6
CONTINUOUS
 62
     7
 10
46.99289186379738
 20
405.2858807796084
 30
0.0
 11
46.99602951006558
 21
405.2916110144859
 31
0.0
  0
LINE
  5
17B
  8
0
  6
CONTINUOUS
 62
     7
 10
46.99602951006558
 20
405.2916110144859
 30
0.0
 11
46.9994252167029
 21
405.2976511068533
 31
0.0
  0
LINE
  5
17C
  8
0
  6
CONTINUOUS
 62
     7
 10
46.9994252167029
 20
405.2976511068533
 30
0.0
 11
47.00309223615988
 21
405.3039902600542
 31
0.0
  0
LINE
  5
17D
  8
0
  6
CONTINUOUS
 62
     7
 10
47.00309223615988
 20
405.3039902600542
 30
0.0
 11
47.00704424539146
 21
405.3106169152653
 31
0.0
  0
LINE
  5
17E
  8
0
  6
CONTINUOUS
 62
     7
 10
47.00704424539146
 20
405.3106169152653
 30
0.0
 11
47.01129530574151
 21
405.3175187108117
 31
0.0
  0
LINE
  5
17F
  8
0
  6
CONTINUOUS
 62
     7
 10
47.01129530574151
 20
405.3175187108117
 30
0.0
 11
47.01585981914402
 21
405.3246824405658
 31
0.0
  0
LINE
  5
180
  8
0
  6
CONTINUOUS
 62
     7
 10
47.01585981914402
 20
405.3246824405658
 30
0.0
 11
47.02177170116665
 21
405.3336047617296
 31
0.0
  0
LINE
  5
181
  8
0
  6
CONTINUOUS
 62
     7
 10
47.02177170116665
 20
405.3336047617296
 30
0.0
 11
47.02818196924948
 21
405.3428577981034
 31
0.0
  0
LINE
  5
182
  8
0
  6
CONTINUOUS
 62
     7
 10
47.02818196924948
 20
405.3428577981034
 30
0.0
 11
47.03511682226873
 21
405.352413388671
 31
0.0
  0
LINE
  5
183
  8
0
  6
CONTINUOUS
 62
     7
 10
47.03511682226873
 20
405.352413388671
 30
0.0
 11
47.04260266327518
 21
405.3622412329229
 31
0.0
  0
LINE
  5
184
  8
0
  6
CONTINUOUS
 62
     7
 10
47.04260266327518
 20
405.3622412329229
 30
0.0
 11
47.05066593091156
 21
405.3723087870937
 31
0.0
  0
LINE
  5
185
  8
0
  6
CONTINUOUS
 62
     7
 10
47.05066593091156
 20
405.3723087870937
 30
0.0
 11
47.06041476101889
 21
405.3838258664988
 31
0.0
  0
LINE
  5
186
  8
0
  6
CONTINUOUS
 62
     7
 10
47.06041476101889
 20
405.3838258664988
 30
0.0
 11
47.07095728649043
 21
405.3955471551732
 31
0.0
  0
LINE
  5
187
  8
0
  6
CONTINUOUS
 62
     7
 10
47.07095728649043
 20
405.3955471551732
 30
0.0
 11
47.08232898208649
 21
405.4074160037031
 31
0.0
  0
LINE
  5
188
  8
0
  6
CONTINUOUS
 62
     7
 10
47.08232898208649
 20
405.4074160037031
 30
0.0
 11
47.09456398378828
 21
405.4193716284959
 31
0.0
  0
LINE
  5
189
  8
0
  6
CONTINUOUS
 62
     7
 10
47.09456398378828
 20
405.4193716284959
 30
0.0
 11
47.10769464413156
 21
405.431348992473
 31
0.0
  0
LINE
  5
18A
  8
0
  6
CONTINUOUS
 62
     7
 10
47.10769464413156
 20
405.431348992473
 30
0.0
 11
47.12149176667965
 21
405.4430665189773
 31
0.0
  0
LINE
  5
18B
  8
0
  6
CONTINUOUS
 62
     7
 10
47.12149176667965
 20
405.4430665189773
 30
0.0
 11
47.13620779180524
 21
405.454668222754
 31
0.0
  0
LINE
  5
18C
  8
0
  6
CONTINUOUS
 62
     7
 10
47.13620779180524
 20
405.454668222754
 30
0.0
 11
47.15186555908965
 21
405.4660800948784
 31
0.0
  0
LINE
  5
18D
  8
0
  6
CONTINUOUS
 62
     7
 10
47.15186555908965
 20
405.4660800948784
 30
0.0
 11
47.16848431444046
 21
405.4772240023505
 31
0.0
  0
LINE
  5
18E
  8
0
  6
CONTINUOUS
 62
     7
 10
47.16848431444046
 20
405.4772240023505
 30
0.0
 11
47.18443898719859
 21
405.4870531974162
 31
0.0
  0
LINE
  5
18F
  8
0
  6
CONTINUOUS
 62
     7
 10
47.18443898719859
 20
405.4870531974162
 30
0.0
 11
47.20120839344917
 21
405.4965284205026
 31
0.0
  0
LINE
  5
190
  8
0
  6
CONTINUOUS
 62
     7
 10
47.20120839344917
 20
405.4965284205026
 30
0.0
 11
47.2187969375708
 21
405.5055824217578
 31
0.0
  0
LINE
  5
191
  8
0
  6
CONTINUOUS
 62
     7
 10
47.2187969375708
 20
405.5055824217578
 30
0.0
 11
47.23720506302977
 21
405.5141454442822
 31
0.0
  0
LINE
  5
192
  8
0
  6
CONTINUOUS
 62
     7
 10
47.23720506302977
 20
405.5141454442822
 30
0.0
 11
47.2564288680633
 21
405.5221453802114
 31
0.0
  0
LINE
  5
193
  8
0
  6
CONTINUOUS
 62
     7
 10
47.2564288680633
 20
405.5221453802114
 30
0.0
 11
47.27645971605236
 21
405.5295079641106
 31
0.0
  0
LINE
  5
194
  8
0
  6
CONTINUOUS
 62
     7
 10
47.27645971605236
 20
405.5295079641106
 30
0.0
 11
47.29728384341373
 21
405.5361570064067
 31
0.0
  0
LINE
  5
195
  8
0
  6
CONTINUOUS
 62
     7
 10
47.29728384341373
 20
405.5361570064067
 30
0.0
 11
47.3188819682312
 21
405.5420146695112
 31
0.0
  0
LINE
  5
196
  8
0
  6
CONTINUOUS
 62
     7
 10
47.3188819682312
 20
405.5420146695112
 30
0.0
 11
47.3412289032474
 21
405.5470017891556
 31
0.0
  0
LINE
  5
197
  8
0
  6
CONTINUOUS
 62
     7
 10
47.3412289032474
 20
405.5470017891556
 30
0.0
 11
47.36429317725158
 21
405.5510382432996
 31
0.0
  0
LINE
  5
198
  8
0
  6
CONTINUOUS
 62
     7
 10
43.54797873365591
 20
383.2059371173922
 30
0.0
 11
43.56447426780903
 21
383.2063496206973
 31
0.0
  0
LINE
  5
199
  8
0
  6
CONTINUOUS
 62
     7
 10
43.56447426780903
 20
383.2063496206973
 30
0.0
 11
43.58092977962505
 21
383.2072989359344
 31
0.0
  0
LINE
  5
19A
  8
0
  6
CONTINUOUS
 62
     7
 10
43.58092977962505
 20
383.2072989359344
 30
0.0
 11
43.59745121494564
 21
383.2087959680815
 31
0.0
  0
LINE
  5
19B
  8
0
  6
CONTINUOUS
 62
     7
 10
43.59745121494564
 20
383.2087959680815
 30
0.0
 11
43.61386210319683
 21
383.2108261261731
 31
0.0
  0
LINE
  5
19C
  8
0
  6
CONTINUOUS
 62
     7
 10
43.61386210319683
 20
383.2108261261731
 30
0.0
 11
43.63055417119936
 21
383.2134537332159
 31
0.0
  0
LINE
  5
19D
  8
0
  6
CONTINUOUS
 62
     7
 10
43.63055417119936
 20
383.2134537332159
 30
0.0
 11
43.64706188691292
 21
383.2166180383796
 31
0.0
  0
LINE
  5
19E
  8
0
  6
CONTINUOUS
 62
     7
 10
43.64706188691292
 20
383.2166180383796
 30
0.0
 11
43.66348909314794
 21
383.2203367123706
 31
0.0
  0
LINE
  5
19F
  8
0
  6
CONTINUOUS
 62
     7
 10
43.66348909314794
 20
383.2203367123706
 30
0.0
 11
43.67966893981661
 21
383.2245666841515
 31
0.0
  0
LINE
  5
1A0
  8
0
  6
CONTINUOUS
 62
     7
 10
43.67966893981661
 20
383.2245666841515
 30
0.0
 11
43.69495104884718
 21
383.2290937112086
 31
0.0
  0
LINE
  5
1A1
  8
0
  6
CONTINUOUS
 62
     7
 10
43.69495104884718
 20
383.2290937112086
 30
0.0
 11
43.70997313541146
 21
383.2340601282003
 31
0.0
  0
LINE
  5
1A2
  8
0
  6
CONTINUOUS
 62
     7
 10
43.70997313541146
 20
383.2340601282003
 30
0.0
 11
43.72470718964058
 21
383.2394427740135
 31
0.0
  0
LINE
  5
1A3
  8
0
  6
CONTINUOUS
 62
     7
 10
43.72470718964058
 20
383.2394427740135
 30
0.0
 11
43.73912520166561
 21
383.2452184875348
 31
0.0
  0
LINE
  5
1A4
  8
0
  6
CONTINUOUS
 62
     7
 10
43.73912520166561
 20
383.2452184875348
 30
0.0
 11
43.75830612664155
 21
383.2537178450364
 31
0.0
  0
LINE
  5
1A5
  8
0
  6
CONTINUOUS
 62
     7
 10
43.75830612664155
 20
383.2537178450364
 30
0.0
 11
43.77688271913922
 21
383.2628794352507
 31
0.0
  0
LINE
  5
1A6
  8
0
  6
CONTINUOUS
 62
     7
 10
43.77688271913922
 20
383.2628794352507
 30
0.0
 11
43.79481440522585
 21
383.2726451502699
 31
0.0
  0
LINE
  5
1A7
  8
0
  6
CONTINUOUS
 62
     7
 10
43.79481440522585
 20
383.2726451502699
 30
0.0
 11
43.81261713535322
 21
383.2833010303182
 31
0.0
  0
LINE
  5
1A8
  8
0
  6
CONTINUOUS
 62
     7
 10
43.81261713535322
 20
383.2833010303182
 30
0.0
 11
43.82972388816086
 21
383.2945089477573
 31
0.0
  0
LINE
  5
1A9
  8
0
  6
CONTINUOUS
 62
     7
 10
43.82972388816086
 20
383.2945089477573
 30
0.0
 11
43.84625449010939
 21
383.3063171986169
 31
0.0
  0
LINE
  5
1AA
  8
0
  6
CONTINUOUS
 62
     7
 10
43.84625449010939
 20
383.3063171986169
 30
0.0
 11
43.8620743123146
 21
383.3185985445579
 31
0.0
  0
LINE
  5
1AB
  8
0
  6
CONTINUOUS
 62
     7
 10
43.8620743123146
 20
383.3185985445579
 30
0.0
 11
43.87749752533917
 21
383.3315866708101
 31
0.0
  0
LINE
  5
1AC
  8
0
  6
CONTINUOUS
 62
     7
 10
43.87749752533917
 20
383.3315866708101
 30
0.0
 11
43.89218818805701
 21
383.3449882314374
 31
0.0
  0
LINE
  5
1AD
  8
0
  6
CONTINUOUS
 62
     7
 10
43.89218818805701
 20
383.3449882314374
 30
0.0
 11
43.90623316639827
 21
383.3588493127873
 31
0.0
  0
LINE
  5
1AE
  8
0
  6
CONTINUOUS
 62
     7
 10
43.90623316639827
 20
383.3588493127873
 30
0.0
 11
43.91955328476807
 21
383.3730591290915
 31
0.0
  0
LINE
  5
1AF
  8
0
  6
CONTINUOUS
 62
     7
 10
43.91955328476807
 20
383.3730591290915
 30
0.0
 11
43.93622380842607
 21
383.3925215086176
 31
0.0
  0
LINE
  5
1B0
  8
0
  6
CONTINUOUS
 62
     7
 10
43.93622380842607
 20
383.3925215086176
 30
0.0
 11
43.95164416848036
 21
383.4124851156971
 31
0.0
  0
LINE
  5
1B1
  8
0
  6
CONTINUOUS
 62
     7
 10
43.95164416848036
 20
383.4124851156971
 30
0.0
 11
43.96594224920197
 21
383.4330474813299
 31
0.0
  0
LINE
  5
1B2
  8
0
  6
CONTINUOUS
 62
     7
 10
43.96594224920197
 20
383.4330474813299
 30
0.0
 11
43.97902110950052
 21
383.454004496074
 31
0.0
  0
LINE
  5
1B3
  8
0
  6
CONTINUOUS
 62
     7
 10
43.97902110950052
 20
383.454004496074
 30
0.0
 11
43.99114131931361
 21
383.475757892858
 31
0.0
  0
LINE
  5
1B4
  8
0
  6
CONTINUOUS
 62
     7
 10
43.99114131931361
 20
383.475757892858
 30
0.0
 11
44.00203926908618
 21
383.4978251653424
 31
0.0
  0
LINE
  5
1B5
  8
0
  6
CONTINUOUS
 62
     7
 10
44.00203926908618
 20
383.4978251653424
 30
0.0
 11
44.01179108968258
 21
383.5202978584961
 31
0.0
  0
LINE
  5
1B6
  8
0
  6
CONTINUOUS
 62
     7
 10
44.01179108968258
 20
383.5202978584961
 30
0.0
 11
44.02034821444574
 21
383.5430058959279
 31
0.0
  0
LINE
  5
1B7
  8
0
  6
CONTINUOUS
 62
     7
 10
44.02034821444574
 20
383.5430058959279
 30
0.0
 11
44.02843552608444
 21
383.5683279719053
 31
0.0
  0
LINE
  5
1B8
  8
0
  6
CONTINUOUS
 62
     7
 10
44.02843552608444
 20
383.5683279719053
 30
0.0
 11
44.03510851230588
 21
383.5938579877107
 31
0.0
  0
LINE
  5
1B9
  8
0
  6
CONTINUOUS
 62
     7
 10
44.03510851230588
 20
383.5938579877107
 30
0.0
 11
44.04037898524027
 21
383.6195345770764
 31
0.0
  0
LINE
  5
1BA
  8
0
  6
CONTINUOUS
 62
     7
 10
44.04037898524027
 20
383.6195345770764
 30
0.0
 11
44.04430577977597
 21
383.6456764573861
 31
0.0
  0
LINE
  5
1BB
  8
0
  6
CONTINUOUS
 62
     7
 10
44.04430577977597
 20
383.6456764573861
 30
0.0
 11
44.046818693508
 21
383.6719079898363
 31
0.0
  0
LINE
  5
1BC
  8
0
  6
CONTINUOUS
 62
     7
 10
44.046818693508
 20
383.6719079898363
 30
0.0
 11
44.04792187915758
 21
383.6981721626472
 31
0.0
  0
LINE
  5
1BD
  8
0
  6
CONTINUOUS
 62
     7
 10
44.04792187915758
 20
383.6981721626472
 30
0.0
 11
44.047959695188
 21
383.7013198663074
 31
0.0
  0
LINE
  5
1BE
  8
0
  6
CONTINUOUS
 62
     7
 10
29.4999999999996
 20
540.8633390597703
 30
0.0
 11
29.77388138109287
 21
543.7998657495157
 31
0.0
  0
LINE
  5
1BF
  8
0
  6
CONTINUOUS
 62
     7
 10
29.77388138109287
 20
543.7998657495157
 30
0.0
 11
30.58614914800901
 21
546.6358599410854
 31
0.0
  0
LINE
  5
1C0
  8
0
  6
CONTINUOUS
 62
     7
 10
30.58614914800901
 20
546.6358599410854
 30
0.0
 11
31.90899517352044
 21
549.2742308837347
 31
0.0
  0
LINE
  5
1C1
  8
0
  6
CONTINUOUS
 62
     7
 10
31.90899517352044
 20
549.2742308837346
 30
0.0
 11
33.69713159557207
 21
551.624653492762
 31
0.0
  0
LINE
  5
1C2
  8
0
  6
CONTINUOUS
 62
     7
 10
33.69713159557206
 20
551.624653492762
 30
0.0
 11
35.88934125505704
 21
553.6066606443787
 31
0.0
  0
LINE
  5
1C3
  8
0
  6
CONTINUOUS
 62
     7
 10
44.04835685499922
 20
430.6583132012959
 30
0.0
 11
44.04823450103456
 21
430.6583117389042
 31
0.0
  0
LINE
  5
1C4
  8
0
  6
CONTINUOUS
 62
     7
 10
44.04823450103456
 20
430.6583117389042
 30
0.0
 11
44.04794467677461
 21
430.6581512148709
 31
0.0
  0
LINE
  5
1C5
  8
0
  6
CONTINUOUS
 62
     7
 10
44.04794467677461
 20
430.6581512148709
 30
0.0
 11
44.04760757622176
 21
430.6577760434074
 31
0.0
  0
LINE
  5
1C6
  8
0
  6
CONTINUOUS
 62
     7
 10
44.04760757622176
 20
430.6577760434074
 30
0.0
 11
44.04722100249344
 21
430.6571852807508
 31
0.0
  0
LINE
  5
1C7
  8
0
  6
CONTINUOUS
 62
     7
 10
44.04722100249344
 20
430.6571852807508
 30
0.0
 11
44.04678254519423
 21
430.656378950264
 31
0.0
  0
LINE
  5
1C8
  8
0
  6
CONTINUOUS
 62
     7
 10
44.04678254519423
 20
430.656378950264
 30
0.0
 11
44.04629885493306
 21
430.655377307372
 31
0.0
  0
LINE
  5
1C9
  8
0
  6
CONTINUOUS
 62
     7
 10
44.04629885493306
 20
430.655377307372
 30
0.0
 11
44.04575983572275
 21
430.6541680551042
 31
0.0
  0
LINE
  5
1CA
  8
0
  6
CONTINUOUS
 62
     7
 10
44.04575983572275
 20
430.6541680551042
 30
0.0
 11
44.04516254142855
 21
430.6527515062442
 31
0.0
  0
LINE
  5
1CB
  8
0
  6
CONTINUOUS
 62
     7
 10
44.04516254142855
 20
430.6527515062442
 30
0.0
 11
44.04450381049956
 21
430.6511280803073
 31
0.0
  0
LINE
  5
1CC
  8
0
  6
CONTINUOUS
 62
     7
 10
44.04450381049956
 20
430.6511280803073
 30
0.0
 11
44.0435510463914
 21
430.6487118252365
 31
0.0
  0
LINE
  5
1CD
  8
0
  6
CONTINUOUS
 62
     7
 10
44.0435510463914
 20
430.6487118252365
 30
0.0
 11
44.04248102563835
 21
430.6459490238618
 31
0.0
  0
LINE
  5
1CE
  8
0
  6
CONTINUOUS
 62
     7
 10
44.04248102563835
 20
430.6459490238618
 30
0.0
 11
44.04128523318992
 21
430.6428415093836
 31
0.0
  0
LINE
  5
1CF
  8
0
  6
CONTINUOUS
 62
     7
 10
44.04128523318992
 20
430.6428415093836
 30
0.0
 11
44.03995457259626
 21
430.6393915070843
 31
0.0
  0
LINE
  5
1D0
  8
0
  6
CONTINUOUS
 62
     7
 10
44.03995457259626
 20
430.6393915070843
 30
0.0
 11
44.03847937754691
 21
430.6356016635872
 31
0.0
  0
LINE
  5
1D1
  8
0
  6
CONTINUOUS
 62
     7
 10
44.03847937754691
 20
430.6356016635872
 30
0.0
 11
44.03684942483179
 21
430.6314750779188
 31
0.0
  0
LINE
  5
1D2
  8
0
  6
CONTINUOUS
 62
     7
 10
44.03684942483179
 20
430.6314750779188
 30
0.0
 11
44.03505394886558
 21
430.6270153343011
 31
0.0
  0
LINE
  5
1D3
  8
0
  6
CONTINUOUS
 62
     7
 10
44.03505394886558
 20
430.6270153343011
 30
0.0
 11
44.03273493114114
 21
430.6213967309828
 31
0.0
  0
LINE
  5
1D4
  8
0
  6
CONTINUOUS
 62
     7
 10
44.03273493114114
 20
430.6213967309828
 30
0.0
 11
44.03015642581465
 21
430.6153377492788
 31
0.0
  0
LINE
  5
1D5
  8
0
  6
CONTINUOUS
 62
     7
 10
44.03015642581465
 20
430.6153377492788
 30
0.0
 11
44.02729873387507
 21
430.6088469780326
 31
0.0
  0
LINE
  5
1D6
  8
0
  6
CONTINUOUS
 62
     7
 10
44.02729873387507
 20
430.6088469780326
 30
0.0
 11
44.02414130878342
 21
430.6019342014752
 31
0.0
  0
LINE
  5
1D7
  8
0
  6
CONTINUOUS
 62
     7
 10
44.02414130878342
 20
430.6019342014752
 30
0.0
 11
44.02066281210814
 21
430.5946104867504
 31
0.0
  0
LINE
  5
1D8
  8
0
  6
CONTINUOUS
 62
     7
 10
44.02066281210814
 20
430.5946104867504
 30
0.0
 11
44.01684117578888
 21
430.5868882739483
 31
0.0
  0
LINE
  5
1D9
  8
0
  6
CONTINUOUS
 62
     7
 10
44.01684117578888
 20
430.5868882739483
 30
0.0
 11
44.01177022448794
 21
430.5771152881381
 31
0.0
  0
LINE
  5
1DA
  8
0
  6
CONTINUOUS
 62
     7
 10
44.01177022448794
 20
430.5771152881381
 30
0.0
 11
44.00613202580089
 21
430.5668155789925
 31
0.0
  0
LINE
  5
1DB
  8
0
  6
CONTINUOUS
 62
     7
 10
44.00613202580089
 20
430.5668155789925
 30
0.0
 11
43.99988521963418
 21
430.5560196213024
 31
0.0
  0
LINE
  5
1DC
  8
0
  6
CONTINUOUS
 62
     7
 10
43.99988521963418
 20
430.5560196213024
 30
0.0
 11
43.99298769352848
 21
430.5447615910119
 31
0.0
  0
LINE
  5
1DD
  8
0
  6
CONTINUOUS
 62
     7
 10
43.99298769352848
 20
430.5447615910119
 30
0.0
 11
43.98539685186646
 21
430.5330795970531
 31
0.0
  0
LINE
  5
1DE
  8
0
  6
CONTINUOUS
 62
     7
 10
43.98539685186646
 20
430.5330795970531
 30
0.0
 11
43.97706991506816
 21
430.5210159072415
 31
0.0
  0
LINE
  5
1DF
  8
0
  6
CONTINUOUS
 62
     7
 10
43.97706991506816
 20
430.5210159072415
 30
0.0
 11
43.96796425039447
 21
430.5086171647932
 31
0.0
  0
LINE
  5
1E0
  8
0
  6
CONTINUOUS
 62
     7
 10
43.96796425039447
 20
430.5086171647932
 30
0.0
 11
43.95803773581605
 21
430.4959345916751
 31
0.0
  0
LINE
  5
1E1
  8
0
  6
CONTINUOUS
 62
     7
 10
43.95803773581605
 20
430.4959345916751
 30
0.0
 11
43.94724915819548
 21
430.4830241746556
 31
0.0
  0
LINE
  5
1E2
  8
0
  6
CONTINUOUS
 62
     7
 10
43.94724915819548
 20
430.4830241746556
 30
0.0
 11
43.93555864677158
 21
430.4699468295734
 31
0.0
  0
LINE
  5
1E3
  8
0
  6
CONTINUOUS
 62
     7
 10
43.93555864677158
 20
430.4699468295734
 30
0.0
 11
43.92292814262201
 21
430.4567685389974
 31
0.0
  0
LINE
  5
1E4
  8
0
  6
CONTINUOUS
 62
     7
 10
43.92292814262201
 20
430.4567685389974
 30
0.0
 11
43.9093219044097
 21
430.4435604581133
 31
0.0
  0
LINE
  5
1E5
  8
0
  6
CONTINUOUS
 62
     7
 10
43.9093219044097
 20
430.4435604581133
 30
0.0
 11
43.89470705028562
 21
430.4303989833566
 31
0.0
  0
LINE
  5
1E6
  8
0
  6
CONTINUOUS
 62
     7
 10
43.89470705028562
 20
430.4303989833566
 30
0.0
 11
43.87905413532285
 21
430.4173657780154
 31
0.0
  0
LINE
  5
1E7
  8
0
  6
CONTINUOUS
 62
     7
 10
43.87905413532285
 20
430.4173657780154
 30
0.0
 11
43.8623377632907
 21
430.4045477487687
 31
0.0
  0
LINE
  5
1E8
  8
0
  6
CONTINUOUS
 62
     7
 10
43.8623377632907
 20
430.4045477487687
 30
0.0
 11
43.84757999736544
 21
430.3940967009385
 31
0.0
  0
LINE
  5
1E9
  8
0
  6
CONTINUOUS
 62
     7
 10
43.84757999736544
 20
430.3940967009385
 30
0.0
 11
43.83206008288272
 21
430.3839148860623
 31
0.0
  0
LINE
  5
1EA
  8
0
  6
CONTINUOUS
 62
     7
 10
43.83206008288272
 20
430.3839148860623
 30
0.0
 11
43.81577172391398
 21
430.3740606030541
 31
0.0
  0
LINE
  5
1EB
  8
0
  6
CONTINUOUS
 62
     7
 10
43.81577172391398
 20
430.3740606030541
 30
0.0
 11
43.79871178195292
 21
430.3645943880442
 31
0.0
  0
LINE
  5
1EC
  8
0
  6
CONTINUOUS
 62
     7
 10
43.79871178195292
 20
430.3645943880442
 30
0.0
 11
43.78088057112419
 21
430.3555788818811
 31
0.0
  0
LINE
  5
1ED
  8
0
  6
CONTINUOUS
 62
     7
 10
43.78088057112419
 20
430.3555788818811
 30
0.0
 11
43.76228215826111
 21
430.3470786693732
 31
0.0
  0
LINE
  5
1EE
  8
0
  6
CONTINUOUS
 62
     7
 10
43.76228215826111
 20
430.3470786693732
 30
0.0
 11
43.74292466603364
 21
430.339160088552
 31
0.0
  0
LINE
  5
1EF
  8
0
  6
CONTINUOUS
 62
     7
 10
43.74292466603364
 20
430.339160088552
 30
0.0
 11
43.72282057705694
 21
430.331891008314
 31
0.0
  0
LINE
  5
1F0
  8
0
  6
CONTINUOUS
 62
     7
 10
43.72282057705694
 20
430.331891008314
 30
0.0
 11
43.70198703665204
 21
430.325340572915
 31
0.0
  0
LINE
  5
1F1
  8
0
  6
CONTINUOUS
 62
     7
 10
43.70198703665204
 20
430.325340572915
 30
0.0
 11
43.680446151661
 21
430.3195789119202
 31
0.0
  0
LINE
  5
1F2
  8
0
  6
CONTINUOUS
 62
     7
 10
43.680446151661
 20
430.3195789119202
 30
0.0
 11
43.65822528244458
 21
430.3146768143898
 31
0.0
  0
LINE
  5
1F3
  8
0
  6
CONTINUOUS
 62
     7
 10
43.65822528244458
 20
430.3146768143898
 30
0.0
 11
43.63535732491072
 21
430.3107053662768
 31
0.0
  0
LINE
  5
1F4
  8
0
  6
CONTINUOUS
 62
     7
 10
42.9999999999996
 20
525.1059720543338
 30
0.0
 11
39.88040086767375
 21
525.9256638784094
 31
0.0
  0
LINE
  5
1F5
  8
0
  6
CONTINUOUS
 62
     7
 10
39.88040086767375
 20
525.9256638784093
 30
0.0
 11
36.98929411567767
 21
527.3521500023029
 31
0.0
  0
LINE
  5
1F6
  8
0
  6
CONTINUOUS
 62
     7
 10
36.98929411567767
 20
527.3521500023029
 30
0.0
 11
34.44423187682294
 21
529.3274296323136
 31
0.0
  0
LINE
  5
1F7
  8
0
  6
CONTINUOUS
 62
     7
 10
34.44423187682294
 20
529.3274296323136
 30
0.0
 11
32.34869614606151
 21
531.7711880816015
 31
0.0
  0
LINE
  5
1F8
  8
0
  6
CONTINUOUS
 62
     7
 10
32.34869614606151
 20
531.7711880816015
 30
0.0
 11
30.78789121215367
 21
534.5840623579172
 31
0.0
  0
LINE
  5
1F9
  8
0
  6
CONTINUOUS
 62
     7
 10
30.78789121215367
 20
534.5840623579172
 30
0.0
 11
29.82527925917722
 21
537.6516812536662
 31
0.0
  0
LINE
  5
1FA
  8
0
  6
CONTINUOUS
 62
     7
 10
29.82527925917722
 20
537.6516812536662
 30
0.0
 11
29.4999999999996
 21
540.8493156686171
 31
0.0
  0
LINE
  5
1FB
  8
0
  6
CONTINUOUS
 62
     7
 10
61.4999999999996
 20
540.8493156686171
 30
0.0
 11
61.174720740822
 21
537.6516812536662
 31
0.0
  0
LINE
  5
1FC
  8
0
  6
CONTINUOUS
 62
     7
 10
61.174720740822
 20
537.6516812536662
 30
0.0
 11
60.21210878784553
 21
534.5840623579172
 31
0.0
  0
LINE
  5
1FD
  8
0
  6
CONTINUOUS
 62
     7
 10
60.21210878784553
 20
534.5840623579172
 30
0.0
 11
58.65130385393768
 21
531.7711880816015
 31
0.0
  0
LINE
  5
1FE
  8
0
  6
CONTINUOUS
 62
     7
 10
58.65130385393768
 20
531.7711880816015
 30
0.0
 11
56.55576812317626
 21
529.3274296323136
 31
0.0
  0
LINE
  5
1FF
  8
0
  6
CONTINUOUS
 62
     7
 10
56.55576812317626
 20
529.3274296323136
 30
0.0
 11
54.01070588432153
 21
527.3521500023029
 31
0.0
  0
LINE
  5
200
  8
0
  6
CONTINUOUS
 62
     7
 10
54.01070588432153
 20
527.3521500023029
 30
0.0
 11
51.11959913232545
 21
525.9256638784093
 31
0.0
  0
LINE
  5
201
  8
0
  6
CONTINUOUS
 62
     7
 10
51.11959913232545
 20
525.9256638784093
 30
0.0
 11
47.99999999999959
 21
525.1059720543337
 31
0.0
  0
LINE
  5
202
  8
0
  6
CONTINUOUS
 62
     7
 10
56.79837244675973
 20
541.0087255956144
 30
0.0
 11
56.58127738829538
 21
538.8129101350522
 31
0.0
  0
LINE
  5
203
  8
0
  6
CONTINUOUS
 62
     7
 10
56.58127738829538
 20
538.8129101350522
 30
0.0
 11
55.93833505425076
 21
536.7014786312122
 31
0.0
  0
LINE
  5
204
  8
0
  6
CONTINUOUS
 62
     7
 10
55.93833505425076
 20
536.7014786312121
 30
0.0
 11
54.89425335795701
 21
534.755572212682
 31
0.0
  0
LINE
  5
205
  8
0
  6
CONTINUOUS
 62
     7
 10
54.89425335795701
 20
534.7555722126821
 30
0.0
 11
53.48915577347494
 21
533.0499709718491
 31
0.0
  0
LINE
  5
206
  8
0
  6
CONTINUOUS
 62
     7
 10
53.48915577347494
 20
533.0499709718491
 30
0.0
 11
51.77703941298837
 21
531.6502202078867
 31
0.0
  0
LINE
  5
207
  8
0
  6
CONTINUOUS
 62
     7
 10
51.77703941298837
 20
531.6502202078867
 30
0.0
 11
49.82369994806491
 21
530.6101115576643
 31
0.0
  0
LINE
  5
208
  8
0
  6
CONTINUOUS
 62
     7
 10
49.82369994806491
 20
530.6101115576643
 30
0.0
 11
47.70420311889619
 21
529.9696158133103
 31
0.0
  0
LINE
  5
209
  8
0
  6
CONTINUOUS
 62
     7
 10
47.70420311889619
 20
529.9696158133103
 30
0.0
 11
45.4999999999996
 21
529.7533468670861
 31
0.0
  0
LINE
  5
20A
  8
0
  6
CONTINUOUS
 62
     7
 10
45.4999999999996
 20
529.7533468670861
 30
0.0
 11
43.29579688110302
 21
529.9696158133103
 31
0.0
  0
LINE
  5
20B
  8
0
  6
CONTINUOUS
 62
     7
 10
43.29579688110302
 20
529.9696158133103
 30
0.0
 11
41.17630005193427
 21
530.6101115576643
 31
0.0
  0
LINE
  5
20C
  8
0
  6
CONTINUOUS
 62
     7
 10
41.17630005193427
 20
530.6101115576643
 30
0.0
 11
39.22296058701082
 21
531.6502202078867
 31
0.0
  0
LINE
  5
20D
  8
0
  6
CONTINUOUS
 62
     7
 10
39.22296058701082
 20
531.6502202078867
 30
0.0
 11
37.51084422652426
 21
533.0499709718492
 31
0.0
  0
LINE
  5
20E
  8
0
  6
CONTINUOUS
 62
     7
 10
37.51084422652426
 20
533.0499709718491
 30
0.0
 11
36.10574664204219
 21
534.7555722126821
 31
0.0
  0
LINE
  5
20F
  8
0
  6
CONTINUOUS
 62
     7
 10
36.10574664204219
 20
534.7555722126821
 30
0.0
 11
35.06166494574844
 21
536.7014786312121
 31
0.0
  0
LINE
  5
210
  8
0
  6
CONTINUOUS
 62
     7
 10
35.06166494574844
 20
536.7014786312121
 30
0.0
 11
34.41872261170383
 21
538.8129101350521
 31
0.0
  0
LINE
  5
211
  8
0
  6
CONTINUOUS
 62
     7
 10
34.41872261170383
 20
538.8129101350522
 30
0.0
 11
34.20162755323947
 21
541.0087255956144
 31
0.0
  0
LINE
  5
212
  8
0
  6
CONTINUOUS
 62
     7
 10
34.20162755323946
 20
541.0087255956144
 30
0.0
 11
34.41872261170383
 21
543.2045410561765
 31
0.0
  0
LINE
  5
213
  8
0
  6
CONTINUOUS
 62
     7
 10
34.41872261170383
 20
543.2045410561765
 30
0.0
 11
35.06166494574844
 21
545.3159725600165
 31
0.0
  0
LINE
  5
214
  8
0
  6
CONTINUOUS
 62
     7
 10
35.06166494574844
 20
545.3159725600165
 30
0.0
 11
36.10574664204221
 21
547.2618789785466
 31
0.0
  0
LINE
  5
215
  8
0
  6
CONTINUOUS
 62
     7
 10
36.10574664204221
 20
547.2618789785466
 30
0.0
 11
37.51084422652427
 21
548.9674802193796
 31
0.0
  0
LINE
  5
216
  8
0
  6
CONTINUOUS
 62
     7
 10
37.51084422652426
 20
548.9674802193796
 30
0.0
 11
39.22296058701085
 21
550.3672309833422
 31
0.0
  0
LINE
  5
217
  8
0
  6
CONTINUOUS
 62
     7
 10
39.22296058701085
 20
550.3672309833422
 30
0.0
 11
41.17630005193431
 21
551.4073396335646
 31
0.0
  0
LINE
  5
218
  8
0
  6
CONTINUOUS
 62
     7
 10
41.17630005193431
 20
551.4073396335646
 30
0.0
 11
43.29579688110304
 21
552.0478353779185
 31
0.0
  0
LINE
  5
219
  8
0
  6
CONTINUOUS
 62
     7
 10
43.29579688110304
 20
552.0478353779185
 30
0.0
 11
45.49999999999963
 21
552.2641043241427
 31
0.0
  0
LINE
  5
21A
  8
0
  6
CONTINUOUS
 62
     7
 10
45.49999999999963
 20
552.2641043241427
 30
0.0
 11
47.7042031188962
 21
552.0478353779185
 31
0.0
  0
LINE
  5
21B
  8
0
  6
CONTINUOUS
 62
     7
 10
47.7042031188962
 20
552.0478353779185
 30
0.0
 11
49.82369994806496
 21
551.4073396335646
 31
0.0
  0
LINE
  5
21C
  8
0
  6
CONTINUOUS
 62
     7
 10
49.82369994806496
 20
551.4073396335646
 30
0.0
 11
51.77703941298841
 21
550.3672309833422
 31
0.0
  0
LINE
  5
21D
  8
0
  6
CONTINUOUS
 62
     7
 10
51.77703941298841
 20
550.3672309833422
 30
0.0
 11
53.48915577347497
 21
548.9674802193796
 31
0.0
  0
LINE
  5
21E
  8
0
  6
CONTINUOUS
 62
     7
 10
53.48915577347497
 20
548.9674802193796
 30
0.0
 11
54.89425335795703
 21
547.2618789785466
 31
0.0
  0
LINE
  5
21F
  8
0
  6
CONTINUOUS
 62
     7
 10
54.89425335795703
 20
547.2618789785466
 30
0.0
 11
55.93833505425079
 21
545.3159725600165
 31
0.0
  0
LINE
  5
220
  8
0
  6
CONTINUOUS
 62
     7
 10
55.93833505425079
 20
545.3159725600165
 30
0.0
 11
56.58127738829538
 21
543.2045410561764
 31
0.0
  0
LINE
  5
221
  8
0
  6
CONTINUOUS
 62
     7
 10
56.58127738829538
 20
543.2045410561764
 30
0.0
 11
56.79837244675973
 21
541.0087255956142
 31
0.0
  0
LINE
  5
222
  8
0
  6
CONTINUOUS
 62
     7
 10
45.49999999999959
 20
510.6996038228742
 30
0.0
 11
39.07541665962228
 21
511.4004780654534
 31
0.0
  0
LINE
  5
223
  8
0
  6
CONTINUOUS
 62
     7
 10
39.07541665962228
 20
511.4004780654533
 30
0.0
 11
32.95307628767586
 21
513.470128334068
 31
0.0
  0
LINE
  5
224
  8
0
  6
CONTINUOUS
 62
     7
 10
32.95307628767586
 20
513.4701283340681
 30
0.0
 11
27.42100290528733
 21
516.8111884327087
 31
0.0
  0
LINE
  5
225
  8
0
  6
CONTINUOUS
 62
     7
 10
27.42100290528733
 20
516.8111884327087
 30
0.0
 11
22.73945156591087
 21
521.2664789976062
 31
0.0
  0
LINE
  5
226
  8
0
  6
CONTINUOUS
 62
     7
 10
9.434642660857653
 20
505.0391119178512
 30
0.0
 11
13.6940221776677
 21
504.6745350595925
 31
0.0
  0
LINE
  5
227
  8
0
  6
CONTINUOUS
 62
     7
 10
13.6940221776677
 20
504.6745350595925
 30
0.0
 11
19.27604880320652
 21
504.3628221817415
 31
0.0
  0
LINE
  5
228
  8
0
  6
CONTINUOUS
 62
     7
 10
19.27604880320652
 20
504.3628221817416
 30
0.0
 11
25.94859474632877
 21
504.1169358204276
 31
0.0
  0
LINE
  5
229
  8
0
  6
CONTINUOUS
 62
     7
 10
25.94859474632877
 20
504.1169358204276
 30
0.0
 11
33.43418312363757
 21
503.9471011253591
 31
0.0
  0
LINE
  5
22A
  8
0
  6
CONTINUOUS
 62
     7
 10
33.43418312363757
 20
503.9471011253591
 30
0.0
 11
41.42152679660546
 21
503.8603806484143
 31
0.0
  0
LINE
  5
22B
  8
0
  6
CONTINUOUS
 62
     7
 10
41.42152679660546
 20
503.8603806484143
 30
0.0
 11
49.57847320339371
 21
503.8603806484143
 31
0.0
  0
LINE
  5
22C
  8
0
  6
CONTINUOUS
 62
     7
 10
49.57847320339371
 20
503.8603806484143
 30
0.0
 11
57.56581687636162
 21
503.9471011253591
 31
0.0
  0
LINE
  5
22D
  8
0
  6
CONTINUOUS
 62
     7
 10
57.56581687636162
 20
503.9471011253591
 30
0.0
 11
65.0514052536704
 21
504.1169358204276
 31
0.0
  0
LINE
  5
22E
  8
0
  6
CONTINUOUS
 62
     7
 10
65.0514052536704
 20
504.1169358204276
 30
0.0
 11
71.72395119679263
 21
504.3628221817416
 31
0.0
  0
LINE
  5
22F
  8
0
  6
CONTINUOUS
 62
     7
 10
71.72395119679264
 20
504.3628221817416
 30
0.0
 11
77.30597782233146
 21
504.6745350595925
 31
0.0
  0
LINE
  5
230
  8
0
  6
CONTINUOUS
 62
     7
 10
77.30597782233146
 20
504.6745350595925
 30
0.0
 11
81.56535733914153
 21
505.0391119178512
 31
0.0
  0
LINE
  5
231
  8
0
  6
CONTINUOUS
 62
     7
 10
68.26052095974735
 20
521.2664464776913
 30
0.0
 11
63.57897171473345
 21
516.8111690594698
 31
0.0
  0
LINE
  5
232
  8
0
  6
CONTINUOUS
 62
     7
 10
63.57897171473345
 20
516.8111690594698
 30
0.0
 11
58.04690440551793
 21
513.4701193706455
 31
0.0
  0
LINE
  5
233
  8
0
  6
CONTINUOUS
 62
     7
 10
58.04690440551794
 20
513.4701193706455
 30
0.0
 11
51.92457294770556
 21
511.4004757706177
 31
0.0
  0
LINE
  5
234
  8
0
  6
CONTINUOUS
 62
     7
 10
51.92457294770556
 20
511.4004757706177
 30
0.0
 11
45.49999999999959
 21
510.6996038228742
 31
0.0
  0
LINE
  5
235
  8
0
  6
CONTINUOUS
 62
     7
 10
33.3208368145788
 20
557.3578947281568
 30
0.0
 11
36.58137125050389
 21
557.6789427695949
 31
0.0
  0
LINE
  5
236
  8
0
  6
CONTINUOUS
 62
     7
 10
36.58137125050389
 20
557.6789427695948
 30
0.0
 11
40.54701176895215
 21
557.9227747071562
 31
0.0
  0
LINE
  5
237
  8
0
  6
________________
 62
     2
 10
45.4999999999996
 20
374.8999999999999
 30
0.0
 11
45.4999999999996
 21
461.0998942586589
 31
0.0
  0
ARC
  5
239
  8
0
  6
CONTINUOUS
 62
     7
 10
45.4999999999996
 20
417.9
 30
0.0
 40
33.78930898271919
 50
93.3765560083706
 51
266.6234439916295
  0
ARC
  5
23A
  8
0
  6
CONTINUOUS
 62
     7
 10
45.4999999999996
 20
417.9
 30
0.0
 40
12.54567464376541
 50
97.55376740435588
 51
262.4263543233803
  0
LINE
  5
23B
  8
0
  6
CONTINUOUS
 62
     7
 10
44.00432535623419
 20
430.5102908454816
 30
0.0
 11
44.00432535623419
 21
451.0944088639416
 31
0.0
  0
LINE
  5
23C
  8
0
  6
CONTINUOUS
 62
     7
 10
44.00432535623419
 20
384.7055911360583
 30
0.0
 11
44.00432535623419
 21
405.2909629276467
 31
0.0
  0
LINE
  5
23D
  8
0
  6
________________
 62
     2
 10
45.4999999999996
 20
486.7391119178512
 30
0.0
 11
45.4999999999996
 21
576.2891119178514
 31
0.0
  0
LINE
  5
23E
  8
0
  6
________________
 62
     2
 10
2.499999999999592
 20
417.9
 30
0.0
 11
88.49999999999962
 21
417.9
 31
0.0
  0
LINE
  5
23F
  8
0
  6
________________
 62
     2
 10
2.499999999999592
 20
540.5391119178513
 30
0.0
 11
88.49999999999959
 21
540.5391119178513
 31
0.0
  0
LINE
  5
240
  8
0
  6
CONTINUOUS
 62
     7
 10
45.4832162161556
 20
567.9845666069356
 30
0.0
 11
44.19548636717721
 21
567.9845982850288
 31
0.0
  0
ARC
  5
241
  8
0
  6
CONTINUOUS
 62
     7
 10
37.77564194815102
 20
510.340681930086
 30
0.0
 40
47.22778406909612
 50
95.41252481351317
 51
107.3596839008492
  0
LINE
  5
242
  8
0
  6
CONTINUOUS
 62
     7
 10
12.7499999999996
 20
540.5391119178513
 30
0.0
 11
12.74999999999959
 21
508.0391119178513
 31
0.0
  0
ARC
  5
243
  8
0
  6
CONTINUOUS
 62
     7
 10
5.999999999999596
 20
490.2391119178512
 30
0.0
 40
0.5000000000000004
 50
180.0
 51
270.0
  0
LINE
  5
244
  8
0
  6
CONTINUOUS
 62
     7
 10
44.24999999999962
 20
568.0391119178514
 30
0.0
 11
46.74999999999962
 21
568.0391119178514
 31
0.0
  0
ARC
  5
245
  8
0
  6
CONTINUOUS
 62
     7
 10
45.50012440865864
 20
540.5131079373314
 30
0.0
 40
28.91271288072587
 50
315.7238411092869
 51
87.32767061211176
  0
ARC
  5
246
  8
0
  6
CONTINUOUS
 62
     7
 10
45.50357745589341
 20
540.3102208671683
 30
0.0
 40
26.53870106984234
 50
145.3023511650441
 51
270.0443230058894
  0
ARC
  5
247
  8
0
  6
CONTINUOUS
 62
     7
 10
45.50025900322116
 20
540.5130683391346
 30
0.0
 40
28.24291520646853
 50
270.0224773329313
 51
87.35314424158196
  0
LINE
  5
248
  8
0
  6
CONTINUOUS
 62
     7
 10
44.15184739780379
 20
569.395133179502
 30
0.0
 11
44.19548463830974
 21
568.7266082310136
 31
0.0
  0
LINE
  5
249
  8
0
  6
CONTINUOUS
 62
     7
 10
44.24999999999962
 20
568.0391119178514
 30
0.0
 11
44.19548636717721
 21
567.9845982850289
 31
0.0
  0
ARC
  5
24A
  8
0
  6
CONTINUOUS
 62
     7
 10
45.50002047590724
 20
540.5130707557297
 30
0.0
 40
29.80729426517214
 50
92.59235535312848
 51
220.21823437883
  0
ARC
  5
24B
  8
0
  6
CONTINUOUS
 62
     7
 10
45.4986598538612
 20
540.9233505201188
 30
0.0
 40
26.19239148782924
 50
33.59807228896619
 51
89.99706843425392
  0
ARC
  5
24C
  8
0
  6
CONTINUOUS
 62
     7
 10
45.49663920900518
 20
540.7759895745327
 30
0.0
 40
29.09932356103
 50
270.0217146822981
 51
315.3580314573854
  0
ARC
  5
24D
  8
0
  6
CONTINUOUS
 62
     7
 10
45.50337154477636
 20
540.7760304376791
 30
0.0
 40
29.09936265145678
 50
224.6400332036168
 51
270.0084588837556
  0
CIRCLE
  5
24E
  8
0
  6
CONTINUOUS
 62
     7
 10
45.49297756115799
 20
540.5390053288418
 30
0.0
 40
17.49989481998896
  0
ARC
  5
24F
  8
0
  6
CONTINUOUS
 62
     7
 10
45.49652257986551
 20
540.3099911195562
 30
0.0
 40
26.53847771759214
 50
270.0595546515251
 51
34.69858601522453
  0
ARC
  5
250
  8
0
  6
CONTINUOUS
 62
     7
 10
45.50133997216312
 20
540.5129691961399
 30
0.0
 40
28.91367369550366
 50
92.67514704481835
 51
224.2719459882136
  0
ARC
  5
251
  8
0
  6
CONTINUOUS
 62
     7
 10
45.49445903536596
 20
540.7742660628228
 30
0.0
 40
16.03143132567379
 50
98.93608505167369
 51
126.8017192189796
  0
LINE
  5
252
  8
0
  6
CONTINUOUS
 62
     7
 10
40.54701176895216
 20
557.9227747071565
 30
0.0
 11
40.67291877091239
 21
557.9013953260074
 31
0.0
  0
ARC
  5
253
  8
0
  6
CONTINUOUS
 62
     7
 10
84.99999999999959
 20
490.2391119178512
 30
0.0
 40
0.5000000000000004
 50
270.0
 51
0.0
  0
LINE
  5
254
  8
0
  6
CONTINUOUS
 62
     7
 10
46.74999999999962
 20
568.0391119178514
 30
0.0
 11
46.80451271903157
 21
567.9845991988194
 31
0.0
  0
LINE
  5
255
  8
0
  6
CONTINUOUS
 62
     7
 10
46.74999999999962
 20
570.3879498350291
 30
0.0
 11
46.74999999999962
 21
568.0391119178514
 31
0.0
  0
LINE
  5
256
  8
0
  6
CONTINUOUS
 62
     7
 10
22.73945156591086
 20
521.2664789976062
 30
0.0
 11
24.79814862416738
 21
520.3293520211023
 31
0.0
  0
LINE
  5
257
  8
0
  6
CONTINUOUS
 62
     7
 10
66.20114359644614
 20
520.3286393856365
 30
0.0
 11
68.26052095975267
 21
521.2664464776868
 31
0.0
  0
LINE
  5
258
  8
0
  6
CONTINUOUS
 62
     7
 10
45.4999999999996
 20
567.1157419736633
 30
0.0
 11
45.47436815216733
 21
567.1156523507428
 31
0.0
  0
LINE
  5
259
  8
0
  6
CONTINUOUS
 62
     7
 10
46.84168724186009
 20
570.2963344457476
 30
0.0
 11
46.84815378381273
 21
570.2898613790704
 31
0.0
  0
LINE
  5
25A
  8
0
  6
CONTINUOUS
 62
     7
 10
78.2499999999996
 20
508.0391119178513
 30
0.0
 11
78.24999999999962
 21
540.5391119178513
 31
0.0
  0
ARC
  5
25B
  8
0
  6
CONTINUOUS
 62
     7
 10
45.49997922566461
 20
540.5130710446758
 30
0.0
 40
29.80729469864363
 50
319.7816837350823
 51
87.4076455383331
  0
LINE
  5
25C
  8
0
  6
CONTINUOUS
 62
     7
 10
46.80451271903157
 20
567.9845991988194
 30
0.0
 11
45.4832162161556
 21
567.9845666069356
 31
0.0
  0
LINE
  5
25D
  8
0
  6
CONTINUOUS
 62
     7
 10
85.49999999999959
 20
490.2391119178512
 30
0.0
 11
85.49999999999959
 21
492.0391119178514
 31
0.0
  0
LINE
  5
25E
  8
0
  6
CONTINUOUS
 62
     7
 10
44.15831276160213
 20
570.2963344492147
 30
0.0
 11
44.15184547407329
 21
570.2898606361217
 31
0.0
  0
LINE
  5
25F
  8
0
  6
CONTINUOUS
 62
     7
 10
50.32613048054206
 20
557.9016550236774
 30
0.0
 11
50.4521988147409
 21
557.9229998035921
 31
0.0
  0
LINE
  5
260
  8
0
  6
CONTINUOUS
 62
     7
 10
29.4999999999996
 20
540.8633390597703
 30
0.0
 11
29.4999999999996
 21
540.8493156686171
 31
0.0
  0
LINE
  5
261
  8
0
  6
CONTINUOUS
 62
     7
 10
5.499999999999595
 20
505.0391119178514
 30
0.0
 11
5.499999999999595
 21
492.0391119178514
 31
0.0
  0
LINE
  5
262
  8
0
  6
CONTINUOUS
 62
     7
 10
40.79844333994274
 20
557.4306263543009
 30
0.0
 11
40.67291877093827
 21
557.9013953260184
 31
0.0
  0
ARC
  5
263
  8
0
  6
CONTINUOUS
 62
     7
 10
45.50137832513143
 20
540.9224930181844
 30
0.0
 40
26.19317325889019
 50
90.05908292110067
 51
146.4008118535774
  0
LINE
  5
264
  8
0
  6
CONTINUOUS
 62
     7
 10
46.84815183486172
 20
569.3943784803927
 30
0.0
 11
46.80451451923236
 21
568.7258522660841
 31
0.0
  0
LINE
  5
265
  8
0
  6
CONTINUOUS
 62
     7
 10
44.15184547407635
 20
570.2898606360208
 30
0.0
 11
44.15184739780379
 21
569.395133179502
 31
0.0
  0
LINE
  5
266
  8
0
  6
CONTINUOUS
 62
     7
 10
46.80451451923236
 20
568.7258522660841
 30
0.0
 11
46.80451271903157
 21
567.9845991988195
 31
0.0
  0
ARC
  5
267
  8
0
  6
CONTINUOUS
 62
     7
 10
49.47234943189046
 20
493.3329430408055
 30
0.0
 40
64.59748863100683
 50
73.9653802886166
 51
89.13087352960667
  0
LINE
  5
268
  8
0
  6
CONTINUOUS
 62
     7
 10
44.24999999999962
 20
570.3879498349294
 30
0.0
 11
44.24999999999962
 21
568.0391119178514
 31
0.0
  0
LINE
  5
269
  8
0
  6
CONTINUOUS
 62
     7
 10
12.74999999999959
 20
508.0391119178513
 30
0.0
 11
9.749999999999606
 21
505.0391119178513
 31
0.0
  0
LINE
  5
26A
  8
0
  6
CONTINUOUS
 62
     7
 10
50.32613048054206
 20
557.9016550236774
 30
0.0
 11
50.20063861005949
 21
557.4308814358309
 31
0.0
  0
LINE
  5
26B
  8
0
  6
CONTINUOUS
 62
     7
 10
61.4999999999996
 20
540.8493156686171
 30
0.0
 11
61.4999999999996
 21
540.8633390597703
 31
0.0
  0
LINE
  5
26C
  8
0
  6
CONTINUOUS
 62
     7
 10
44.19548463830974
 20
568.7266082310136
 30
0.0
 11
44.19548636717721
 21
567.9845982850289
 31
0.0
  0
ARC
  5
26D
  8
0
  6
CONTINUOUS
 62
     7
 10
45.50032645947275
 20
540.5130716870108
 30
0.0
 40
27.38415157572045
 50
270.0370733310981
 51
90.03722696493878
  0
LINE
  5
26E
  8
0
  6
CONTINUOUS
 62
     7
 10
5.499999999999595
 20
492.0391119178514
 30
0.0
 11
5.499999999999595
 21
490.2391119178512
 31
0.0
  0
LINE
  5
26F
  8
0
  6
CONTINUOUS
 62
     7
 10
81.2499999999996
 20
505.0391119178514
 30
0.0
 11
78.2499999999996
 21
508.0391119178514
 31
0.0
  0
ARC
  5
270
  8
0
  6
CONTINUOUS
 62
     7
 10
45.50590960600604
 20
540.7751304474383
 30
0.0
 40
16.03052018013191
 50
53.23480058178886
 51
81.06495972824133
  0
LINE
  5
271
  8
0
  6
CONTINUOUS
 62
     7
 10
46.84815378380602
 20
570.289861378971
 30
0.0
 11
46.84815183486172
 21
569.3943784803927
 31
0.0
  0
LINE
  5
272
  8
0
  6
CONTINUOUS
 62
     7
 10
85.49999999999959
 20
492.0391119178514
 30
0.0
 11
85.49999999999959
 21
505.0391119178512
 31
0.0
  0
ARC
  5
273
  8
0
  6
CONTINUOUS
 62
     7
 10
37.10371635079235
 20
440.3838388535003
 30
0.0
 40
0.2000000000000057
 50
243.6348008824932
 51
20.00000000000193
  0
LINE
  5
274
  8
0
  6
CONTINUOUS
 62
     7
 10
17.31051177665114
 20
418.9845484915693
 30
0.0
 11
17.31051177665114
 21
416.8154515084307
 31
0.0
  0
LINE
  5
275
  8
0
  6
CONTINUOUS
 62
     7
 10
34.91287501575907
 20
446.9878868311447
 30
0.0
 11
35.17121817745411
 21
446.2780948279171
 31
0.0
  0
ARC
  5
276
  8
0
  6
CONTINUOUS
 62
     7
 10
42.0125545776269
 20
442.8575183947839
 30
0.0
 40
0.1999999999999988
 50
277.9547331827206
 51
7.499999999998807
  0
LINE
  5
277
  8
0
  6
CONTINUOUS
 62
     7
 10
47.48490532394234
 20
452.5932652088989
 30
0.0
 11
47.45202126634329
 21
452.5940628826078
 31
0.0
  0
ARC
  5
278
  8
0
  6
CONTINUOUS
 62
     7
 10
45.4999999999996
 20
417.9
 30
0.0
 40
12.54567464376543
 50
277.5736456766196
 51
354.760433061174
  0
LINE
  5
279
  8
0
  6
CONTINUOUS
 62
     7
 10
43.5479787336559
 20
452.5940628826078
 30
0.0
 11
43.51509467605684
 21
452.5932652088987
 31
0.0
  0
ARC
  5
27A
  8
0
  6
CONTINUOUS
 62
     7
 10
45.49999999999959
 20
417.9
 30
0.0
 40
34.75000000000001
 50
181.8244833693154
 51
266.7255070380081
  0
ARC
  5
27B
  8
0
  6
CONTINUOUS
 62
     7
 10
45.49999999999959
 20
417.9
 30
0.0
 40
30.0
 50
70.37944502206474
 51
82.11546168019518
  0
ARC
  5
27C
  8
0
  6
CONTINUOUS
 62
     7
 10
45.49999999999959
 20
417.9
 30
0.0
 40
25.00000000000001
 50
70.46206774663972
 51
82.04526681727987
  0
ARC
  5
27D
  8
0
  6
CONTINUOUS
 62
     7
 10
49.58788189797414
 20
447.4182862237666
 30
0.0
 40
0.2000000000000543
 50
82.11546168019764
 51
172.5000000000003
  0
ARC
  5
27E
  8
0
  6
CONTINUOUS
 62
     7
 10
53.793885203138
 20
441.2720231952043
 30
0.0
 40
0.1999999999999572
 50
339.9999999999999
 51
70.46206774664121
  0
ARC
  5
27F
  8
0
  6
CONTINUOUS
 62
     7
 10
41.41211810202508
 20
447.4182862237666
 30
0.0
 40
0.2000000000000543
 50
7.499999999999659
 51
97.88453831980235
  0
LINE
  5
280
  8
0
  6
CONTINUOUS
 62
     7
 10
37.01489814062228
 20
440.2046425211099
 30
0.0
 11
32.96302658727488
 21
442.2129424366643
 31
0.0
  0
LINE
  5
281
  8
0
  6
CONTINUOUS
 62
     7
 10
47.45202126634329
 20
383.2059371173922
 30
0.0
 11
47.48490532394312
 21
383.2067347911013
 31
0.0
  0
ARC
  5
282
  8
0
  6
CONTINUOUS
 62
     7
 10
33.05184479744496
 20
442.3921387690547
 30
0.0
 40
0.1999999999999988
 50
159.7180776840162
 51
243.6348008824918
  0
ARC
  5
283
  8
0
  6
CONTINUOUS
 62
     7
 10
48.9874454223723
 20
442.8575183947839
 30
0.0
 40
0.1999999999999988
 50
172.5000000000012
 51
262.0452668172794
  0
ARC
  5
284
  8
0
  6
CONTINUOUS
 62
     7
 10
37.2061147968612
 20
441.2720231952043
 30
0.0
 40
0.1999999999999572
 50
109.5379322533588
 51
200.0000000000002
  0
ARC
  5
285
  8
0
  6
CONTINUOUS
 62
     7
 10
45.49999999999959
 20
417.9
 30
0.0
 40
25.00000000000001
 50
97.95473318272013
 51
109.5379322533603
  0
LINE
  5
286
  8
0
  6
CONTINUOUS
 62
     7
 10
44.04795969518798
 20
384.6592870003851
 30
0.0
 11
44.04795969518798
 21
383.7013198663074
 31
0.0
  0
LINE
  5
287
  8
0
  6
CONTINUOUS
 62
     7
 10
44.00432535623419
 20
451.0944088639416
 30
0.0
 11
44.00432535623419
 21
430.5636932269168
 31
0.0
  0
LINE
  5
288
  8
0
  6
CONTINUOUS
 62
     7
 10
32.86424512717175
 20
442.461466712291
 30
0.0
 11
34.53733682132868
 21
446.988810745716
 31
0.0
  0
ARC
  5
289
  8
0
  6
CONTINUOUS
 62
     7
 10
45.49999999999959
 20
417.9
 30
0.0
 40
34.75
 50
273.2744929619932
 51
358.1755166306846
  0
LINE
  5
28A
  8
0
  6
CONTINUOUS
 62
     7
 10
46.95204030481121
 20
451.140712999615
 30
0.0
 11
46.95204030481121
 21
452.0986801336928
 31
0.0
  0
LINE
  5
28B
  8
0
  6
CONTINUOUS
 62
     7
 10
23.34182811317914
 20
450.3000836207891
 30
0.0
 11
26.30359591391961
 21
448.9189886136268
 31
0.0
  0
LINE
  5
28C
  8
0
  6
CONTINUOUS
 62
     7
 10
46.995674643765
 20
384.7055911360583
 30
0.0
 11
46.995674643765
 21
405.2909629276467
 31
0.0
  0
LINE
  5
28D
  8
0
  6
CONTINUOUS
 62
     7
 10
56.08712498424011
 20
446.9878868311447
 30
0.0
 11
55.82878182254508
 21
446.2780948279171
 31
0.0
  0
ARC
  5
28E
  8
0
  6
CONTINUOUS
 62
     7
 10
55.6408432983879
 20
446.3464988565823
 30
0.0
 40
0.2000000000000057
 50
250.3794450220643
 51
340.000000000001
  0
LINE
  5
28F
  8
0
  6
CONTINUOUS
 62
     7
 10
53.98182372729519
 20
441.2036191665391
 30
0.0
 11
53.70834512504965
 21
440.4522428821654
 31
0.0
  0
ARC
  5
290
  8
0
  6
CONTINUOUS
 62
     7
 10
53.89628364920684
 20
440.3838388535003
 30
0.0
 40
0.2000000000000057
 50
159.9999999999981
 51
296.3651991175068
  0
ARC
  5
291
  8
0
  6
CONTINUOUS
 62
     7
 10
23.13051898230879
 20
449.8469297272707
 30
0.0
 40
0.4999999999999796
 50
65.00000000000011
 51
124.9999999999999
  0
ARC
  5
292
  8
0
  6
CONTINUOUS
 62
     7
 10
56.2750635083973
 20
446.9194828024795
 30
0.0
 40
0.1999999999999919
 50
20.28192231598512
 51
159.9999999999998
  0
LINE
  5
293
  8
0
  6
CONTINUOUS
 62
     7
 10
41.61040707429983
 20
447.4443914622107
 30
0.0
 11
42.21084354990165
 21
442.8836236332278
 31
0.0
  0
LINE
  5
294
  8
0
  6
CONTINUOUS
 62
     7
 10
58.13575487282746
 20
442.461466712291
 30
0.0
 11
56.46266317867051
 21
446.988810745716
 31
0.0
  0
ARC
  5
295
  8
0
  6
CONTINUOUS
 62
     7
 10
45.49999999999959
 20
417.9
 30
0.0
 40
34.75
 50
93.27449296199194
 51
178.1755166306845
  0
LINE
  5
296
  8
0
  6
CONTINUOUS
 62
     7
 10
46.95204030481121
 20
383.7013198663074
 30
0.0
 11
46.95204030481121
 21
384.6592870003851
 31
0.0
  0
LINE
  5
297
  8
0
  6
CONTINUOUS
 62
     7
 10
49.38959292569938
 20
447.4443914622107
 30
0.0
 11
48.78915645009754
 21
442.8836236332278
 31
0.0
  0
LINE
  5
298
  8
0
  6
CONTINUOUS
 62
     7
 10
53.98510185937691
 20
440.2046425211099
 30
0.0
 11
58.03697341272431
 21
442.2129424366643
 31
0.0
  0
ARC
  5
299
  8
0
  6
CONTINUOUS
 62
     7
 10
57.94815520255424
 20
442.3921387690547
 30
0.0
 40
0.2000000000000057
 50
296.3651991175082
 51
20.28192231598388
  0
ARC
  5
29A
  8
0
  6
CONTINUOUS
 62
     7
 10
34.72493649160189
 20
446.9194828024795
 30
0.0
 40
0.1999999999999988
 50
20.00000000000023
 51
159.7180776840148
  0
ARC
  5
29B
  8
0
  6
CONTINUOUS
 62
     7
 10
35.35915670161129
 20
446.3464988565823
 30
0.0
 40
0.2000000000000057
 50
199.9999999999991
 51
289.6205549779356
  0
ARC
  5
29C
  8
0
  6
CONTINUOUS
 62
     7
 10
26.09228678304926
 20
448.4658347201086
 30
0.0
 40
0.4999999999999761
 50
305.0000000000007
 51
65.00000000000045
  0
ARC
  5
29D
  8
0
  6
CONTINUOUS
 62
     7
 10
45.4999999999996
 20
417.9
 30
0.0
 40
30.0
 50
97.88453831980485
 51
109.6205549779353
  0
LINE
  5
29E
  8
0
  6
CONTINUOUS
 62
     7
 10
37.01817627270403
 20
441.2036191665391
 30
0.0
 11
37.29165487494954
 21
440.4522428821654
 31
0.0
  0
ARC
  5
29F
  8
0
  6
CONTINUOUS
 62
     7
 10
45.49999999999959
 20
417.9
 30
0.0
 40
12.55
 50
98.54447557828671
 51
175.0224218298717
  0
LINE
  5
2A0
  8
0
  6
CONTINUOUS
 62
     7
 10
43.51509467605685
 20
383.2067347911013
 30
0.0
 11
43.54797873365591
 21
383.2059371173922
 31
0.0
  0
ARC
  5
2A1
  8
0
  6
CONTINUOUS
 62
     7
 10
45.49999999999959
 20
417.9
 30
0.0
 40
12.54999999999998
 50
4.977578170128197
 51
81.4555244217132
  0
ARC
  5
2A2
  8
0
  6
CONTINUOUS
 62
     7
 10
45.49999999999959
 20
417.9
 30
0.0
 40
34.75000000000001
 50
1.824483369315431
 51
86.72550703800806
  0
LINE
  5
2A3
  8
0
  6
CONTINUOUS
 62
     7
 10
46.995674643765
 20
430.5715333263983
 30
0.0
 11
46.995674643765
 21
451.0944088639416
 31
0.0
  0
LINE
  5
2A4
  8
0
  6
CONTINUOUS
 62
     7
 10
44.04795969518798
 20
452.0986801336928
 30
0.0
 11
44.04795969518798
 21
451.140712999615
 31
0.0
  0
LINE
  5
2A5
  8
0
  6
CONTINUOUS
 62
     7
 10
43.01982317483009
 20
525.9856275242876
 30
0.0
 11
43.00280852638437
 21
525.1195531017532
 31
0.0
  0
LINE
  5
2A6
  8
0
  6
CONTINUOUS
 62
     7
 10
42.99999999999962
 20
524.9102004991493
 30
0.0
 11
42.9999999999996
 21
525.1059720543338
 31
0.0
  0
LINE
  5
2A7
  8
0
  6
CONTINUOUS
 62
     7
 10
42.9999999999996
 20
525.1059720543336
 30
0.0
 11
43.00280852638437
 21
525.1195531017534
 31
0.0
  0
LINE
  5
2A8
  8
0
  6
CONTINUOUS
 62
     7
 10
47.65389108210282
 20
555.9120134919929
 30
0.0
 11
43.34610891789638
 21
555.9120134919929
 31
0.0
  0
LINE
  5
2A9
  8
0
  6
CONTINUOUS
 62
     7
 10
43.01982317483009
 20
555.910963950371
 30
0.0
 11
43.34610891789638
 21
555.9120134919929
 31
0.0
  0
LINE
  5
2AA
  8
0
  6
CONTINUOUS
 62
     7
 10
47.65389108210282
 20
555.9120134919929
 30
0.0
 11
47.98017682516912
 21
555.9109639503708
 31
0.0
  0
LINE
  5
2AB
  8
0
  6
CONTINUOUS
 62
     7
 10
41.84436560903756
 20
457.9326039470133
 30
0.0
 11
41.85184544542485
 21
457.9332897002739
 31
0.0
  0
LINE
  5
2AC
  8
0
  6
CONTINUOUS
 62
     7
 10
47.97381740260727
 20
526.011045846658
 30
0.0
 11
47.97381740260727
 21
525.0670170779754
 31
0.0
  0
LINE
  5
2AD
  8
0
  6
CONTINUOUS
 62
     7
 10
47.97381740260727
 20
525.0670170779753
 30
0.0
 11
43.02618259739193
 21
525.0670170779753
 31
0.0
  0
LINE
  5
2AE
  8
0
  6
CONTINUOUS
 62
     7
 10
41.84438920454505
 20
457.9326061124822
 30
0.0
 11
45.40802556818142
 21
458.0998942586588
 31
0.0
  0
LINE
  5
2AF
  8
0
  6
CONTINUOUS
 62
     7
 10
13.09561028557831
 20
455.0000000000001
 30
0.0
 11
12.85141304729994
 21
441.0099495886947
 31
0.0
  0
LINE
  5
2B0
  8
0
  6
CONTINUOUS
 62
     7
 10
41.83319678677756
 20
457.9315773500813
 30
0.0
 11
41.84438920454505
 21
457.9326061124822
 31
0.0
  0
LINE
  5
2B1
  8
0
  6
CONTINUOUS
 62
     7
 10
47.99999999999961
 20
525.1059720543338
 30
0.0
 11
47.99999999999961
 21
524.9102004991493
 31
0.0
  0
LINE
  5
2B2
  8
0
  6
CONTINUOUS
 62
     7
 10
47.97381740260727
 20
525.0670170779753
 30
0.0
 11
47.99999999999961
 21
524.9102004991493
 31
0.0
  0
LINE
  5
2B3
  8
0
  6
CONTINUOUS
 62
     7
 10
43.02618259739193
 20
526.011045846658
 30
0.0
 11
43.01982317483009
 21
525.9856275242876
 31
0.0
  0
LINE
  5
2B4
  8
0
  6
CONTINUOUS
 62
     7
 10
43.02618259739193
 20
525.0670170779753
 30
0.0
 11
43.02618259739193
 21
526.011045846658
 31
0.0
  0
LINE
  5
2B5
  8
0
  6
CONTINUOUS
 62
     7
 10
43.02618259739193
 20
525.0670170779753
 30
0.0
 11
42.99999999999962
 21
524.9102004991493
 31
0.0
  0
LINE
  5
2B6
  8
0
  6
CONTINUOUS
 62
     7
 10
41.50500312891196
 20
378.1
 30
0.0
 11
12.94635452529169
 21
378.1
 31
0.0
  0
LINE
  5
2B7
  8
0
  6
CONTINUOUS
 62
     7
 10
47.99999999999961
 20
524.9102004991493
 30
0.0
 11
42.99999999999962
 21
524.9102004991493
 31
0.0
  0
LINE
  5
2B8
  8
0
  6
CONTINUOUS
 62
     7
 10
43.02618259739193
 20
526.011045846658
 30
0.0
 11
47.97381740260727
 21
526.011045846658
 31
0.0
  0
LINE
  5
2B9
  8
0
  6
CONTINUOUS
 62
     7
 10
47.99719147361483
 20
525.1195531017532
 30
0.0
 11
47.98017682516912
 21
525.9856275242876
 31
0.0
  0
LINE
  5
2BA
  8
0
  6
CONTINUOUS
 62
     7
 10
49.16057743017096
 20
457.7321499906511
 30
0.0
 11
49.16057743017096
 21
457.9321244107322
 31
0.0
  0
LINE
  5
2BB
  8
0
  6
CONTINUOUS
 62
     7
 10
30.54707386495833
 20
455.0000000000001
 30
0.0
 11
13.09561028557824
 21
455.0000000000001
 31
0.0
  0
LINE
  5
2BC
  8
0
  6
CONTINUOUS
 62
     7
 10
43.00431469380401
 20
556.6111208996964
 30
0.0
 11
43.01982317483009
 21
555.9109639503706
 31
0.0
  0
LINE
  5
2BD
  8
0
  6
CONTINUOUS
 62
     7
 10
45.40802556818142
 20
457.8998942586589
 30
0.0
 11
45.40802556818142
 21
458.0998942586588
 31
0.0
  0
LINE
  5
2BE
  8
0
  6
CONTINUOUS
 62
     7
 10
45.40802556818142
 20
458.0998942586588
 30
0.0
 11
49.15740296689432
 21
457.9324415964895
 31
0.0
  0
LINE
  5
2BF
  8
0
  6
CONTINUOUS
 62
     7
 10
12.80006814056438
 20
394.862759358198
 30
0.0
 11
12.94635452529167
 21
378.1
 31
0.0
  0
LINE
  5
2C0
  8
0
  6
CONTINUOUS
 62
     7
 10
78.05364547470754
 20
378.1
 30
0.0
 11
78.19993185943483
 21
394.8627593581981
 31
0.0
  0
LINE
  5
2C1
  8
0
  6
CONTINUOUS
 62
     7
 10
41.84438920454505
 20
457.7326061124823
 30
0.0
 11
41.84438920454505
 21
457.9326061124822
 31
0.0
  0
LINE
  5
2C2
  8
0
  6
CONTINUOUS
 62
     7
 10
78.05364547470754
 20
378.1
 30
0.0
 11
49.49499687108723
 21
378.1
 31
0.0
  0
LINE
  5
2C3
  8
0
  6
CONTINUOUS
 62
     7
 10
78.14858695269926
 20
441.0099495886947
 30
0.0
 11
77.90438971442089
 21
455.0000000000001
 31
0.0
  0
LINE
  5
2C4
  8
0
  6
CONTINUOUS
 62
     7
 10
77.90438971442089
 20
455.0000000000001
 30
0.0
 11
60.45292613504083
 21
455.0000000000001
 31
0.0
  0
LINE
  5
2C5
  8
0
  6
CONTINUOUS
 62
     7
 10
41.8372121958529
 20
457.9315808566552
 30
0.0
 11
41.8372121958529
 21
457.7319467952772
 31
0.0
  0
LINE
  5
2C6
  8
0
  6
CONTINUOUS
 62
     7
 10
47.97381740260727
 20
526.011045846658
 30
0.0
 11
47.98017682516912
 21
525.9856275242876
 31
0.0
  0
LINE
  5
2C7
  8
0
  6
CONTINUOUS
 62
     7
 10
47.99719147361482
 20
525.1195531017534
 30
0.0
 11
47.99999999999961
 21
525.1059720543336
 31
0.0
  0
LINE
  5
2C8
  8
0
  6
CONTINUOUS
 62
     7
 10
5.499999999999595
 20
492.0391119178514
 30
0.0
 11
85.49999999999957
 21
492.0391119178514
 31
0.0
  0
CIRCLE
  5
2C9
  8
0
  6
CONTINUOUS
 62
     7
 10
45.4999999999996
 20
540.5391119178513
 30
0.0
 40
30.175
  0
ARC
  5
2CA
  8
0
  6
CONTINUOUS
 62
     7
 10
45.49987874303326
 20
540.5130713967146
 30
0.0
 40
27.3841515787802
 50
90.03629020895714
 51
270.0380100870798
  0
LINE
  5
2CB
  8
0
  6
CONTINUOUS
 62
     7
 10
42.9999999999996
 20
556.5926592829006
 30
0.0
 11
42.99999999999962
 21
556.7884308380852
 31
0.0
  0
LINE
  5
2CC
  8
0
  6
CONTINUOUS
 62
     7
 10
47.98017682516912
 20
555.9109639503708
 30
0.0
 11
47.99564371169676
 21
556.6111240819699
 31
0.0
  0
LINE
  5
2CD
  8
0
  6
CONTINUOUS
 62
     7
 10
43.02618259739193
 20
556.8930814875022
 30
0.0
 11
47.97381740260727
 21
556.8930814875022
 31
0.0
  0
LINE
  5
2CE
  8
0
  6
CONTINUOUS
 62
     7
 10
22.84373076413328
 20
489.7391119178512
 30
0.0
 11
5.999999999999596
 21
489.7391119178512
 31
0.0
  0
LINE
  5
2CF
  8
0
  6
CONTINUOUS
 62
     7
 10
43.02618259739193
 20
556.8930814875022
 30
0.0
 11
42.99999999999962
 21
556.7884308380852
 31
0.0
  0
LINE
  5
2D0
  8
0
  6
CONTINUOUS
 62
     7
 10
43.02618259739193
 20
555.9490527188193
 30
0.0
 11
43.01982317483009
 21
555.910963950371
 31
0.0
  0
LINE
  5
2D1
  8
0
  6
CONTINUOUS
 62
     7
 10
81.56535733914154
 20
505.0391119178512
 30
0.0
 11
85.49999999999959
 21
505.0391119178512
 31
0.0
  0
LINE
  5
2D2
  8
0
  6
CONTINUOUS
 62
     7
 10
5.499999999999595
 20
492.0391119178514
 30
0.0
 11
85.49999999999957
 21
492.0391119178514
 31
0.0
  0
LINE
  5
2D3
  8
0
  6
CONTINUOUS
 62
     7
 10
84.99999999999959
 20
489.7391119178512
 30
0.0
 11
22.84373076413328
 21
489.7391119178512
 31
0.0
  0
LINE
  5
2D4
  8
0
  6
CONTINUOUS
 62
     7
 10
43.02618259739193
 20
555.9490527188193
 30
0.0
 11
43.02618259739193
 21
556.8930814875021
 31
0.0
  0
LINE
  5
2D5
  8
0
  6
CONTINUOUS
 62
     7
 10
47.97381740260727
 20
555.9490527188193
 30
0.0
 11
47.98017682516912
 21
555.9109639503707
 31
0.0
  0
LINE
  5
2D6
  8
0
  6
CONTINUOUS
 62
     7
 10
47.97381740260727
 20
556.8930814875022
 30
0.0
 11
47.97381740260727
 21
555.9490527188194
 31
0.0
  0
LINE
  5
2D7
  8
0
  6
CONTINUOUS
 62
     7
 10
47.99999999999961
 20
556.7884308380852
 30
0.0
 11
47.99999999999961
 21
556.5926592829006
 31
0.0
  0
CIRCLE
  5
2D8
  8
0
  6
CONTINUOUS
 62
     7
 10
45.4999999999996
 20
540.5391119178513
 30
0.0
 40
32.40438971442129
  0
LINE
  5
2D9
  8
0
  6
CONTINUOUS
 62
     7
 10
44.24999999999955
 20
570.3879498350301
 30
0.0
 11
44.15831276160213
 21
570.2963344492147
 31
0.0
  0
LINE
  5
2DA
  8
0
  6
CONTINUOUS
 62
     7
 10
9.749999999999606
 20
505.0391119178514
 30
0.0
 11
9.434642660857653
 21
505.0391119178514
 31
0.0
  0
LINE
  5
2DB
  8
0
  6
CONTINUOUS
 62
     7
 10
5.499999999999595
 20
505.0391119178514
 30
0.0
 11
9.434642660857646
 21
505.0391119178514
 31
0.0
  0
LINE
  5
2DC
  8
0
  6
CONTINUOUS
 62
     7
 10
81.56535733914154
 20
505.0391119178514
 30
0.0
 11
81.2499999999996
 21
505.0391119178514
 31
0.0
  0
LINE
  5
2DD
  8
0
  6
CONTINUOUS
 62
     7
 10
47.97381740260727
 20
555.9490527188193
 30
0.0
 11
43.02618259739193
 21
555.9490527188193
 31
0.0
  0
ARC
  5
2DE
  8
0
  6
CONTINUOUS
 62
     7
 10
45.4999999999996
 20
540.5391119178513
 30
0.0
 40
29.87499999999999
 50
87.60198701421092
 51
92.3980129857971
  0
ARC
  5
2DF
  8
0
  6
CONTINUOUS
 62
     7
 10
45.4999999999996
 20
540.5391119178513
 30
0.0
 40
32.75000000000001
 50
0.0
 51
180.0
  0
ARC
  5
2E0
  8
0
  6
CONTINUOUS
 62
     7
 10
45.50001918270273
 20
540.5134525193303
 30
0.0
 40
28.24329948173397
 50
92.64738637567707
 51
270.0229635391252
  0
LINE
  5
2E1
  8
0
  6
CONTINUOUS
 62
     7
 10
46.74999999999959
 20
570.3879498350291
 30
0.0
 11
46.84168724186009
 21
570.2963344457476
 31
0.0
  0
LINE
  5
2E2
  8
0
  6
CONTINUOUS
 62
     7
 10
9.749999999999606
 20
505.0391119178514
 30
0.0
 11
81.2499999999996
 21
505.0391119178514
 31
0.0
  0
ARC
  5
2E3
  8
0
  6
CONTINUOUS
 62
     7
 10
45.4999999999996
 20
540.5391119178513
 30
0.0
 40
32.75000000000001
 50
180.0
 51
0.0
  0
LINE
  5
2E4
  8
0
  6
CONTINUOUS
 62
     7
 10
47.97381740260727
 20
556.8930814875022
 30
0.0
 11
47.99999999999961
 21
556.7884308380852
 31
0.0
  0
LINE
  5
2E5
  8
0
  6
CONTINUOUS
 62
   253
 10
113.7391119178509
 20
457.9
 30
0.0
 11
113.7391119178509
 21
377.9
 31
0.0
  0
LINE
  5
2E6
  8
0
  6
CONTINUOUS
 62
     7
 10
113.2391119178509
 20
378.4
 30
0.0
 11
113.2391119178509
 21
457.4
 31
0.0
  0
LINE
  5
2E7
  8
0
  6
CONTINUOUS
 62
     7
 10
115.5391119178509
 20
457.9
 30
0.0
 11
115.5391119178509
 21
377.9
 31
0.0
  0
LINE
  5
2E8
  8
0
  6
CONTINUOUS
 62
     7
 10
127.3494553281259
 20
457.9000000000001
 30
0.0
 11
128.5391119178509
 21
435.2000000000001
 31
0.0
  0
LINE
  5
2E9
  8
0
  6
CONTINUOUS
 62
     7
 10
115.5391119178509
 20
457.9
 30
0.0
 11
115.5391119178509
 21
377.9
 31
0.0
  0
LINE
  5
2EA
  8
0
  6
CONTINUOUS
 62
   253
 10
125.3989130542145
 20
377.9000000000028
 30
0.0
 11
125.3989130542145
 21
377.9001652030193
 31
0.0
  0
LINE
  5
2EB
  8
0
  6
CONTINUOUS
 62
   253
 10
125.3989130542145
 20
377.9001652030193
 30
0.0
 11
125.3989130542145
 21
377.9439387332657
 31
0.0
  0
LINE
  5
2EC
  8
0
  6
CONTINUOUS
 62
   253
 10
125.3989130542145
 20
377.9439387332657
 30
0.0
 11
125.3989130542145
 21
377.95485834891
 31
0.0
  0
LINE
  5
2ED
  8
0
  6
CONTINUOUS
 62
   253
 10
125.3989130542145
 20
377.95485834891
 30
0.0
 11
125.3989130542145
 21
377.9669876532242
 31
0.0
  0
LINE
  5
2EE
  8
0
  6
CONTINUOUS
 62
   253
 10
125.3989130542145
 20
377.9669876532242
 30
0.0
 11
125.3989130542145
 21
377.9803262788877
 31
0.0
  0
LINE
  5
2EF
  8
0
  6
CONTINUOUS
 62
   253
 10
125.3989130542145
 20
377.9803262788877
 30
0.0
 11
125.3989130542145
 21
377.9948738219567
 31
0.0
  0
LINE
  5
2F0
  8
0
  6
CONTINUOUS
 62
   253
 10
125.3989130542145
 20
377.9948738219567
 30
0.0
 11
125.3989130542145
 21
378.0106298418772
 31
0.0
  0
LINE
  5
2F1
  8
0
  6
CONTINUOUS
 62
   253
 10
125.3989130542145
 20
378.0106298418772
 30
0.0
 11
125.3989130542145
 21
378.0275938614976
 31
0.0
  0
LINE
  5
2F2
  8
0
  6
CONTINUOUS
 62
   253
 10
125.3989130542145
 20
378.0275938614976
 30
0.0
 11
125.398869766566
 21
378.0381855972107
 31
0.0
  0
LINE
  5
2F3
  8
0
  6
CONTINUOUS
 62
   253
 10
125.398869766566
 20
378.0381855972107
 30
0.0
 11
125.3988232929465
 21
378.0404280929909
 31
0.0
  0
LINE
  5
2F4
  8
0
  6
CONTINUOUS
 62
   253
 10
125.3988232929465
 20
378.0404280929909
 30
0.0
 11
125.3987975346762
 21
378.0409274644589
 31
0.0
  0
LINE
  5
2F5
  8
0
  6
CONTINUOUS
 62
   253
 10
125.3987975346762
 20
378.0409274644589
 30
0.0
 11
125.3987851730449
 21
378.0410520416925
 31
0.0
  0
LINE
  5
2F6
  8
0
  6
CONTINUOUS
 62
   253
 10
125.3987851730449
 20
378.0410520416925
 30
0.0
 11
125.3981551646377
 21
378.0424864881376
 31
0.0
  0
LINE
  5
2F7
  8
0
  6
CONTINUOUS
 62
   253
 10
125.3981551646377
 20
378.0424864881376
 30
0.0
 11
125.3970372628097
 21
378.0438222223792
 31
0.0
  0
LINE
  5
2F8
  8
0
  6
CONTINUOUS
 62
   253
 10
125.3970372628097
 20
378.0438222223792
 30
0.0
 11
125.3954213141369
 21
378.0451155756001
 31
0.0
  0
LINE
  5
2F9
  8
0
  6
CONTINUOUS
 62
   253
 10
125.3954213141369
 20
378.0451155756001
 30
0.0
 11
125.3933073186193
 21
378.0463658976412
 31
0.0
  0
LINE
  5
2FA
  8
0
  6
CONTINUOUS
 62
   253
 10
125.3933073186193
 20
378.0463658976412
 30
0.0
 11
125.390695276257
 21
378.047572562752
 31
0.0
  0
LINE
  5
2FB
  8
0
  6
CONTINUOUS
 62
   253
 10
125.390695276257
 20
378.047572562752
 30
0.0
 11
125.3875851870499
 21
378.0487349695853
 31
0.0
  0
LINE
  5
2FC
  8
0
  6
CONTINUOUS
 62
   253
 10
125.3875851870499
 20
378.0487349695853
 30
0.0
 11
125.3845229916693
 21
378.0496956543278
 31
0.0
  0
LINE
  5
2FD
  8
0
  6
CONTINUOUS
 62
   253
 10
125.3845229916693
 20
378.0496956543278
 30
0.0
 11
125.3810948843212
 21
378.0506230494514
 31
0.0
  0
LINE
  5
2FE
  8
0
  6
CONTINUOUS
 62
   253
 10
125.3810948843212
 20
378.0506230494514
 30
0.0
 11
125.3773008650054
 21
378.0515168190659
 31
0.0
  0
LINE
  5
2FF
  8
0
  6
CONTINUOUS
 62
   253
 10
125.3773008650054
 20
378.0515168190659
 30
0.0
 11
125.3731409337221
 21
378.0523766404463
 31
0.0
  0
LINE
  5
300
  8
0
  6
CONTINUOUS
 62
   253
 10
125.3731409337221
 20
378.0523766404463
 30
0.0
 11
125.3686150904711
 21
378.0532022040327
 31
0.0
  0
LINE
  5
301
  8
0
  6
CONTINUOUS
 62
   253
 10
125.3686150904711
 20
378.0532022040327
 30
0.0
 11
125.3637233352526
 21
378.053993213429
 31
0.0
  0
LINE
  5
302
  8
0
  6
CONTINUOUS
 62
   253
 10
125.3637233352526
 20
378.053993213429
 30
0.0
 11
125.3584656680664
 21
378.0547493854003
 31
0.0
  0
LINE
  5
303
  8
0
  6
CONTINUOUS
 62
   253
 10
125.3584656680664
 20
378.0547493854003
 30
0.0
 11
125.3538554902725
 21
378.0553464536706
 31
0.0
  0
LINE
  5
304
  8
0
  6
CONTINUOUS
 62
   253
 10
125.3538554902725
 20
378.0553464536706
 30
0.0
 11
125.3489966370807
 21
378.055919496575
 31
0.0
  0
LINE
  5
305
  8
0
  6
CONTINUOUS
 62
   253
 10
125.3489966370807
 20
378.055919496575
 30
0.0
 11
125.3438891084912
 21
378.0564683754727
 31
0.0
  0
LINE
  5
306
  8
0
  6
CONTINUOUS
 62
   253
 10
125.3438891084912
 20
378.0564683754727
 30
0.0
 11
125.3385329045039
 21
378.0569929578102
 31
0.0
  0
LINE
  5
307
  8
0
  6
CONTINUOUS
 62
   253
 10
125.3385329045039
 20
378.0569929578102
 30
0.0
 11
125.3329280251188
 21
378.0574931171213
 31
0.0
  0
LINE
  5
308
  8
0
  6
CONTINUOUS
 62
   253
 10
125.3329280251188
 20
378.0574931171213
 30
0.0
 11
125.3270744703359
 21
378.057968733026
 31
0.0
  0
LINE
  5
309
  8
0
  6
CONTINUOUS
 62
   253
 10
125.3270744703359
 20
378.057968733026
 30
0.0
 11
125.3209722401552
 21
378.0584196912313
 31
0.0
  0
LINE
  5
30A
  8
0
  6
CONTINUOUS
 62
   253
 10
125.3209722401552
 20
378.0584196912313
 30
0.0
 11
125.3146213345767
 21
378.0588458835297
 31
0.0
  0
LINE
  5
30B
  8
0
  6
CONTINUOUS
 62
   253
 10
125.3146213345767
 20
378.0588458835297
 30
0.0
 11
125.3080217536004
 21
378.0592472077992
 31
0.0
  0
LINE
  5
30C
  8
0
  6
CONTINUOUS
 62
   253
 10
125.3080217536004
 20
378.0592472077992
 30
0.0
 11
125.3011734972264
 21
378.0596235680035
 31
0.0
  0
LINE
  5
30D
  8
0
  6
CONTINUOUS
 62
   253
 10
125.3011734972264
 20
378.0596235680035
 30
0.0
 11
125.2940765654545
 21
378.0599748741913
 31
0.0
  0
LINE
  5
30E
  8
0
  6
CONTINUOUS
 62
   253
 10
125.2940765654545
 20
378.0599748741913
 30
0.0
 11
125.2867309582849
 21
378.0603010424958
 31
0.0
  0
LINE
  5
30F
  8
0
  6
CONTINUOUS
 62
   253
 10
125.2867309582849
 20
378.0603010424958
 30
0.0
 11
125.2791366757175
 21
378.0606019951346
 31
0.0
  0
LINE
  5
310
  8
0
  6
CONTINUOUS
 62
   253
 10
125.2791366757175
 20
378.0606019951346
 30
0.0
 11
125.2712937177522
 21
378.0608776604099
 31
0.0
  0
LINE
  5
311
  8
0
  6
CONTINUOUS
 62
   253
 10
125.2712937177522
 20
378.0608776604099
 30
0.0
 11
125.2632020843892
 21
378.0611279727074
 31
0.0
  0
LINE
  5
312
  8
0
  6
CONTINUOUS
 62
   253
 10
125.2632020843892
 20
378.0611279727074
 30
0.0
 11
125.2527378429073
 21
378.061405120343
 31
0.0
  0
LINE
  5
313
  8
0
  6
CONTINUOUS
 62
   253
 10
125.2527378429073
 20
378.061405120343
 30
0.0
 11
125.2418850461164
 21
378.0616424584774
 31
0.0
  0
LINE
  5
314
  8
0
  6
CONTINUOUS
 62
   253
 10
125.2418850461164
 20
378.0616424584774
 30
0.0
 11
125.2306436940164
 21
378.0618398990599
 31
0.0
  0
LINE
  5
315
  8
0
  6
CONTINUOUS
 62
   253
 10
125.2306436940164
 20
378.0618398990599
 30
0.0
 11
125.2190137866073
 21
378.061997368891
 31
0.0
  0
LINE
  5
316
  8
0
  6
CONTINUOUS
 62
   253
 10
125.2190137866073
 20
378.061997368891
 30
0.0
 11
125.2054549724597
 21
378.0621345869515
 31
0.0
  0
LINE
  5
317
  8
0
  6
CONTINUOUS
 62
   253
 10
125.2054549724597
 20
378.0621345869515
 30
0.0
 11
125.1921958380551
 21
378.062227462802
 31
0.0
  0
LINE
  5
318
  8
0
  6
CONTINUOUS
 62
   253
 10
125.1921958380551
 20
378.062227462802
 30
0.0
 11
125.1792363833935
 21
378.0622759583875
 31
0.0
  0
LINE
  5
319
  8
0
  6
CONTINUOUS
 62
   253
 10
125.1792363833935
 20
378.0622759583875
 30
0.0
 11
125.1665766084749
 21
378.0622800538424
 31
0.0
  0
LINE
  5
31A
  8
0
  6
CONTINUOUS
 62
   253
 10
125.1665766084749
 20
378.0622800538424
 30
0.0
 11
125.1542165132992
 21
378.062239747489
 31
0.0
  0
LINE
  5
31B
  8
0
  6
CONTINUOUS
 62
   253
 10
125.1542165132992
 20
378.062239747489
 30
0.0
 11
125.1421560978665
 21
378.0621550558382
 31
0.0
  0
LINE
  5
31C
  8
0
  6
CONTINUOUS
 62
   253
 10
125.1421560978665
 20
378.0621550558382
 30
0.0
 11
125.1303953621768
 21
378.0620260135893
 31
0.0
  0
LINE
  5
31D
  8
0
  6
CONTINUOUS
 62
   253
 10
125.1303953621768
 20
378.0620260135893
 30
0.0
 11
125.1189343062302
 21
378.0618526736304
 31
0.0
  0
LINE
  5
31E
  8
0
  6
CONTINUOUS
 62
   253
 10
125.1189343062302
 20
378.0618526736304
 30
0.0
 11
125.1077729300265
 21
378.061635107038
 31
0.0
  0
LINE
  5
31F
  8
0
  6
CONTINUOUS
 62
   253
 10
125.1077729300265
 20
378.061635107038
 30
0.0
 11
125.0969112335657
 21
378.0613734030786
 31
0.0
  0
LINE
  5
320
  8
0
  6
CONTINUOUS
 62
   253
 10
125.0969112335657
 20
378.0613734030786
 30
0.0
 11
125.086349216848
 21
378.0610676692082
 31
0.0
  0
LINE
  5
321
  8
0
  6
CONTINUOUS
 62
   253
 10
125.086349216848
 20
378.0610676692082
 30
0.0
 11
125.0760868798733
 21
378.0607180310733
 31
0.0
  0
LINE
  5
322
  8
0
  6
CONTINUOUS
 62
   253
 10
125.0760868798733
 20
378.0607180310733
 30
0.0
 11
125.0661242226416
 21
378.0603246325115
 31
0.0
  0
LINE
  5
323
  8
0
  6
CONTINUOUS
 62
   253
 10
125.0661242226416
 20
378.0603246325115
 30
0.0
 11
125.0564612451528
 21
378.0598876355525
 31
0.0
  0
LINE
  5
324
  8
0
  6
CONTINUOUS
 62
   253
 10
125.0564612451528
 20
378.0598876355525
 30
0.0
 11
125.0494922074687
 21
378.0595333838629
 31
0.0
  0
LINE
  5
325
  8
0
  6
CONTINUOUS
 62
   253
 10
125.0494922074687
 20
378.0595333838629
 30
0.0
 11
125.0427672506985
 21
378.0591545697096
 31
0.0
  0
LINE
  5
326
  8
0
  6
CONTINUOUS
 62
   253
 10
125.0427672506985
 20
378.0591545697096
 30
0.0
 11
125.036286374842
 21
378.0587512819565
 31
0.0
  0
LINE
  5
327
  8
0
  6
CONTINUOUS
 62
   253
 10
125.036286374842
 20
378.0587512819565
 30
0.0
 11
125.0300495798994
 21
378.0583236153265
 31
0.0
  0
LINE
  5
328
  8
0
  6
CONTINUOUS
 62
   253
 10
125.0300495798994
 20
378.0583236153265
 30
0.0
 11
125.0240568658706
 21
378.0578716704014
 31
0.0
  0
LINE
  5
329
  8
0
  6
CONTINUOUS
 62
   253
 10
125.0240568658706
 20
378.0578716704014
 30
0.0
 11
125.0183082327556
 21
378.0573955536224
 31
0.0
  0
LINE
  5
32A
  8
0
  6
CONTINUOUS
 62
   253
 10
125.0183082327556
 20
378.0573955536224
 30
0.0
 11
125.0128036805544
 21
378.0568953772901
 31
0.0
  0
LINE
  5
32B
  8
0
  6
CONTINUOUS
 62
   253
 10
125.0128036805544
 20
378.0568953772901
 30
0.0
 11
125.0075432092671
 21
378.0563712595657
 31
0.0
  0
LINE
  5
32C
  8
0
  6
CONTINUOUS
 62
   253
 10
125.0075432092671
 20
378.0563712595657
 30
0.0
 11
125.0025268188935
 21
378.0558233244701
 31
0.0
  0
LINE
  5
32D
  8
0
  6
CONTINUOUS
 62
   253
 10
125.0025268188935
 20
378.0558233244701
 30
0.0
 11
124.9977545094338
 21
378.0552517018854
 31
0.0
  0
LINE
  5
32E
  8
0
  6
CONTINUOUS
 62
   253
 10
124.9977545094338
 20
378.0552517018854
 30
0.0
 11
124.9926992956998
 21
378.0545835306211
 31
0.0
  0
LINE
  5
32F
  8
0
  6
CONTINUOUS
 62
   253
 10
124.9926992956998
 20
378.0545835306211
 30
0.0
 11
124.9879502570641
 21
378.0538860156411
 31
0.0
  0
LINE
  5
330
  8
0
  6
CONTINUOUS
 62
   253
 10
124.9879502570641
 20
378.0538860156411
 30
0.0
 11
124.9835073935267
 21
378.0531593656081
 31
0.0
  0
LINE
  5
331
  8
0
  6
CONTINUOUS
 62
   253
 10
124.9835073935267
 20
378.0531593656081
 30
0.0
 11
124.9793707050875
 21
378.0524037984092
 31
0.0
  0
LINE
  5
332
  8
0
  6
CONTINUOUS
 62
   253
 10
124.9793707050875
 20
378.0524037984092
 30
0.0
 11
124.9755401917467
 21
378.0516195411574
 31
0.0
  0
LINE
  5
333
  8
0
  6
CONTINUOUS
 62
   253
 10
124.9755401917467
 20
378.0516195411574
 30
0.0
 11
124.9731979840764
 21
378.0510906098252
 31
0.0
  0
LINE
  5
334
  8
0
  6
CONTINUOUS
 62
   253
 10
124.9731979840764
 20
378.0510906098252
 30
0.0
 11
124.9709870376976
 21
378.0505495483084
 31
0.0
  0
LINE
  5
335
  8
0
  6
CONTINUOUS
 62
   253
 10
124.9709870376976
 20
378.0505495483084
 30
0.0
 11
124.9689073526102
 21
378.0499964267873
 31
0.0
  0
LINE
  5
336
  8
0
  6
CONTINUOUS
 62
   253
 10
124.9689073526102
 20
378.0499964267873
 30
0.0
 11
124.9669589288142
 21
378.0494313171391
 31
0.0
  0
LINE
  5
337
  8
0
  6
CONTINUOUS
 62
   253
 10
124.9669589288142
 20
378.0494313171391
 30
0.0
 11
124.9651417663096
 21
378.0488542929367
 31
0.0
  0
LINE
  5
338
  8
0
  6
CONTINUOUS
 62
   253
 10
124.9651417663096
 20
378.0488542929367
 30
0.0
 11
124.9634558650965
 21
378.0482654294497
 31
0.0
  0
LINE
  5
339
  8
0
  6
CONTINUOUS
 62
   253
 10
124.9634558650965
 20
378.0482654294497
 30
0.0
 11
124.9620076147634
 21
378.0476752585914
 31
0.0
  0
LINE
  5
33A
  8
0
  6
CONTINUOUS
 62
   253
 10
124.9620076147634
 20
378.0476752585914
 30
0.0
 11
124.9606726278732
 21
378.0470098642413
 31
0.0
  0
LINE
  5
33B
  8
0
  6
CONTINUOUS
 62
   253
 10
124.9606726278732
 20
378.0470098642413
 30
0.0
 11
124.959450904426
 21
378.0462697635048
 31
0.0
  0
LINE
  5
33C
  8
0
  6
CONTINUOUS
 62
   253
 10
124.959450904426
 20
378.0462697635048
 30
0.0
 11
124.9583424444217
 21
378.0454555329351
 31
0.0
  0
LINE
  5
33D
  8
0
  6
CONTINUOUS
 62
   253
 10
124.9583424444217
 20
378.0454555329351
 30
0.0
 11
124.9573472478604
 21
378.0445678085395
 31
0.0
  0
LINE
  5
33E
  8
0
  6
CONTINUOUS
 62
   253
 10
124.9573472478604
 20
378.0445678085395
 30
0.0
 11
124.956465314742
 21
378.043607285785
 31
0.0
  0
LINE
  5
33F
  8
0
  6
CONTINUOUS
 62
   253
 10
124.956465314742
 20
378.043607285785
 30
0.0
 11
124.9556966450666
 21
378.0425747196047
 31
0.0
  0
LINE
  5
340
  8
0
  6
CONTINUOUS
 62
   253
 10
124.9556966450666
 20
378.0425747196047
 30
0.0
 11
124.9541668180871
 21
378.0393705500148
 31
0.0
  0
LINE
  5
341
  8
0
  6
CONTINUOUS
 62
   253
 10
124.9541668180871
 20
378.0393705500148
 30
0.0
 11
124.9534935458949
 21
378.0356472137384
 31
0.0
  0
LINE
  5
342
  8
0
  6
CONTINUOUS
 62
   253
 10
124.9534935458949
 20
378.0356472137384
 30
0.0
 11
124.95345850876
 21
378.025484697385
 31
0.0
  0
LINE
  5
343
  8
0
  6
CONTINUOUS
 62
   253
 10
124.95345850876
 20
378.025484697385
 30
0.0
 11
124.95345850876
 21
378.0088935145129
 31
0.0
  0
LINE
  5
344
  8
0
  6
CONTINUOUS
 62
   253
 10
124.95345850876
 20
378.0088935145129
 30
0.0
 11
124.95345850876
 21
377.9334895170545
 31
0.0
  0
LINE
  5
345
  8
0
  6
CONTINUOUS
 62
   253
 10
124.95345850876
 20
377.9334895170545
 30
0.0
 11
124.95345850876
 21
377.9012933508893
 31
0.0
  0
LINE
  5
346
  8
0
  6
CONTINUOUS
 62
     7
 10
128.5391119178509
 20
400.6000000000001
 30
0.0
 11
127.3494553281259
 21
377.9
 31
0.0
  0
LINE
  5
347
  8
0
  6
CONTINUOUS
 62
     7
 10
123.1080039633054
 20
457.8987066491109
 30
0.0
 11
124.95345850876
 21
457.8987066491109
 31
0.0
  0
LINE
  5
348
  8
0
  6
CONTINUOUS
 62
   253
 10
124.95345850876
 20
377.9012933508893
 30
0.0
 11
123.1080039633054
 21
377.9012933508893
 31
0.0
  0
LINE
  5
349
  8
0
  6
CONTINUOUS
 62
   253
 10
123.1080039633054
 20
377.9012933508893
 30
0.0
 11
123.1080039633054
 21
377.9456168773241
 31
0.0
  0
LINE
  5
34A
  8
0
  6
CONTINUOUS
 62
   253
 10
123.1080039633054
 20
377.9456168773241
 30
0.0
 11
123.1080039633054
 21
377.9914201849411
 31
0.0
  0
LINE
  5
34B
  8
0
  6
CONTINUOUS
 62
   253
 10
123.1080039633054
 20
377.9914201849411
 30
0.0
 11
123.1080039633054
 21
378.0053356723733
 31
0.0
  0
LINE
  5
34C
  8
0
  6
CONTINUOUS
 62
   253
 10
123.1080039633054
 20
378.0053356723733
 30
0.0
 11
123.1080039633054
 21
378.0202351735346
 31
0.0
  0
LINE
  5
34D
  8
0
  6
CONTINUOUS
 62
   253
 10
123.1080039633054
 20
378.0202351735346
 30
0.0
 11
123.1077385509581
 21
378.0217051967699
 31
0.0
  0
LINE
  5
34E
  8
0
  6
CONTINUOUS
 62
   253
 10
123.1077385509581
 20
378.0217051967699
 30
0.0
 11
123.1069423139161
 21
378.0231318834068
 31
0.0
  0
LINE
  5
34F
  8
0
  6
CONTINUOUS
 62
   253
 10
123.1069423139161
 20
378.0231318834068
 30
0.0
 11
123.1056152521794
 21
378.0245143238025
 31
0.0
  0
LINE
  5
350
  8
0
  6
CONTINUOUS
 62
   253
 10
123.1056152521794
 20
378.0245143238025
 30
0.0
 11
123.103757365748
 21
378.0258516415805
 31
0.0
  0
LINE
  5
351
  8
0
  6
CONTINUOUS
 62
   253
 10
123.103757365748
 20
378.0258516415805
 30
0.0
 11
123.1013686546219
 21
378.0271429936266
 31
0.0
  0
LINE
  5
352
  8
0
  6
CONTINUOUS
 62
   253
 10
123.1013686546219
 20
378.0271429936266
 30
0.0
 11
123.0984491188012
 21
378.0283875700828
 31
0.0
  0
LINE
  5
353
  8
0
  6
CONTINUOUS
 62
   253
 10
123.0984491188012
 20
378.0283875700828
 30
0.0
 11
123.0949987582858
 21
378.029584594343
 31
0.0
  0
LINE
  5
354
  8
0
  6
CONTINUOUS
 62
   253
 10
123.0949987582858
 20
378.029584594343
 30
0.0
 11
123.0919224550696
 21
378.0304893231934
 31
0.0
  0
LINE
  5
355
  8
0
  6
CONTINUOUS
 62
   253
 10
123.0919224550696
 20
378.0304893231934
 30
0.0
 11
123.0885198772699
 21
378.0313640223067
 31
0.0
  0
LINE
  5
356
  8
0
  6
CONTINUOUS
 62
   253
 10
123.0885198772699
 20
378.0313640223067
 30
0.0
 11
123.0847910248866
 21
378.0322083603123
 31
0.0
  0
LINE
  5
357
  8
0
  6
CONTINUOUS
 62
   253
 10
123.0847910248866
 20
378.0322083603123
 30
0.0
 11
123.0807358979199
 21
378.0330220183959
 31
0.0
  0
LINE
  5
358
  8
0
  6
CONTINUOUS
 62
   253
 10
123.0807358979199
 20
378.0330220183959
 30
0.0
 11
123.0763544963695
 21
378.0338046902983
 31
0.0
  0
LINE
  5
359
  8
0
  6
CONTINUOUS
 62
   253
 10
123.0763544963695
 20
378.0338046902983
 30
0.0
 11
123.0717337470261
 21
378.0345429405449
 31
0.0
  0
LINE
  5
35A
  8
0
  6
CONTINUOUS
 62
   253
 10
123.0717337470261
 20
378.0345429405449
 30
0.0
 11
123.0667982717211
 21
378.0352507515693
 31
0.0
  0
LINE
  5
35B
  8
0
  6
CONTINUOUS
 62
   253
 10
123.0667982717211
 20
378.0352507515693
 30
0.0
 11
123.0615480704547
 21
378.0359278685866
 31
0.0
  0
LINE
  5
35C
  8
0
  6
CONTINUOUS
 62
   253
 10
123.0615480704547
 20
378.0359278685866
 30
0.0
 11
123.0559831432267
 21
378.0365740484885
 31
0.0
  0
LINE
  5
35D
  8
0
  6
CONTINUOUS
 62
   253
 10
123.0559831432267
 20
378.0365740484885
 30
0.0
 11
123.0506510091687
 21
378.0371344435403
 31
0.0
  0
LINE
  5
35E
  8
0
  6
CONTINUOUS
 62
   253
 10
123.0506510091687
 20
378.0371344435403
 30
0.0
 11
123.0450587710102
 21
378.0376689138197
 31
0.0
  0
LINE
  5
35F
  8
0
  6
CONTINUOUS
 62
   253
 10
123.0450587710102
 20
378.0376689138197
 30
0.0
 11
123.0392064287514
 21
378.0381773017974
 31
0.0
  0
LINE
  5
360
  8
0
  6
CONTINUOUS
 62
   253
 10
123.0392064287514
 20
378.0381773017974
 30
0.0
 11
123.0330939823921
 21
378.0386594579176
 31
0.0
  0
LINE
  5
361
  8
0
  6
CONTINUOUS
 62
   253
 10
123.0330939823921
 20
378.0386594579176
 30
0.0
 11
123.0267214319325
 21
378.0391152405978
 31
0.0
  0
LINE
  5
362
  8
0
  6
CONTINUOUS
 62
   253
 10
123.0267214319325
 20
378.0391152405978
 30
0.0
 11
123.0200887773725
 21
378.0395445162283
 31
0.0
  0
LINE
  5
363
  8
0
  6
CONTINUOUS
 62
   253
 10
123.0200887773725
 20
378.0395445162283
 30
0.0
 11
123.013196018712
 21
378.0399471591716
 31
0.0
  0
LINE
  5
364
  8
0
  6
CONTINUOUS
 62
   253
 10
123.013196018712
 20
378.0399471591716
 30
0.0
 11
123.0060431559512
 21
378.040323051762
 31
0.0
  0
LINE
  5
365
  8
0
  6
CONTINUOUS
 62
   253
 10
123.0060431559512
 20
378.040323051762
 30
0.0
 11
122.99863018909
 21
378.0406720843061
 31
0.0
  0
LINE
  5
366
  8
0
  6
CONTINUOUS
 62
   253
 10
122.99863018909
 20
378.0406720843061
 30
0.0
 11
122.9909571181284
 21
378.0409941550806
 31
0.0
  0
LINE
  5
367
  8
0
  6
CONTINUOUS
 62
   253
 10
122.9909571181284
 20
378.0409941550806
 30
0.0
 11
122.9830239430664
 21
378.0412891703338
 31
0.0
  0
LINE
  5
368
  8
0
  6
CONTINUOUS
 62
   253
 10
122.9830239430664
 20
378.0412891703338
 30
0.0
 11
122.974830663904
 21
378.0415570442838
 31
0.0
  0
LINE
  5
369
  8
0
  6
CONTINUOUS
 62
   253
 10
122.974830663904
 20
378.0415570442838
 30
0.0
 11
122.9663772806412
 21
378.0417976991199
 31
0.0
  0
LINE
  5
36A
  8
0
  6
CONTINUOUS
 62
   253
 10
122.9663772806412
 20
378.0417976991199
 30
0.0
 11
122.957663793278
 21
378.0420110650001
 31
0.0
  0
LINE
  5
36B
  8
0
  6
CONTINUOUS
 62
   253
 10
122.957663793278
 20
378.0420110650001
 30
0.0
 11
122.9486902018144
 21
378.0421970800529
 31
0.0
  0
LINE
  5
36C
  8
0
  6
CONTINUOUS
 62
   253
 10
122.9486902018144
 20
378.0421970800529
 30
0.0
 11
122.9394565062505
 21
378.042355690376
 31
0.0
  0
LINE
  5
36D
  8
0
  6
CONTINUOUS
 62
   253
 10
122.9394565062505
 20
378.042355690376
 30
0.0
 11
122.9299627065861
 21
378.0424868500365
 31
0.0
  0
LINE
  5
36E
  8
0
  6
CONTINUOUS
 62
   253
 10
122.9299627065861
 20
378.0424868500365
 30
0.0
 11
122.9202088028214
 21
378.0425905210706
 31
0.0
  0
LINE
  5
36F
  8
0
  6
CONTINUOUS
 62
   253
 10
122.9202088028214
 20
378.0425905210706
 30
0.0
 11
122.9101947949562
 21
378.0426666734836
 31
0.0
  0
LINE
  5
370
  8
0
  6
CONTINUOUS
 62
   253
 10
122.9101947949562
 20
378.0426666734836
 30
0.0
 11
122.8999206829907
 21
378.0427152852491
 31
0.0
  0
LINE
  5
371
  8
0
  6
CONTINUOUS
 62
   253
 10
122.8999206829907
 20
378.0427152852491
 30
0.0
 11
122.8837999107491
 21
378.0427426031508
 31
0.0
  0
LINE
  5
372
  8
0
  6
CONTINUOUS
 62
   253
 10
122.8837999107491
 20
378.0427426031508
 30
0.0
 11
122.868245965746
 21
378.0427146999024
 31
0.0
  0
LINE
  5
373
  8
0
  6
CONTINUOUS
 62
   253
 10
122.868245965746
 20
378.0427146999024
 30
0.0
 11
122.8532588479813
 21
378.0426315916683
 31
0.0
  0
LINE
  5
374
  8
0
  6
CONTINUOUS
 62
   253
 10
122.8532588479813
 20
378.0426315916683
 30
0.0
 11
122.8388385574552
 21
378.0424933266033
 31
0.0
  0
LINE
  5
375
  8
0
  6
CONTINUOUS
 62
   253
 10
122.8388385574552
 20
378.0424933266033
 30
0.0
 11
122.8279059758442
 21
378.0423460466531
 31
0.0
  0
LINE
  5
376
  8
0
  6
CONTINUOUS
 62
   253
 10
122.8279059758442
 20
378.0423460466531
 30
0.0
 11
122.8173233232938
 21
378.0421648173794
 31
0.0
  0
LINE
  5
377
  8
0
  6
CONTINUOUS
 62
   253
 10
122.8173233232938
 20
378.0421648173794
 30
0.0
 11
122.8070905998039
 21
378.0419497037049
 31
0.0
  0
LINE
  5
378
  8
0
  6
CONTINUOUS
 62
   253
 10
122.8070905998039
 20
378.0419497037049
 30
0.0
 11
122.7972078053745
 21
378.0417007827451
 31
0.0
  0
LINE
  5
379
  8
0
  6
CONTINUOUS
 62
   253
 10
122.7972078053745
 20
378.0417007827451
 30
0.0
 11
122.7885271042515
 21
378.0414452289797
 31
0.0
  0
LINE
  5
37A
  8
0
  6
CONTINUOUS
 62
   253
 10
122.7885271042515
 20
378.0414452289797
 30
0.0
 11
122.7801356006991
 21
378.0411618848153
 31
0.0
  0
LINE
  5
37B
  8
0
  6
CONTINUOUS
 62
   253
 10
122.7801356006991
 20
378.0411618848153
 30
0.0
 11
122.7720332947174
 21
378.0408508344239
 31
0.0
  0
LINE
  5
37C
  8
0
  6
CONTINUOUS
 62
   253
 10
122.7720332947174
 20
378.0408508344239
 30
0.0
 11
122.7642201863063
 21
378.0405121703062
 31
0.0
  0
LINE
  5
37D
  8
0
  6
CONTINUOUS
 62
   253
 10
122.7642201863063
 20
378.0405121703062
 30
0.0
 11
122.7566962754659
 21
378.0401459932925
 31
0.0
  0
LINE
  5
37E
  8
0
  6
CONTINUOUS
 62
   253
 10
122.7566962754659
 20
378.0401459932925
 30
0.0
 11
122.7494615621962
 21
378.0397524125427
 31
0.0
  0
LINE
  5
37F
  8
0
  6
CONTINUOUS
 62
   253
 10
122.7494615621962
 20
378.0397524125427
 30
0.0
 11
122.7425160464971
 21
378.039331545546
 31
0.0
  0
LINE
  5
380
  8
0
  6
CONTINUOUS
 62
   253
 10
122.7425160464971
 20
378.039331545546
 30
0.0
 11
122.7358597283687
 21
378.038883518123
 31
0.0
  0
LINE
  5
381
  8
0
  6
CONTINUOUS
 62
   253
 10
122.7358597283687
 20
378.038883518123
 30
0.0
 11
122.7294926078109
 21
378.0384084644242
 31
0.0
  0
LINE
  5
382
  8
0
  6
CONTINUOUS
 62
   253
 10
122.7294926078109
 20
378.0384084644242
 30
0.0
 11
122.7234146848237
 21
378.0379065269315
 31
0.0
  0
LINE
  5
383
  8
0
  6
CONTINUOUS
 62
   253
 10
122.7234146848237
 20
378.0379065269315
 30
0.0
 11
122.7176259594073
 21
378.037377856459
 31
0.0
  0
LINE
  5
384
  8
0
  6
CONTINUOUS
 62
   253
 10
122.7176259594073
 20
378.037377856459
 30
0.0
 11
122.7121264315614
 21
378.0368226121528
 31
0.0
  0
LINE
  5
385
  8
0
  6
CONTINUOUS
 62
   253
 10
122.7121264315614
 20
378.0368226121528
 30
0.0
 11
122.7069161012863
 21
378.0362409614913
 31
0.0
  0
LINE
  5
386
  8
0
  6
CONTINUOUS
 62
   253
 10
122.7069161012863
 20
378.0362409614913
 30
0.0
 11
122.7019949685817
 21
378.035633080287
 31
0.0
  0
LINE
  5
387
  8
0
  6
CONTINUOUS
 62
   253
 10
122.7019949685817
 20
378.035633080287
 30
0.0
 11
122.6973630334479
 21
378.0349991526858
 31
0.0
  0
LINE
  5
388
  8
0
  6
CONTINUOUS
 62
   253
 10
122.6973630334479
 20
378.0349991526858
 30
0.0
 11
122.6930202958847
 21
378.0343393711685
 31
0.0
  0
LINE
  5
389
  8
0
  6
CONTINUOUS
 62
   253
 10
122.6930202958847
 20
378.0343393711685
 30
0.0
 11
122.6889667558921
 21
378.033653936551
 31
0.0
  0
LINE
  5
38A
  8
0
  6
CONTINUOUS
 62
   253
 10
122.6889667558921
 20
378.033653936551
 30
0.0
 11
122.6852024134703
 21
378.0329430579848
 31
0.0
  0
LINE
  5
38B
  8
0
  6
CONTINUOUS
 62
   253
 10
122.6852024134703
 20
378.0329430579848
 30
0.0
 11
122.681727268619
 21
378.0322069529581
 31
0.0
  0
LINE
  5
38C
  8
0
  6
CONTINUOUS
 62
   253
 10
122.681727268619
 20
378.0322069529581
 30
0.0
 11
122.6785413213384
 21
378.0314458472964
 31
0.0
  0
LINE
  5
38D
  8
0
  6
CONTINUOUS
 62
   253
 10
122.6785413213384
 20
378.0314458472964
 30
0.0
 11
122.6749655713214
 21
378.0304596656036
 31
0.0
  0
LINE
  5
38E
  8
0
  6
CONTINUOUS
 62
   253
 10
122.6749655713214
 20
378.0304596656036
 30
0.0
 11
122.6718416925086
 21
378.029435262583
 31
0.0
  0
LINE
  5
38F
  8
0
  6
CONTINUOUS
 62
   253
 10
122.6718416925086
 20
378.029435262583
 30
0.0
 11
122.6691696848998
 21
378.0283731342681
 31
0.0
  0
LINE
  5
390
  8
0
  6
CONTINUOUS
 62
   253
 10
122.6691696848998
 20
378.0283731342681
 30
0.0
 11
122.6669495484953
 21
378.0272737970556
 31
0.0
  0
LINE
  5
391
  8
0
  6
CONTINUOUS
 62
   253
 10
122.6669495484953
 20
378.0272737970556
 30
0.0
 11
122.6651812832949
 21
378.0261377877076
 31
0.0
  0
LINE
  5
392
  8
0
  6
CONTINUOUS
 62
   253
 10
122.6651812832949
 20
378.0261377877076
 30
0.0
 11
122.6638648892986
 21
378.0249656633549
 31
0.0
  0
LINE
  5
393
  8
0
  6
CONTINUOUS
 62
   253
 10
122.6638648892986
 20
378.0249656633549
 30
0.0
 11
122.6630003665065
 21
378.0237580014983
 31
0.0
  0
LINE
  5
394
  8
0
  6
CONTINUOUS
 62
   253
 10
122.6630003665065
 20
378.0237580014983
 30
0.0
 11
122.662737556812
 21
378.023141030046
 31
0.0
  0
LINE
  5
395
  8
0
  6
CONTINUOUS
 62
   253
 10
122.662737556812
 20
378.023141030046
 30
0.0
 11
122.6626485148901
 21
378.0228292925119
 31
0.0
  0
LINE
  5
396
  8
0
  6
CONTINUOUS
 62
   253
 10
122.6626485148901
 20
378.0228292925119
 30
0.0
 11
122.6626145846605
 21
378.0226726150236
 31
0.0
  0
LINE
  5
397
  8
0
  6
CONTINUOUS
 62
   253
 10
122.6626145846605
 20
378.0226726150236
 30
0.0
 11
122.6625937704333
 21
378.0225547540911
 31
0.0
  0
LINE
  5
398
  8
0
  6
CONTINUOUS
 62
   253
 10
122.6625937704333
 20
378.0225547540911
 30
0.0
 11
122.6625623021504
 21
378.0169786065184
 31
0.0
  0
LINE
  5
399
  8
0
  6
CONTINUOUS
 62
   253
 10
122.6625623021504
 20
378.0169786065184
 30
0.0
 11
122.6625503985251
 21
378.0015287272934
 31
0.0
  0
LINE
  5
39A
  8
0
  6
CONTINUOUS
 62
   253
 10
122.6625503985251
 20
378.0015287272934
 30
0.0
 11
122.6625494178509
 21
377.9865236270334
 31
0.0
  0
LINE
  5
39B
  8
0
  6
CONTINUOUS
 62
   253
 10
122.6625494178509
 20
377.9865236270334
 30
0.0
 11
122.6625494178509
 21
377.9759132281965
 31
0.0
  0
LINE
  5
39C
  8
0
  6
CONTINUOUS
 62
   253
 10
122.6625494178509
 20
377.9759132281965
 30
0.0
 11
122.6625494178509
 21
377.947079913186
 31
0.0
  0
LINE
  5
39D
  8
0
  6
CONTINUOUS
 62
   253
 10
122.6625494178509
 20
377.947079913186
 30
0.0
 11
122.6625494178509
 21
377.9015618828777
 31
0.0
  0
ARC
  5
39E
  8
0
  6
CONTINUOUS
 62
   253
 10
121.8833363342303
 20
400.1733378240687
 30
0.0
 40
22.28540276962243
 50
262.8968953640277
 51
272.003765582437
  0
ARC
  5
39F
  8
0
  6
CONTINUOUS
 62
   253
 10
118.9288667829763
 20
375.838152907511
 30
0.0
 40
2.22969414590006
 50
84.88566936034886
 51
95.60850734614378
  0
LINE
  5
3A0
  8
0
  6
CONTINUOUS
 62
   253
 10
118.7109572774323
 20
378.0571732840859
 30
0.0
 11
118.8109011734244
 21
378.0117902138333
 31
0.0
  0
ARC
  5
3A1
  8
0
  6
CONTINUOUS
 62
   253
 10
121.08113507101
 20
399.2614105650998
 30
0.0
 40
21.37054812171896
 50
263.9018538649048
 51
271.6755619907277
  0
LINE
  5
3A2
  8
0
  6
CONTINUOUS
 62
     7
 10
128.5391119178509
 20
435.2
 30
0.0
 11
128.5391119178509
 21
400.6000000000001
 31
0.0
  0
LINE
  5
3A3
  8
0
  6
CONTINUOUS
 62
     7
 10
131.5391119178509
 20
435.2
 30
0.0
 11
131.5391119178509
 21
400.6000000000001
 31
0.0
  0
LINE
  5
3A4
  8
0
  6
CONTINUOUS
 62
     7
 10
131.5391119178509
 20
400.6000000000001
 30
0.0
 11
128.5391119178509
 21
400.6000000000001
 31
0.0
  0
LINE
  5
3A5
  8
0
  6
CONTINUOUS
 62
     7
 10
128.5391119178509
 20
435.2
 30
0.0
 11
131.5391119178509
 21
435.2
 31
0.0
  0
LINE
  5
3A6
  8
0
  6
CONTINUOUS
 62
     7
 10
196.5927573925588
 20
378.1
 30
0.0
 11
131.485466443143
 21
378.1
 31
0.0
  0
LINE
  5
3A7
  8
0
  6
CONTINUOUS
 62
     7
 10
164.0391119178509
 20
400.6000000000001
 30
0.0
 11
196.7891119178509
 21
400.6000000000001
 31
0.0
  0
LINE
  5
3A8
  8
0
  6
CONTINUOUS
 62
     7
 10
196.4435016322722
 20
455.0000000000001
 30
0.0
 11
131.6347222034296
 21
455.0000000000001
 31
0.0
  0
LINE
  5
3A9
  8
0
  6
CONTINUOUS
 62
     7
 10
164.0391119178509
 20
435.2
 30
0.0
 11
196.7891119178509
 21
435.2
 31
0.0
  0
LINE
  5
3AA
  8
0
  6
CONTINUOUS
 62
   253
 10
164.0391119178509
 20
435.2
 30
0.0
 11
164.0391119178509
 21
400.6000000000001
 31
0.0
  0
LINE
  5
3AB
  8
0
  6
CONTINUOUS
 62
     7
 10
131.5391119178509
 20
400.6000000000001
 30
0.0
 11
164.0391119178509
 21
400.6000000000001
 31
0.0
  0
LINE
  5
3AC
  8
0
  6
CONTINUOUS
 62
     7
 10
131.5391119178509
 20
435.2
 30
0.0
 11
164.0391119178509
 21
435.2
 31
0.0
  0
ARC
  5
3AD
  8
0
  6
CONTINUOUS
 62
     7
 10
121.0775485184392
 20
437.6449968815813
 30
0.0
 40
20.46465349972984
 50
88.24035563284629
 51
96.50341788833235
  0
LINE
  5
3AE
  8
0
  6
CONTINUOUS
 62
     7
 10
118.7596710388755
 20
457.9779624019803
 30
0.0
 11
118.689034430645
 21
457.9494141888832
 31
0.0
  0
LINE
  5
3AF
  8
0
  6
CONTINUOUS
 62
     7
 10
124.95345850876
 20
458.0987066491109
 30
0.0
 11
124.95345850876
 21
458.0851244212035
 31
0.0
  0
LINE
  5
3B0
  8
0
  6
CONTINUOUS
 62
     7
 10
123.1080039633054
 20
458.0987066491109
 30
0.0
 11
124.95345850876
 21
458.0987066491109
 31
0.0
  0
ARC
  5
3B1
  8
0
  6
CONTINUOUS
 62
     7
 10
121.8866490110226
 20
425.7381124685059
 30
0.0
 40
32.36962615672019
 50
88.62648778763948
 51
95.66917598759562
  0
ARC
  5
3B2
  8
0
  6
CONTINUOUS
 62
     7
 10
121.8560435193214
 20
425.9511216285134
 30
0.0
 40
31.95561541142072
 50
88.68517605847109
 51
95.68772090979405
  0
LINE
  5
3B3
  8
0
  6
CONTINUOUS
 62
     7
 10
122.5892968406169
 20
457.898323319576
 30
0.0
 11
122.6625494178509
 21
457.8984381171224
 31
0.0
  0
LINE
  5
3B4
  8
0
  6
CONTINUOUS
 62
     7
 10
125.3989130542145
 20
458.0912286505243
 30
0.0
 11
125.3989130542145
 21
458.0999999999979
 31
0.0
  0
LINE
  5
3B5
  8
0
  6
CONTINUOUS
 62
     7
 10
125.3989130542145
 20
458.0126866297467
 30
0.0
 11
125.3989130542145
 21
458.0912286505243
 31
0.0
  0
LINE
  5
3B6
  8
0
  6
CONTINUOUS
 62
     7
 10
125.3989130542145
 20
457.9687622674551
 30
0.0
 11
125.3989130542145
 21
457.9752314898006
 31
0.0
  0
LINE
  5
3B7
  8
0
  6
CONTINUOUS
 62
     7
 10
125.3980892134027
 20
457.9600334145352
 30
0.0
 11
125.3989130542145
 21
457.9687622674551
 31
0.0
  0
LINE
  5
3B8
  8
0
  6
CONTINUOUS
 62
     7
 10
124.95345850876
 20
457.9677158237694
 30
0.0
 11
125.3980892134027
 21
457.9600334145352
 31
0.0
  0
LINE
  5
3B9
  8
0
  6
CONTINUOUS
 62
     7
 10
124.95345850876
 20
457.9812373806877
 30
0.0
 11
124.95345850876
 21
457.9677158237694
 31
0.0
  0
LINE
  5
3BA
  8
0
  6
CONTINUOUS
 62
     7
 10
124.95345850876
 20
458.0235143332323
 30
0.0
 11
124.95345850876
 21
457.9812373806877
 31
0.0
  0
LINE
  5
3BB
  8
0
  6
CONTINUOUS
 62
     7
 10
124.95345850876
 20
458.0851244212035
 30
0.0
 11
124.95345850876
 21
458.0235143332323
 31
0.0
  0
LINE
  5
3BC
  8
0
  6
CONTINUOUS
 62
     7
 10
125.3989130542145
 20
457.7687622674551
 30
0.0
 11
125.3989130542145
 21
457.7752314898007
 31
0.0
  0
LINE
  5
3BD
  8
0
  6
CONTINUOUS
 62
     7
 10
124.95345850876
 20
457.7677158237694
 30
0.0
 11
125.3980892134027
 21
457.7600334145353
 31
0.0
  0
LINE
  5
3BE
  8
0
  6
CONTINUOUS
 62
     7
 10
123.1078700322571
 20
457.9799658435272
 30
0.0
 11
123.1080039633054
 21
457.9932176629042
 31
0.0
  0
LINE
  5
3BF
  8
0
  6
CONTINUOUS
 62
     7
 10
122.6630507683427
 20
457.9761516966178
 30
0.0
 11
123.1078700322571
 21
457.9799658435272
 31
0.0
  0
LINE
  5
3C0
  8
0
  6
CONTINUOUS
 62
     7
 10
122.662602972208
 20
457.9903873679082
 30
0.0
 11
122.6630507683427
 21
457.9761516966178
 31
0.0
  0
LINE
  5
3C1
  8
0
  6
CONTINUOUS
 62
     7
 10
122.6630507683427
 20
457.7761516966177
 30
0.0
 11
123.1078700322571
 21
457.7799658435271
 31
0.0
  0
ARC
  5
3C2
  8
0
  6
CONTINUOUS
 62
     7
 10
113.7391119178509
 20
457.4
 30
0.0
 40
0.5000000000000004
 50
90.0
 51
180.0
  0
ARC
  5
3C3
  8
0
  6
CONTINUOUS
 62
     7
 10
113.7391119178509
 20
378.4
 30
0.0
 40
0.5000000000000004
 50
180.0
 51
270.0
  0
LINE
  5
3C4
  8
0
  6
CONTINUOUS
 62
     7
 10
113.7391119178509
 20
377.9
 30
0.0
 11
115.5391119178509
 21
377.9
 31
0.0
  0
LINE
  5
3C5
  8
0
  6
CONTINUOUS
 62
     7
 10
115.5391119178509
 20
457.9
 30
0.0
 11
113.7391119178509
 21
457.9
 31
0.0
  0
LINE
  5
3C6
  8
0
  6
CONTINUOUS
 62
     7
 10
118.6835434308227
 20
457.9
 30
0.0
 11
118.673413165164
 21
457.9
 31
0.0
  0
LINE
  5
3C7
  8
0
  6
CONTINUOUS
 62
     7
 10
118.673413165164
 20
457.9
 30
0.0
 11
115.5391119178509
 21
457.9
 31
0.0
  0
LINE
  5
3C8
  8
0
  6
CONTINUOUS
 62
     7
 10
127.3494553281259
 20
457.9
 30
0.0
 11
125.4004891932426
 21
457.9
 31
0.0
  0
LINE
  5
3C9
  8
0
  6
CONTINUOUS
 62
     7
 10
125.3989130542145
 20
377.9
 30
0.0
 11
127.3494553281259
 21
377.9
 31
0.0
  0
LINE
  5
3CA
  8
0
  6
CONTINUOUS
 62
     7
 10
115.5391119178509
 20
377.9
 30
0.0
 11
121.7065074202882
 21
377.9
 31
0.0
  0
LINE
  5
3CB
  8
0
  6
CONTINUOUS
 62
     7
 10
131.2891119178509
 20
400.6000000000001
 30
0.0
 11
131.485466443143
 21
378.1
 31
0.0
  0
LINE
  5
3CC
  8
0
  6
CONTINUOUS
 62
     7
 10
196.5927573925588
 20
378.1
 30
0.0
 11
196.7891119178509
 21
400.6000000000001
 31
0.0
  0
LINE
  5
3CD
  8
0
  6
CONTINUOUS
 62
     7
 10
196.7891119178509
 20
435.2
 30
0.0
 11
196.4435016322722
 21
455.0000000000001
 31
0.0
  0
LINE
  5
3CE
  8
0
  6
CONTINUOUS
 62
     7
 10
131.6347222034296
 20
455.0000000000001
 30
0.0
 11
131.2891119178509
 21
435.2
 31
0.0
  0
LINE
  5
3CF
  8
0
  6
CONTINUOUS
 62
     7
 10
196.7891119178509
 20
400.6000000000001
 30
0.0
 11
196.7891119178509
 21
435.2
 31
0.0
  0
LINE
  5
3D0
  8
0
  6
CONTINUOUS
 62
     7
 10
121.7065074202882
 20
377.9
 30
0.0
 11
125.3989130542145
 21
377.9
 31
0.0
  0
LINE
  5
3D1
  8
0
  6
CONTINUOUS
 62
     7
 10
125.3989130542145
 20
458.1000000000001
 30
0.0
 11
121.7064396863711
 21
458.1000000000001
 31
0.0
  0
LINE
  5
3D2
  8
0
  6
CONTINUOUS
 62
     7
 10
118.6835434308227
 20
457.9533526627302
 30
0.0
 11
118.6835434308227
 21
457.7533526627302
 31
0.0
  0
LINE
  5
3D3
  8
0
  6
CONTINUOUS
 62
     7
 10
125.4004891932426
 20
457.8575352495286
 30
0.0
 11
125.4004891932426
 21
457.9252463331462
 31
0.0
  0
LINE
  5
3D4
  8
0
  6
CONTINUOUS
 62
     7
 10
125.3994614714478
 20
457.7600497199561
 30
0.0
 11
125.3994614714478
 21
457.9600497199561
 31
0.0
  0
LINE
  5
3D5
  8
0
  6
CONTINUOUS
 62
     7
 10
124.9530338120074
 20
457.9676338653408
 30
0.0
 11
124.9530338120074
 21
457.9176256686858
 31
0.0
  0
LINE
  5
3D6
  8
0
  6
CONTINUOUS
 62
     7
 10
124.9530338120074
 20
457.9176256686858
 30
0.0
 11
124.9530338120074
 21
457.7676338653407
 31
0.0
  0
LINE
  5
3D7
  8
0
  6
CONTINUOUS
 62
     7
 10
123.1083034002898
 20
457.8290018270453
 30
0.0
 11
123.1083034002898
 21
457.941928447798
 31
0.0
  0
LINE
  5
3D8
  8
0
  6
CONTINUOUS
 62
     7
 10
123.1081051884835
 20
457.7792619105055
 30
0.0
 11
123.1081051884835
 21
457.9792619105054
 31
0.0
  0
LINE
  5
3D9
  8
0
  6
CONTINUOUS
 62
     7
 10
122.6616168901807
 20
457.9798093095648
 30
0.0
 11
122.6616168901807
 21
457.7798093095648
 31
0.0
  0
ENDSEC
  0
EOF
