  0
SECTION
  2
HEADER
  9
$ACADVER
  1
AC1006
  9
$DWGCODEPAGE
  3
ansi_932
  9
$INSBASE
 10
0.0
 20
0.0
 30
0.0
  9
$EXTMIN
 10
482.4249999999999
 20
172.9166666666666
  9
$EXTMAX
 10
576.25
 20
270.3698190797138
  9
$LIMMIN
 10
0.0
 20
0.0
  9
$LIMMAX
 10
12.0
 20
9.0
  9
$ORTHOMODE
 70
     0
  9
$REGENMODE
 70
     1
  9
$FILLMODE
 70
     1
  9
$QTEXTMODE
 70
     0
  9
$MIRRTEXT
 70
     1
  9
$DRAGMODE
 70
     2
  9
$LTSCALE
 40
1.0
  9
$OSMODE
 70
    37
  9
$ATTMODE
 70
     1
  9
$TEXTSIZE
 40
0.2
  9
$TRACEWID
 40
0.05
  9
$TEXTSTYLE
  7
STANDARD
  9
$CLAYER
  8
0
  9
$CELTYPE
  6
BYLAYER
  9
$CECOLOR
 62
   256
  9
$DIMSCALE
 40
1.0
  9
$DIMASZ
 40
3.0
  9
$DIMEXO
 40
0.0625
  9
$DIMDLI
 40
0.38
  9
$DIMRND
 40
0.0
  9
$DIMDLE
 40
0.0
  9
$DIMEXE
 40
0.18
  9
$DIMTP
 40
0.0
  9
$DIMTM
 40
0.0
  9
$DIMTXT
 40
3.0
  9
$DIMCEN
 40
0.09
  9
$DIMTSZ
 40
0.0
  9
$DIMTOL
 70
     0
  9
$DIMLIM
 70
     0
  9
$DIMTIH
 70
     1
  9
$DIMTOH
 70
     1
  9
$DIMSE1
 70
     0
  9
$DIMSE2
 70
     0
  9
$DIMTAD
 70
     1
  9
$DIMZIN
 70
     0
  9
$DIMBLK
  1

  9
$DIMASO
 70
     1
  9
$DIMSHO
 70
     1
  9
$DIMPOST
  1

  9
$DIMAPOST
  1

  9
$DIMALT
 70
     0
  9
$DIMALTD
 70
     2
  9
$DIMALTF
 40
25.4
  9
$DIMLFAC
 40
1.0
  9
$DIMTOFL
 70
     0
  9
$DIMTVP
 40
0.0
  9
$DIMTIX
 70
     0
  9
$DIMSOXD
 70
     0
  9
$DIMSAH
 70
     0
  9
$DIMBLK1
  1

  9
$DIMBLK2
  1

  9
$LUNITS
 70
     2
  9
$LUPREC
 70
     4
  9
$SKETCHINC
 40
0.1
  9
$FILLETRAD
 40
0.5
  9
$AUNITS
 70
     0
  9
$AUPREC
 70
     0
  9
$MENU
  1
.
  9
$ELEVATION
 40
0.0
  9
$THICKNESS
 40
0.0
  9
$LIMCHECK
 70
     0
  9
$CHAMFERA
 40
0.5
  9
$CHAMFERB
 40
0.5
  9
$SKPOLY
 70
     0
  9
$TDCREATE
 40
2460339.415074387
  9
$TDUPDATE
 40
2460339.415074398
  9
$TDINDWG
 40
0.0000000116
  9
$TDUSRTIMER
 40
0.0000000116
  9
$USRTIMER
 70
     1
  9
$ANGBASE
 50
0.0
  9
$ANGDIR
 70
     0
  9
$PDMODE
 70
     0
  9
$PDSIZE
 40
0.0
  9
$PLINEWID
 40
0.0
  9
$COORDS
 70
     1
  9
$SPLFRAME
 70
     0
  9
$SPLINETYPE
 70
     6
  9
$SPLINESEGS
 70
     8
  9
$ATTDIA
 70
     0
  9
$ATTREQ
 70
     1
  9
$HANDLING
 70
     1
  9
$HANDSEED
  5
14F
  9
$SURFTAB1
 70
     6
  9
$SURFTAB2
 70
     6
  9
$SURFTYPE
 70
     6
  9
$SURFU
 70
     6
  9
$SURFV
 70
     6
  9
$UCSNAME
  2

  9
$UCSORG
 10
0.0
 20
0.0
 30
0.0
  9
$UCSXDIR
 10
1.0
 20
0.0
 30
0.0
  9
$UCSYDIR
 10
0.0
 20
1.0
 30
0.0
  9
$USERI1
 70
     0
  9
$USERI2
 70
     0
  9
$USERI3
 70
     0
  9
$USERI4
 70
     0
  9
$USERI5
 70
     0
  9
$USERR1
 40
0.0
  9
$USERR2
 40
0.0
  9
$USERR3
 40
0.0
  9
$USERR4
 40
0.0
  9
$USERR5
 40
0.0
  9
$WORLDVIEW
 70
     1
  0
ENDSEC
  0
SECTION
  2
TABLES
  0
TABLE
  2
VPORT
 70
     1
  0
VPORT
  2
*ACTIVE
 70
     0
 10
0.0
 20
0.0
 11
1.0
 21
1.0
 12
529.3375
 22
221.6432428731902
 13
0.0
 23
0.0
 14
0.5
 24
0.5
 15
0.5
 25
0.5
 16
0.0
 26
0.0
 36
1.0
 17
0.0
 27
0.0
 37
0.0
 40
97.45315241304718
 41
1.6
 42
50.0
 43
0.0
 44
0.0
 50
0.0
 51
0.0
 71
     0
 72
   100
 73
     1
 74
     3
 75
     0
 76
     0
 77
     0
 78
     0
  0
ENDTAB
  0
TABLE
  2
LTYPE
 70
     3
  0
LTYPE
  2
CONTINUOUS
 70
     0
  3
Solid line
 72
    65
 73
     0
 40
0.0
  0
LTYPE
  2
________________
 70
     0
  3

 72
    65
 73
     0
 40
0.0
  0
LTYPE
  2
________________0
 70
     0
  3

 72
    65
 73
     4
 40
7.2
 49
2.7
 49
-1.8
 49
0.8999999999999999
 49
-1.8
  0
ENDTAB
  0
TABLE
  2
LAYER
 70
     2
  0
LAYER
  2
0
 70
     0
 62
     7
  6
CONTINUOUS
  0
LAYER
  2
1
 70
     0
 62
     7
  6
CONTINUOUS
  0
ENDTAB
  0
TABLE
  2
STYLE
 70
     2
  0
STYLE
  2
STANDARD
 70
     0
 40
0.0
 41
1.0
 50
0.0
 71
     0
 42
0.2
  3
txt
  4

  0
STYLE
  2
EXPLODED0
 70
     0
 40
0.2
 41
1.0
 50
0.0
 71
     0
 42
0.2
  3
ＭＳ ゴシック
  4

  0
ENDTAB
  0
TABLE
  2
VIEW
 70
     0
  0
ENDTAB
  0
TABLE
  2
UCS
 70
     0
  0
ENDTAB
  0
ENDSEC
  0
SECTION
  2
BLOCKS
  0
BLOCK
  8
0
  2
_1483
 70
     0
 10
0.0
 20
0.0
 30
0.0
  0
ENDBLK
  8
0
  0
BLOCK
  8
0
  2
_1823
 70
     0
 10
0.0
 20
0.0
 30
0.0
  0
ENDBLK
  8
0
  0
BLOCK
  8
0
  2
_1948
 70
     0
 10
0.0
 20
0.0
 30
0.0
  0
ENDBLK
  8
0
  0
ENDSEC
  0
SECTION
  2
ENTITIES
  0
INSERT
  5
3D
  8
1
  6
________________
 62
     7
  2
_1483
 10
0.0
 20
0.0
 30
0.0
  0
LINE
  5
3F
  8
1
  6
________________
 62
     7
 10
501.8968550434192
 20
268.96988630782
 30
0.0
 11
503.9252668068989
 21
266.9414745443402
 31
0.0
  0
LINE
  5
40
  8
1
  6
________________
 62
     7
 10
504.0928513320167
 20
266.7738900192224
 30
0.0
 11
508.9898705214869
 21
261.8768708297524
 31
0.0
  0
LINE
  5
41
  8
1
  6
________________
 62
     7
 10
509.2268708297523
 20
261.639870521487
 30
0.0
 11
514.1238900192225
 21
256.7428513320169
 31
0.0
  0
LINE
  5
42
  8
1
  6
________________
 62
     7
 10
514.2914745443402
 20
256.5752668068991
 30
0.0
 11
516.31988630782
 21
254.5468550434192
 31
0.0
  0
LINE
  5
43
  8
1
  6
________________
 62
     7
 10
494.0915437455844
 20
225.9091282707021
 30
0.0
 11
487.1661127926344
 21
225.9091282707021
 31
0.0
  0
LINE
  5
44
  8
1
  6
________________
 62
     7
 10
486.9291124843691
 20
225.9091282707021
 30
0.0
 11
484.0605050583787
 21
225.9091282707021
 31
0.0
  0
LINE
  5
45
  8
1
  6
________________
 62
     7
 10
504.4577514830255
 20
225.9091282707021
 30
0.0
 11
501.5891440570352
 21
225.9091282707021
 31
0.0
  0
LINE
  5
46
  8
1
  6
________________
 62
     7
 10
501.3521437487698
 20
225.9091282707021
 30
0.0
 11
494.4267127958198
 21
225.9091282707021
 31
0.0
  0
LINE
  5
47
  8
1
  6
________________
 62
     7
 10
509.0495358350782
 20
261.8172055161611
 30
0.0
 11
509.1672055161611
 21
261.6995358350782
 31
0.0
  0
LINE
  5
48
  8
1
  6
________________
 62
     7
 10
494.3423333001359
 20
225.9091282707021
 30
0.0
 11
494.1759232412683
 21
225.9091282707021
 31
0.0
  0
LINE
  5
49
  8
1
  6
________________
 62
     7
 10
494.4267127958199
 20
225.9091282707021
 30
0.0
 11
494.3423333001359
 21
225.9091282707021
 31
0.0
  0
LINE
  5
4A
  8
1
  6
________________
 62
     7
 10
508.9898705214869
 20
261.8768708297524
 30
0.0
 11
509.0495358350782
 21
261.8172055161611
 31
0.0
  0
LINE
  5
4B
  8
1
  6
________________
 62
     7
 10
494.1759232412683
 20
225.9091282707021
 30
0.0
 11
494.0915437455844
 21
225.9091282707021
 31
0.0
  0
LINE
  5
4C
  8
1
  6
________________
 62
     7
 10
509.1672055161611
 20
261.6995358350782
 30
0.0
 11
509.2268708297524
 21
261.639870521487
 31
0.0
  0
LINE
  5
4D
  8
1
  6
________________
 62
     7
 10
503.9027987793876
 20
266.9639425718517
 30
0.0
 11
503.9873769624119
 21
266.8793643888274
 31
0.0
  0
LINE
  5
4E
  8
1
  6
________________
 62
     7
 10
514.2293643888273
 20
256.6373769624119
 30
0.0
 11
514.3139425718517
 21
256.5527987793876
 31
0.0
  0
LINE
  5
4F
  8
1
  6
________________
 62
     7
 10
487.0169495086563
 20
225.9091282707021
 30
0.0
 11
486.8973378951425
 21
225.9091282707021
 31
0.0
  0
LINE
  5
50
  8
1
  6
________________
 62
     7
 10
501.6209186462617
 20
225.9091282707021
 30
0.0
 11
501.5013070327478
 21
225.9091282707021
 31
0.0
  0
LINE
  5
51
  8
1
  6
________________
 62
     7
 10
514.1238900192225
 20
256.7428513320169
 30
0.0
 11
514.2293643888273
 21
256.6373769624119
 31
0.0
  0
LINE
  5
52
  8
1
  6
________________
 62
     7
 10
487.1661127926344
 20
225.9091282707021
 30
0.0
 11
487.0169495086564
 21
225.9091282707021
 31
0.0
  0
LINE
  5
53
  8
1
  6
________________
 62
     7
 10
501.5013070327478
 20
225.9091282707021
 30
0.0
 11
501.3521437487698
 21
225.9091282707021
 31
0.0
  0
LINE
  5
54
  8
1
  6
________________
 62
     7
 10
503.9873769624118
 20
266.8793643888274
 30
0.0
 11
504.0928513320167
 21
266.7738900192224
 31
0.0
  0
LINE
  5
55
  8
1
  6
________________
 62
     7
 10
516.31988630782
 20
254.5468550434193
 30
0.0
 11
516.4093842782069
 21
254.4573570730324
 31
0.0
  0
LINE
  5
56
  8
1
  6
________________
 62
     7
 10
501.8073570730323
 20
269.0593842782068
 30
0.0
 11
501.8968550434192
 21
268.96988630782
 31
0.0
  0
LINE
  5
57
  8
1
  6
________________
 62
     7
 10
484.0605050583788
 20
225.9091282707021
 30
0.0
 11
483.9339358148528
 21
225.9091282707021
 31
0.0
  0
LINE
  5
58
  8
1
  6
________________
 62
     7
 10
504.5843207265514
 20
225.9091282707021
 30
0.0
 11
504.4577514830255
 21
225.9091282707021
 31
0.0
  0
LINE
  5
59
  8
1
  6
________________
 62
     7
 10
501.7758696219413
 20
269.0908717292979
 30
0.0
 11
501.8073570730323
 21
269.0593842782069
 31
0.0
  0
LINE
  5
5A
  8
1
  6
________________
 62
     7
 10
516.4093842782069
 20
254.4573570730324
 30
0.0
 11
516.4408717292979
 21
254.4258696219414
 31
0.0
  0
LINE
  5
5B
  8
1
  6
________________
 62
     7
 10
504.628850706929
 20
225.9091282707021
 30
0.0
 11
504.5843207265514
 21
225.9091282707021
 31
0.0
  0
LINE
  5
5C
  8
1
  6
________________
 62
     7
 10
483.9339358148528
 20
225.9091282707021
 30
0.0
 11
483.8894058344753
 21
225.9091282707021
 31
0.0
  0
LINE
  5
5D
  8
1
  6
________________
 62
     7
 10
483.5591282707021
 20
246.9091282707022
 30
0.0
 11
483.5591282707021
 21
230.9091282707022
 31
0.0
  0
LINE
  5
5E
  8
1
  6
________________
 62
     7
 10
504.9591282707021
 20
230.9091282707022
 30
0.0
 11
504.9591282707021
 21
242.47704315331
 31
0.0
  0
LINE
  5
5F
  8
1
  6
________________
 62
     7
 10
513.1388793283829
 20
250.6567942109909
 30
0.0
 11
515.2412102275738
 21
253.2263097544462
 31
0.0
  0
LINE
  5
60
  8
1
  6
________________
 62
     7
 10
500.5763097544463
 20
267.8912102275738
 30
0.0
 11
498.0067942109908
 21
265.788879328383
 31
0.0
  0
LINE
  5
61
  8
1
  6
________________
 62
     7
 10
483.5591282707021
 20
230.9091282707022
 30
0.0
 11
483.8894058344753
 21
227.6063526329701
 31
0.0
  0
LINE
  5
62
  8
1
  6
________________
 62
     7
 10
483.8894058344753
 20
227.6063526329701
 30
0.0
 11
483.8894777007279
 21
227.6056339704448
 31
0.0
  0
LINE
  5
63
  8
1
  6
________________
 62
     7
 10
504.6287788406764
 20
227.6056339704449
 30
0.0
 11
504.6288507069289
 21
227.6063526329701
 31
0.0
  0
LINE
  5
64
  8
1
  6
________________
 62
     7
 10
504.628850706929
 20
227.6063526329701
 30
0.0
 11
504.9591282707022
 21
230.9091282707022
 31
0.0
  0
LINE
  5
65
  8
1
  6
________________
 62
     7
 10
504.9591282707021
 20
242.47704315331
 30
0.0
 11
513.1388793283828
 21
250.6567942109909
 31
0.0
  0
LINE
  5
66
  8
1
  6
________________
 62
     7
 10
498.0067942109908
 20
265.788879328383
 30
0.0
 11
486.6930857120061
 21
254.4751708293982
 31
0.0
  0
ARC
  5
67
  8
1
  6
________________
 62
     7
 10
494.2591282707021
 20
246.9091282707022
 30
0.0
 40
10.7
 50
135.0
 51
180.0
  0
LINE
  5
68
  8
1
  6
________________
 62
     7
 10
501.7758696219413
 20
269.0908717292979
 30
0.0
 11
500.5760997781779
 21
267.8911018855346
 31
0.0
  0
LINE
  5
69
  8
1
  6
________________
 62
     7
 10
515.2411018855344
 20
253.2260997781779
 30
0.0
 11
516.4408717292979
 21
254.4258696219414
 31
0.0
  0
LINE
  5
6A
  8
1
  6
________________
 62
     7
 10
504.628850706929
 20
225.9091282707021
 30
0.0
 11
504.628850706929
 21
227.6063526329701
 31
0.0
  0
LINE
  5
6B
  8
1
  6
________________
 62
     7
 10
483.8894058344753
 20
227.6063526329702
 30
0.0
 11
483.8894058344753
 21
225.9091282707021
 31
0.0
  0
POLYLINE
  5
6C
  8
1
  6
________________
 62
     7
 66
     1
 10
0.0
 20
0.0
 30
0.0
  0
VERTEX
  5
B9
  8
1
  6
________________
 62
     7
 10
574.0271844892138
 20
264.9781923554535
 30
0.0
  0
VERTEX
  5
BA
  8
1
  6
________________
 62
     7
 10
572.9452647889035
 20
266.1919761202003
 30
0.0
  0
VERTEX
  5
BB
  8
1
  6
________________
 62
     7
 10
571.5449762145265
 20
267.2303123377894
 30
0.0
  0
VERTEX
  5
BC
  8
1
  6
________________
 62
     7
 10
569.8817312737491
 20
268.0521117537127
 30
0.0
  0
VERTEX
  5
BD
  8
1
  6
________________
 62
     7
 10
568.0213482376893
 20
268.6248539523441
 30
0.0
  0
VERTEX
  5
BE
  8
1
  6
________________
 62
     7
 10
566.0374465667459
 20
268.9258742615203
 30
0.0
  0
VERTEX
  5
BF
  8
1
  6
________________
 62
     7
 10
564.008533626159
 20
268.9432606436118
 30
0.0
  0
VERTEX
  5
C0
  8
1
  6
________________
 62
     7
 10
562.0148979763953
 20
268.6763250811282
 30
0.0
  0
VERTEX
  5
C1
  8
1
  6
________________
 62
     7
 10
560.1354321777085
 20
268.1356308030875
 30
0.0
  0
VERTEX
  5
C2
  8
1
  6
________________
 62
     7
 10
558.4445108375073
 20
267.3425742747436
 30
0.0
  0
VERTEX
  5
C3
  8
1
  6
________________
 62
     7
 10
557.0090474430841
 20
266.3285384922595
 30
0.0
  0
VERTEX
  5
C4
  8
1
  6
________________
 62
     7
 10
555.8858464473236
 20
265.1336510883239
 30
0.0
  0
SEQEND
  5
C5
  8
1
  6
________________
 62
     7
  0
POLYLINE
  5
6D
  8
1
  6
________________
 62
     7
 66
     1
 10
0.0
 20
0.0
 30
0.0
  0
VERTEX
  5
C6
  8
1
  6
________________
 62
     7
 10
571.9930154780678
 20
266.9414745443402
 30
0.0
  0
VERTEX
  5
C7
  8
1
  6
________________
 62
     7
 10
570.4969520768038
 20
267.7880525681394
 30
0.0
  0
VERTEX
  5
C8
  8
1
  6
________________
 62
     7
 10
568.803371010124
 20
268.4218417964892
 30
0.0
  0
VERTEX
  5
C9
  8
1
  6
________________
 62
     7
 10
566.9720391250357
 20
268.82047566862
 30
0.0
  0
VERTEX
  5
CA
  8
1
  6
________________
 62
     7
 10
565.0675845251178
 20
268.96988630782
 30
0.0
  0
SEQEND
  5
CB
  8
1
  6
________________
 62
     7
  0
LINE
  5
6E
  8
1
  6
________________
 62
     7
 10
575.0986232123234
 20
261.8768708297524
 30
0.0
 11
575.0488718584876
 21
262.4796195924299
 31
0.0
  0
POLYLINE
  5
6F
  8
1
  6
________________
 62
     7
 66
     1
 10
0.0
 20
0.0
 30
0.0
  0
VERTEX
  5
CC
  8
1
  6
________________
 62
     7
 10
570.5400258014128
 20
255.7487904507038
 30
0.0
  0
VERTEX
  5
CD
  8
1
  6
________________
 62
     7
 10
571.983974784891
 20
256.5690883915735
 30
0.0
  0
VERTEX
  5
CE
  8
1
  6
________________
 62
     7
 10
573.194326493496
 20
257.5605052645272
 30
0.0
  0
VERTEX
  5
CF
  8
1
  6
________________
 62
     7
 10
574.1311690318084
 20
258.6903486494452
 30
0.0
  0
VERTEX
  5
D0
  8
1
  6
________________
 62
     7
 10
574.7636095930948
 20
259.9213614493213
 30
0.0
  0
VERTEX
  5
D1
  8
1
  6
________________
 62
     7
 10
575.070793163592
 20
261.2129504598998
 30
0.0
  0
VERTEX
  5
D2
  8
1
  6
________________
 62
     7
 10
575.0425902260258
 20
262.5225249489592
 30
0.0
  0
SEQEND
  5
D3
  8
1
  6
________________
 62
     7
  0
POLYLINE
  5
70
  8
1
  6
________________
 62
     7
 66
     1
 10
0.0
 20
0.0
 30
0.0
  0
VERTEX
  5
D4
  8
1
  6
________________
 62
     7
 10
565.0675845251179
 20
254.5468550434193
 30
0.0
  0
VERTEX
  5
D5
  8
1
  6
________________
 62
     7
 10
566.9720391250358
 20
254.6962656826193
 30
0.0
  0
VERTEX
  5
D6
  8
1
  6
________________
 62
     7
 10
568.803371010124
 20
255.0948995547501
 30
0.0
  0
VERTEX
  5
D7
  8
1
  6
________________
 62
     7
 10
570.496952076804
 20
255.7286887830999
 30
0.0
  0
VERTEX
  5
D8
  8
1
  6
________________
 62
     7
 10
571.9930154780678
 20
256.5752668068991
 30
0.0
  0
SEQEND
  5
D9
  8
1
  6
________________
 62
     7
  0
POLYLINE
  5
71
  8
1
  6
________________
 62
     7
 66
     1
 10
0.0
 20
0.0
 30
0.0
  0
VERTEX
  5
DA
  8
1
  6
________________
 62
     7
 10
554.7014334829967
 20
261.8792859315984
 30
0.0
  0
VERTEX
  5
DB
  8
1
  6
________________
 62
     7
 10
554.8566767670358
 20
260.4990735625049
 30
0.0
  0
VERTEX
  5
DC
  8
1
  6
________________
 62
     7
 10
555.3820357073553
 20
259.1652686988418
 30
0.0
  0
VERTEX
  5
DD
  8
1
  6
________________
 62
     7
 10
556.2581498229205
 20
257.9270245990488
 30
0.0
  0
VERTEX
  5
DE
  8
1
  6
________________
 62
     7
 10
557.4527326341132
 20
256.8299729247783
 30
0.0
  0
VERTEX
  5
DF
  8
1
  6
________________
 62
     7
 10
558.9217614812131
 20
255.91454212695
 30
0.0
  0
VERTEX
  5
E0
  8
1
  6
________________
 62
     7
 10
560.611099843546
 20
255.214467580067
 30
0.0
  0
VERTEX
  5
E1
  8
1
  6
________________
 62
     7
 10
562.4584923737381
 20
254.7555483691883
 30
0.0
  0
VERTEX
  5
E2
  8
1
  6
________________
 62
     7
 10
564.3958591262516
 20
254.5546965443372
 30
0.0
  0
VERTEX
  5
E3
  8
1
  6
________________
 62
     7
 10
566.3518044334941
 20
254.6193138791343
 30
0.0
  0
SEQEND
  5
E4
  8
1
  6
________________
 62
     7
  0
POLYLINE
  5
72
  8
1
  6
________________
 62
     7
 66
     1
 10
0.0
 20
0.0
 30
0.0
  0
VERTEX
  5
E5
  8
1
  6
________________
 62
     7
 10
557.569984213667
 20
266.7738900192224
 30
0.0
  0
VERTEX
  5
E6
  8
1
  6
________________
 62
     7
 10
556.1831749340271
 20
265.5038319802673
 30
0.0
  0
VERTEX
  5
E7
  8
1
  6
________________
 62
     7
 10
555.2277944400064
 20
264.048396833246
 30
0.0
  0
VERTEX
  5
E8
  8
1
  6
________________
 62
     7
 10
554.7511281415126
 20
262.4796195924299
 30
0.0
  0
SEQEND
  5
E9
  8
1
  6
________________
 62
     7
  0
POLYLINE
  5
73
  8
1
  6
________________
 62
     7
 66
     1
 10
0.0
 20
0.0
 30
0.0
 70
     1
  0
VERTEX
  5
EA
  8
1
  6
________________
 62
     7
 10
574.2500000000001
 20
261.7583706756196
 30
0.0
  0
VERTEX
  5
EB
  8
1
  6
________________
 62
     7
 10
574.0703423717703
 20
260.4685410774719
 30
0.0
  0
VERTEX
  5
EC
  8
1
  6
________________
 62
     7
 10
573.5382736289806
 20
259.2282789074362
 30
0.0
  0
VERTEX
  5
ED
  8
1
  6
________________
 62
     7
 10
572.6742408750289
 20
258.08524674516
 30
0.0
  0
VERTEX
  5
EE
  8
1
  6
________________
 62
     7
 10
571.5114484040943
 20
257.0833706756197
 30
0.0
  0
VERTEX
  5
EF
  8
1
  6
________________
 62
     7
 10
570.0945816787333
 20
256.2611522343091
 30
0.0
  0
VERTEX
  5
F0
  8
1
  6
________________
 62
     7
 10
568.4780900926137
 20
255.6501888148226
 30
0.0
  0
VERTEX
  5
F1
  8
1
  6
________________
 62
     7
 10
566.7240945108509
 20
255.2739593987386
 30
0.0
  0
VERTEX
  5
F2
  8
1
  6
________________
 62
     7
 10
564.9000000000001
 20
255.1469222715254
 30
0.0
  0
VERTEX
  5
F3
  8
1
  6
________________
 62
     7
 10
563.0759054891492
 20
255.2739593987386
 30
0.0
  0
VERTEX
  5
F4
  8
1
  6
________________
 62
     7
 10
561.3219099073865
 20
255.6501888148226
 30
0.0
  0
VERTEX
  5
F5
  8
1
  6
________________
 62
     7
 10
559.7054183212668
 20
256.2611522343091
 30
0.0
  0
VERTEX
  5
F6
  8
1
  6
________________
 62
     7
 10
558.2885515959059
 20
257.0833706756197
 30
0.0
  0
VERTEX
  5
F7
  8
1
  6
________________
 62
     7
 10
557.1257591249713
 20
258.08524674516
 30
0.0
  0
VERTEX
  5
F8
  8
1
  6
________________
 62
     7
 10
556.2617263710196
 20
259.2282789074362
 30
0.0
  0
VERTEX
  5
F9
  8
1
  6
________________
 62
     7
 10
555.7296576282299
 20
260.4685410774719
 30
0.0
  0
VERTEX
  5
FA
  8
1
  6
________________
 62
     7
 10
555.5500000000001
 20
261.7583706756196
 30
0.0
  0
VERTEX
  5
FB
  8
1
  6
________________
 62
     7
 10
555.7296576282299
 20
263.0482002737674
 30
0.0
  0
VERTEX
  5
FC
  8
1
  6
________________
 62
     7
 10
556.2617263710196
 20
264.2884624438031
 30
0.0
  0
VERTEX
  5
FD
  8
1
  6
________________
 62
     7
 10
557.1257591249713
 20
265.4314946060794
 30
0.0
  0
VERTEX
  5
FE
  8
1
  6
________________
 62
     7
 10
558.2885515959059
 20
266.4333706756196
 30
0.0
  0
VERTEX
  5
FF
  8
1
  6
________________
 62
     7
 10
559.7054183212668
 20
267.2555891169301
 30
0.0
  0
VERTEX
  5
100
  8
1
  6
________________
 62
     7
 10
561.3219099073865
 20
267.8665525364167
 30
0.0
  0
VERTEX
  5
101
  8
1
  6
________________
 62
     7
 10
563.0759054891494
 20
268.2427819525006
 30
0.0
  0
VERTEX
  5
102
  8
1
  6
________________
 62
     7
 10
564.9000000000001
 20
268.3698190797138
 30
0.0
  0
VERTEX
  5
103
  8
1
  6
________________
 62
     7
 10
566.7240945108509
 20
268.2427819525006
 30
0.0
  0
VERTEX
  5
104
  8
1
  6
________________
 62
     7
 10
568.4780900926137
 20
267.8665525364166
 30
0.0
  0
VERTEX
  5
105
  8
1
  6
________________
 62
     7
 10
570.0945816787333
 20
267.2555891169301
 30
0.0
  0
VERTEX
  5
106
  8
1
  6
________________
 62
     7
 10
571.5114484040943
 20
266.4333706756196
 30
0.0
  0
VERTEX
  5
107
  8
1
  6
________________
 62
     7
 10
572.6742408750289
 20
265.4314946060793
 30
0.0
  0
VERTEX
  5
108
  8
1
  6
________________
 62
     7
 10
573.5382736289806
 20
264.288462443803
 30
0.0
  0
VERTEX
  5
109
  8
1
  6
________________
 62
     7
 10
574.0703423717703
 20
263.0482002737673
 30
0.0
  0
SEQEND
  5
10A
  8
1
  6
________________
 62
     7
  0
LINE
  5
74
  8
1
  6
________________
 62
     7
 10
575.546365577041
 20
258.9794410255565
 30
0.0
 11
575.6000000000001
 21
258.2228367696869
 31
0.0
  0
POLYLINE
  5
75
  8
1
  6
________________
 62
     7
 66
     1
 10
0.0
 20
0.0
 30
0.0
  0
VERTEX
  5
10B
  8
1
  6
________________
 62
     7
 10
575.0488718584876
 20
262.4796195924299
 30
0.0
  0
VERTEX
  5
10C
  8
1
  6
________________
 62
     7
 10
574.5722055599938
 20
264.048396833246
 30
0.0
  0
VERTEX
  5
10D
  8
1
  6
________________
 62
     7
 10
573.616825065973
 20
265.5038319802673
 30
0.0
  0
VERTEX
  5
10E
  8
1
  6
________________
 62
     7
 10
572.2300157863332
 20
266.7738900192224
 30
0.0
  0
SEQEND
  5
10F
  8
1
  6
________________
 62
     7
  0
LINE
  5
76
  8
1
  6
________________
 62
     7
 10
554.7511281415126
 20
262.4796195924299
 30
0.0
 11
554.7013767876767
 21
261.8768708297524
 31
0.0
  0
LINE
  5
77
  8
1
  6
________________
 62
     7
 10
554.2
 20
258.2228367696869
 30
0.0
 11
554.2536344229592
 21
258.9794410255565
 31
0.0
  0
LINE
  5
78
  8
1
  6
________________
 62
     7
 10
575.0986232123234
 20
225.9091282707022
 30
0.0
 11
572.2300157863332
 21
225.9091282707022
 31
0.0
  0
LINE
  5
79
  8
1
  6
________________
 62
     7
 10
571.9930154780678
 20
225.9091282707022
 30
0.0
 11
565.0675845251178
 21
225.9091282707022
 31
0.0
  0
LINE
  5
7A
  8
1
  6
________________
 62
     7
 10
564.7324154748823
 20
225.9091282707022
 30
0.0
 11
557.8069845219323
 21
225.9091282707022
 31
0.0
  0
LINE
  5
7B
  8
1
  6
________________
 62
     7
 10
557.569984213667
 20
225.9091282707022
 30
0.0
 11
554.7013767876767
 21
225.9091282707022
 31
0.0
  0
LINE
  5
7C
  8
1
  6
________________
 62
     7
 10
564.9832050294339
 20
225.9091282707021
 30
0.0
 11
564.8167949705662
 21
225.9091282707021
 31
0.0
  0
LINE
  5
7D
  8
1
  6
________________
 62
     7
 10
565.0675845251178
 20
225.9091282707022
 30
0.0
 11
564.9832050294339
 21
225.9091282707021
 31
0.0
  0
LINE
  5
7E
  8
1
  6
________________
 62
     7
 10
564.8167949705662
 20
225.9091282707021
 30
0.0
 11
564.7324154748823
 21
225.9091282707022
 31
0.0
  0
LINE
  5
7F
  8
1
  6
________________
 62
     7
 10
572.2617903755597
 20
225.9091282707021
 30
0.0
 11
572.1421787620459
 21
225.9091282707021
 31
0.0
  0
LINE
  5
80
  8
1
  6
________________
 62
     7
 10
557.6578212379543
 20
225.9091282707021
 30
0.0
 11
557.5382096244405
 21
225.9091282707021
 31
0.0
  0
LINE
  5
81
  8
1
  6
________________
 62
     7
 10
557.8069845219323
 20
225.9091282707022
 30
0.0
 11
557.6578212379543
 21
225.9091282707021
 31
0.0
  0
LINE
  5
82
  8
1
  6
________________
 62
     7
 10
572.1421787620459
 20
225.9091282707021
 30
0.0
 11
571.9930154780678
 21
225.9091282707022
 31
0.0
  0
LINE
  5
83
  8
1
  6
________________
 62
     7
 10
554.7013767876767
 20
225.9091282707022
 30
0.0
 11
554.5748075441508
 21
225.9091282707021
 31
0.0
  0
LINE
  5
84
  8
1
  6
________________
 62
     7
 10
575.2251924558493
 20
225.9091282707021
 30
0.0
 11
575.0986232123234
 21
225.9091282707022
 31
0.0
  0
LINE
  5
85
  8
1
  6
________________
 62
     7
 10
575.2697224362269
 20
225.9091282707021
 30
0.0
 11
575.2251924558493
 21
225.9091282707021
 31
0.0
  0
LINE
  5
86
  8
1
  6
________________
 62
     7
 10
554.5748075441508
 20
225.9091282707021
 30
0.0
 11
554.5302775637732
 21
225.9091282707021
 31
0.0
  0
LINE
  5
87
  8
1
  6
________________
 62
     7
 10
575.5463655770409
 20
258.9794410255565
 30
0.0
 11
575.0488720212416
 21
262.4796184473544
 31
0.0
  0
LINE
  5
88
  8
1
  6
________________
 62
     7
 10
554.7511281820649
 20
262.4796198777416
 30
0.0
 11
554.2536344229593
 21
258.9794410255565
 31
0.0
  0
LINE
  5
89
  8
1
  6
________________
 62
     7
 10
575.6000000000001
 20
246.9091282707022
 30
0.0
 11
575.6000000000001
 21
258.2228367696869
 31
0.0
  0
LINE
  5
8A
  8
1
  6
________________
 62
     7
 10
554.2
 20
258.2228367696869
 30
0.0
 11
554.2
 21
246.9091282707022
 31
0.0
  0
LINE
  5
8B
  8
1
  6
________________
 62
     7
 10
554.2
 20
246.9091282707022
 30
0.0
 11
554.2
 21
230.9091282707022
 31
0.0
  0
LINE
  5
8C
  8
1
  6
________________
 62
     7
 10
575.6000000000001
 20
235.4829192861673
 30
0.0
 11
575.6000000000001
 21
246.9091282707022
 31
0.0
  0
LINE
  5
8D
  8
1
  6
________________
 62
     7
 10
575.6000000000001
 20
230.9091282707022
 30
0.0
 11
575.6000000000001
 21
235.4829192861673
 31
0.0
  0
LINE
  5
8E
  8
1
  6
________________
 62
     7
 10
554.2
 20
230.9091282707022
 30
0.0
 11
554.5302054443243
 21
227.6070738274594
 31
0.0
  0
LINE
  5
8F
  8
1
  6
________________
 62
     7
 10
575.2697222867419
 20
227.6063511381207
 30
0.0
 11
575.6000000000001
 21
230.9091282707022
 31
0.0
  0
LINE
  5
90
  8
1
  6
________________
 62
     7
 10
575.2697224362269
 20
225.9091282707021
 30
0.0
 11
575.2697224362269
 21
227.6063526329701
 31
0.0
  0
LINE
  5
91
  8
1
  6
________________
 62
     7
 10
554.5302775637732
 20
227.6063526329702
 30
0.0
 11
554.5302775637732
 21
225.9091282707021
 31
0.0
  0
INSERT
  5
95
  8
1
  6
________________
 62
     7
  2
_1823
 10
0.0
 20
0.0
 30
0.0
  0
ARC
  5
96
  8
1
  6
________________
 62
     7
 10
494.2591282707021
 20
184.2666666666667
 30
0.0
 40
10.20000000000003
 50
180.9414037296592
 51
224.0585962703408
  0
ARC
  5
97
  8
1
  6
________________
 62
     7
 10
494.2591282707021
 20
184.2666666666667
 30
0.0
 40
10.20000000000001
 50
135.9414037296592
 51
179.0585962703408
  0
ARC
  5
98
  8
1
  6
________________
 62
     7
 10
494.2591282707021
 20
184.2666666666667
 30
0.0
 40
10.2
 50
44.05859627034107
 51
225.9414037296594
  0
ARC
  5
99
  8
1
  6
________________
 62
     7
 10
494.2591282707021
 20
184.2666666666667
 30
0.0
 40
10.19999999999999
 50
45.94140372965921
 51
89.05859627034081
  0
ARC
  5
9A
  8
1
  6
________________
 62
     7
 10
494.2591282707021
 20
184.2666666666667
 30
0.0
 40
10.20000000000003
 50
0.9414037296591967
 51
44.05859627034081
  0
ARC
  5
9B
  8
1
  6
________________
 62
     7
 10
494.2591282707021
 20
184.2666666666667
 30
0.0
 40
10.19999999999997
 50
269.058596270341
 51
44.05859627034099
  0
ARC
  5
9C
  8
1
  6
________________
 62
     7
 10
494.2591282707021
 20
184.2666666666667
 30
0.0
 40
10.2
 50
270.9414037296592
 51
314.0585962703408
  0
ARC
  5
9D
  8
1
  6
________________
 62
     7
 10
494.2591282707021
 20
184.2666666666667
 30
0.0
 40
10.19999999999999
 50
225.9414037296592
 51
269.0585962703408
  0
ARC
  5
9E
  8
1
  6
________________
 62
     7
 10
-494.2591282707021
 20
184.2666666666667
 30
0.0
 40
10.69999999999999
 50
270.0
 51
90.0
210
0.0
220
0.0
230
-1.0
  0
CIRCLE
  5
9F
  8
1
  6
________________
 62
     7
 10
494.2591282707021
 20
184.2666666666667
 30
0.0
 40
9.14600079976008
  0
LINE
  5
A0
  8
1
  6
________________
 62
     7
 10
505.5728367696869
 20
173.5666666666666
 30
0.0
 11
506.3294410255564
 21
173.6203010896258
 31
0.0
  0
LINE
  5
A1
  8
1
  6
________________
 62
     7
 10
506.3294410255564
 20
194.9130322437075
 30
0.0
 11
505.5728367696869
 21
194.9666666666667
 31
0.0
  0
POLYLINE
  5
A2
  8
1
  6
________________
 62
     7
 66
     1
 10
0.0
 20
0.0
 30
0.0
  0
VERTEX
  5
110
  8
1
  6
________________
 62
     7
 10
509.8296195924299
 20
194.4155385251542
 30
0.0
  0
VERTEX
  5
111
  8
1
  6
________________
 62
     7
 10
511.398396833246
 20
193.9388722266604
 30
0.0
  0
VERTEX
  5
112
  8
1
  6
________________
 62
     7
 10
512.8538319802673
 20
192.9834917326397
 30
0.0
  0
VERTEX
  5
113
  8
1
  6
________________
 62
     7
 10
514.1238900192225
 20
191.5966824529998
 30
0.0
  0
SEQEND
  5
114
  8
1
  6
________________
 62
     7
  0
POLYLINE
  5
A3
  8
1
  6
________________
 62
     7
 66
     1
 10
0.0
 20
0.0
 30
0.0
  0
VERTEX
  5
115
  8
1
  6
________________
 62
     7
 10
513.4577204386662
 20
192.4033928681174
 30
0.0
  0
VERTEX
  5
116
  8
1
  6
________________
 62
     7
 10
514.5440192290965
 20
190.9709525798844
 30
0.0
  0
VERTEX
  5
117
  8
1
  6
________________
 62
     7
 10
515.3998110301321
 20
189.2542067949488
 30
0.0
  0
VERTEX
  5
118
  8
1
  6
________________
 62
     7
 10
515.9888046817274
 20
187.3259567436603
 30
0.0
  0
VERTEX
  5
119
  8
1
  6
________________
 62
     7
 10
516.286023007366
 20
185.2679728182268
 30
0.0
  0
VERTEX
  5
11A
  8
1
  6
________________
 62
     7
 10
516.278862009427
 20
183.1675269741854
 30
0.0
  0
VERTEX
  5
11B
  8
1
  6
________________
 62
     7
 10
515.9676253609789
 20
181.1136918296669
 30
0.0
  0
SEQEND
  5
11C
  8
1
  6
________________
 62
     7
  0
POLYLINE
  5
A4
  8
1
  6
________________
 62
     7
 66
     1
 10
0.0
 20
0.0
 30
0.0
  0
VERTEX
  5
11D
  8
1
  6
________________
 62
     7
 10
516.3198863078201
 20
184.0990821415489
 30
0.0
  0
VERTEX
  5
11E
  8
1
  6
________________
 62
     7
 10
516.17047566862
 20
182.194627541631
 30
0.0
  0
VERTEX
  5
11F
  8
1
  6
________________
 62
     7
 10
515.7718417964892
 20
180.3632956565427
 30
0.0
  0
VERTEX
  5
120
  8
1
  6
________________
 62
     7
 10
515.1380525681394
 20
178.6697145898628
 30
0.0
  0
VERTEX
  5
121
  8
1
  6
________________
 62
     7
 10
514.2914745443402
 20
177.1736511885989
 30
0.0
  0
SEQEND
  5
122
  8
1
  6
________________
 62
     7
  0
POLYLINE
  5
A5
  8
1
  6
________________
 62
     7
 66
     1
 10
0.0
 20
0.0
 30
0.0
  0
VERTEX
  5
123
  8
1
  6
________________
 62
     7
 10
514.2740958777049
 20
177.1483405802133
 30
0.0
  0
VERTEX
  5
124
  8
1
  6
________________
 62
     7
 10
513.32146961341
 20
175.9878023314587
 30
0.0
  0
VERTEX
  5
125
  8
1
  6
________________
 62
     7
 10
512.2408045581917
 20
175.0788641033423
 30
0.0
  0
VERTEX
  5
126
  8
1
  6
________________
 62
     7
 10
511.0649428192747
 20
174.4491491141819
 30
0.0
  0
VERTEX
  5
127
  8
1
  6
________________
 62
     7
 10
509.8296195924299
 20
174.1177948081791
 30
0.0
  0
SEQEND
  5
128
  8
1
  6
________________
 62
     7
  0
LINE
  5
A6
  8
1
  6
________________
 62
     7
 10
494.2591282707021
 20
173.5666666666666
 30
0.0
 11
505.5728367696869
 21
173.5666666666666
 31
0.0
  0
LINE
  5
A7
  8
1
  6
________________
 62
     7
 10
505.5728367696869
 20
194.9666666666667
 30
0.0
 11
494.2591282707021
 21
194.9666666666667
 31
0.0
  0
LINE
  5
A8
  8
1
  6
________________
 62
     7
 10
506.3294410255564
 20
173.6203010896258
 30
0.0
 11
509.8296195924299
 21
174.1177948081791
 31
0.0
  0
LINE
  5
A9
  8
1
  6
________________
 62
     7
 10
509.8296195924299
 20
194.4155385251542
 30
0.0
 11
506.3294410255564
 21
194.9130322437075
 31
0.0
  0
INSERT
  5
AD
  8
1
  6
________________
 62
     7
  2
_1948
 10
0.0
 20
0.0
 30
0.0
  0
TEXT
  5
AE
  8
1
 62
     7
 10
554.9806363636364
 20
192.1863636363637
 30
0.0
 40
3.0
  1
DPNS-14
  7
EXPLODED0
  0
LINE
  5
AF
  8
1
  6
________________0
 62
     1
 10
482.4249999999999
 20
235.075
 30
0.0
 11
509.9250000000001
 21
262.5749999999999
 31
0.0
  0
LINE
  5
B1
  8
1
  6
________________0
 62
     1
 10
494.2591282707021
 20
267.5
 30
0.0
 11
494.2591282707021
 21
222.5
 31
0.0
  0
LINE
  5
B2
  8
1
  6
________________0
 62
     1
 10
482.9091282707021
 20
184.2666666666667
 30
0.0
 11
520.0
 21
184.2666666666667
 31
0.0
  0
LINE
  5
B3
  8
1
  6
________________0
 62
     1
 10
494.2591282707021
 20
172.9166666666666
 30
0.0
 11
494.2591282707021
 21
195.6166666666667
 31
0.0
  0
LINE
  5
B4
  8
1
  6
________________0
 62
     1
 10
553.5500000000001
 20
261.7583706756196
 30
0.0
 11
576.25
 21
261.7583706756196
 31
0.0
  0
LINE
  5
B5
  8
1
  6
________________0
 62
     1
 10
564.9000000000001
 20
270.3698190797138
 30
0.0
 11
564.9000000000001
 21
222.5
 31
0.0
  0
ENDSEC
  0
EOF
