  0
SECTION
  2
HEADER
  9
$ACADVER
  1
AC1006
  9
$DWGCODEPAGE
  3
ansi_932
  9
$INSBASE
 10
0.0
 20
0.0
 30
0.0
  9
$EXTMIN
 10
448.5083333333333
 20
167.5833333333333
  9
$EXTMAX
 10
537.4166666666666
 20
259.4304792514937
  9
$LIMMIN
 10
0.0
 20
0.0
  9
$LIMMAX
 10
12.0
 20
9.0
  9
$ORTHOMODE
 70
     0
  9
$REGENMODE
 70
     1
  9
$FILLMODE
 70
     1
  9
$QTEXTMODE
 70
     0
  9
$MIRRTEXT
 70
     1
  9
$DRAGMODE
 70
     2
  9
$LTSCALE
 40
1.0
  9
$OSMODE
 70
    37
  9
$ATTMODE
 70
     1
  9
$TEXTSIZE
 40
0.2
  9
$TRACEWID
 40
0.05
  9
$TEXTSTYLE
  7
STANDARD
  9
$CLAYER
  8
0
  9
$CELTYPE
  6
BYLAYER
  9
$CECOLOR
 62
   256
  9
$DIMSCALE
 40
1.0
  9
$DIMASZ
 40
3.0
  9
$DIMEXO
 40
0.0625
  9
$DIMDLI
 40
0.38
  9
$DIMRND
 40
0.0
  9
$DIMDLE
 40
0.0
  9
$DIMEXE
 40
0.18
  9
$DIMTP
 40
0.0
  9
$DIMTM
 40
0.0
  9
$DIMTXT
 40
3.0
  9
$DIMCEN
 40
0.09
  9
$DIMTSZ
 40
0.0
  9
$DIMTOL
 70
     0
  9
$DIMLIM
 70
     0
  9
$DIMTIH
 70
     1
  9
$DIMTOH
 70
     1
  9
$DIMSE1
 70
     0
  9
$DIMSE2
 70
     0
  9
$DIMTAD
 70
     1
  9
$DIMZIN
 70
     0
  9
$DIMBLK
  1

  9
$DIMASO
 70
     1
  9
$DIMSHO
 70
     1
  9
$DIMPOST
  1

  9
$DIMAPOST
  1

  9
$DIMALT
 70
     0
  9
$DIMALTD
 70
     2
  9
$DIMALTF
 40
25.4
  9
$DIMLFAC
 40
1.0
  9
$DIMTOFL
 70
     0
  9
$DIMTVP
 40
0.0
  9
$DIMTIX
 70
     0
  9
$DIMSOXD
 70
     0
  9
$DIMSAH
 70
     0
  9
$DIMBLK1
  1

  9
$DIMBLK2
  1

  9
$LUNITS
 70
     2
  9
$LUPREC
 70
     4
  9
$SKETCHINC
 40
0.1
  9
$FILLETRAD
 40
0.5
  9
$AUNITS
 70
     0
  9
$AUPREC
 70
     0
  9
$MENU
  1
.
  9
$ELEVATION
 40
0.0
  9
$THICKNESS
 40
0.0
  9
$LIMCHECK
 70
     0
  9
$CHAMFERA
 40
0.5
  9
$CHAMFERB
 40
0.5
  9
$SKPOLY
 70
     0
  9
$TDCREATE
 40
2460339.416380312
  9
$TDUPDATE
 40
2460339.416380324
  9
$TDINDWG
 40
0.0000000116
  9
$TDUSRTIMER
 40
0.0000000116
  9
$USRTIMER
 70
     1
  9
$ANGBASE
 50
0.0
  9
$ANGDIR
 70
     0
  9
$PDMODE
 70
     0
  9
$PDSIZE
 40
0.0
  9
$PLINEWID
 40
0.0
  9
$COORDS
 70
     1
  9
$SPLFRAME
 70
     0
  9
$SPLINETYPE
 70
     6
  9
$SPLINESEGS
 70
     8
  9
$ATTDIA
 70
     0
  9
$ATTREQ
 70
     1
  9
$HANDLING
 70
     1
  9
$HANDSEED
  5
14B
  9
$SURFTAB1
 70
     6
  9
$SURFTAB2
 70
     6
  9
$SURFTYPE
 70
     6
  9
$SURFU
 70
     6
  9
$SURFV
 70
     6
  9
$UCSNAME
  2

  9
$UCSORG
 10
0.0
 20
0.0
 30
0.0
  9
$UCSXDIR
 10
1.0
 20
0.0
 30
0.0
  9
$UCSYDIR
 10
0.0
 20
1.0
 30
0.0
  9
$USERI1
 70
     0
  9
$USERI2
 70
     0
  9
$USERI3
 70
     0
  9
$USERI4
 70
     0
  9
$USERI5
 70
     0
  9
$USERR1
 40
0.0
  9
$USERR2
 40
0.0
  9
$USERR3
 40
0.0
  9
$USERR4
 40
0.0
  9
$USERR5
 40
0.0
  9
$WORLDVIEW
 70
     1
  0
ENDSEC
  0
SECTION
  2
TABLES
  0
TABLE
  2
VPORT
 70
     1
  0
VPORT
  2
*ACTIVE
 70
     0
 10
0.0
 20
0.0
 11
1.0
 21
1.0
 12
492.9625
 22
213.5069062924135
 13
0.0
 23
0.0
 14
0.5
 24
0.5
 15
0.5
 25
0.5
 16
0.0
 26
0.0
 36
1.0
 17
0.0
 27
0.0
 37
0.0
 40
91.84714591816038
 41
1.6
 42
50.0
 43
0.0
 44
0.0
 50
0.0
 51
0.0
 71
     0
 72
   100
 73
     1
 74
     3
 75
     0
 76
     0
 77
     0
 78
     0
  0
ENDTAB
  0
TABLE
  2
LTYPE
 70
     3
  0
LTYPE
  2
CONTINUOUS
 70
     0
  3
Solid line
 72
    65
 73
     0
 40
0.0
  0
LTYPE
  2
________________
 70
     0
  3

 72
    65
 73
     0
 40
0.0
  0
LTYPE
  2
________________0
 70
     0
  3

 72
    65
 73
     4
 40
7.2
 49
2.7
 49
-1.8
 49
0.8999999999999999
 49
-1.8
  0
ENDTAB
  0
TABLE
  2
LAYER
 70
     2
  0
LAYER
  2
0
 70
     0
 62
     7
  6
CONTINUOUS
  0
LAYER
  2
1
 70
     0
 62
     7
  6
CONTINUOUS
  0
ENDTAB
  0
TABLE
  2
STYLE
 70
     2
  0
STYLE
  2
STANDARD
 70
     0
 40
0.0
 41
1.0
 50
0.0
 71
     0
 42
0.2
  3
txt
  4

  0
STYLE
  2
EXPLODED0
 70
     0
 40
0.2
 41
1.0
 50
0.0
 71
     0
 42
0.2
  3
ＭＳ ゴシック
  4

  0
ENDTAB
  0
TABLE
  2
VIEW
 70
     0
  0
ENDTAB
  0
TABLE
  2
UCS
 70
     0
  0
ENDTAB
  0
ENDSEC
  0
SECTION
  2
BLOCKS
  0
BLOCK
  8
0
  2
_1483
 70
     0
 10
0.0
 20
0.0
 30
0.0
  0
ENDBLK
  8
0
  0
BLOCK
  8
0
  2
_1819
 70
     0
 10
0.0
 20
0.0
 30
0.0
  0
ENDBLK
  8
0
  0
BLOCK
  8
0
  2
_1941
 70
     0
 10
0.0
 20
0.0
 30
0.0
  0
ENDBLK
  8
0
  0
ENDSEC
  0
SECTION
  2
ENTITIES
  0
INSERT
  5
3D
  8
1
  6
________________
 62
     7
  2
_1483
 10
0.0
 20
0.0
 30
0.0
  0
LINE
  5
3F
  8
1
  6
________________
 62
     7
 10
462.3643687816371
 20
211.8484680989223
 30
0.0
 11
454.0243039130942
 21
211.8484680989223
 31
0.0
  0
LINE
  5
40
  8
1
  6
________________
 62
     7
 10
453.7875183878054
 20
211.8484680989223
 30
0.0
 11
450.3329504081835
 21
211.8484680989223
 31
0.0
  0
LINE
  5
41
  8
1
  6
________________
 62
     7
 10
474.7306524563278
 20
211.8484680989223
 30
0.0
 11
471.2760844767059
 21
211.8484680989223
 31
0.0
  0
LINE
  5
42
  8
1
  6
________________
 62
     7
 10
471.0392989514172
 20
211.8484680989223
 30
0.0
 11
462.6992340828742
 21
211.8484680989223
 31
0.0
  0
LINE
  5
43
  8
1
  6
________________
 62
     7
 10
469.4622603365539
 20
258.0307075668323
 30
0.0
 11
471.9050087810144
 21
255.5879591223718
 31
0.0
  0
LINE
  5
44
  8
1
  6
________________
 62
     7
 10
472.0724414316329
 20
255.4205264717532
 30
0.0
 11
477.9697578557153
 21
249.5232100476707
 31
0.0
  0
LINE
  5
45
  8
1
  6
________________
 62
     7
 10
478.2065433810041
 20
249.2864245223819
 30
0.0
 11
484.1038598050865
 21
243.3891080982995
 31
0.0
  0
LINE
  5
46
  8
1
  6
________________
 62
     7
 10
484.2712924557051
 20
243.221675447681
 30
0.0
 11
486.7140409001656
 21
240.7789270032204
 31
0.0
  0
LINE
  5
47
  8
1
  6
________________
 62
     7
 10
478.0293157778182
 20
249.4636521255678
 30
0.0
 11
478.1469854589012
 21
249.3459824444849
 31
0.0
  0
LINE
  5
48
  8
1
  6
________________
 62
     7
 10
462.6150064616895
 20
211.8484680989223
 30
0.0
 11
462.4485964028219
 21
211.8484680989223
 31
0.0
  0
LINE
  5
49
  8
1
  6
________________
 62
     7
 10
462.6992340828742
 20
211.8484680989223
 30
0.0
 11
462.6150064616895
 21
211.8484680989223
 31
0.0
  0
LINE
  5
4A
  8
1
  6
________________
 62
     7
 10
462.4485964028219
 20
211.8484680989223
 30
0.0
 11
462.3643687816371
 21
211.8484680989223
 31
0.0
  0
LINE
  5
4B
  8
1
  6
________________
 62
     7
 10
477.9697578557153
 20
249.5232100476707
 30
0.0
 11
478.0293157778183
 21
249.4636521255678
 31
0.0
  0
LINE
  5
4C
  8
1
  6
________________
 62
     7
 10
478.1469854589012
 20
249.3459824444849
 30
0.0
 11
478.2065433810042
 21
249.286424522382
 31
0.0
  0
LINE
  5
4D
  8
1
  6
________________
 62
     7
 10
484.2091443315675
 20
243.2838235718186
 30
0.0
 11
484.2937225145917
 21
243.1992453887943
 31
0.0
  0
LINE
  5
4E
  8
1
  6
________________
 62
     7
 10
471.8825787221277
 20
255.6103891812585
 30
0.0
 11
471.967156905152
 21
255.5258109982342
 31
0.0
  0
LINE
  5
4F
  8
1
  6
________________
 62
     7
 10
453.8754091078368
 20
211.8484680989223
 30
0.0
 11
453.755797494323
 21
211.8484680989223
 31
0.0
  0
LINE
  5
50
  8
1
  6
________________
 62
     7
 10
471.3078053701884
 20
211.8484680989223
 30
0.0
 11
471.1881937566745
 21
211.8484680989223
 31
0.0
  0
LINE
  5
51
  8
1
  6
________________
 62
     7
 10
454.0243039130942
 20
211.8484680989223
 30
0.0
 11
453.8754091078368
 21
211.8484680989223
 31
0.0
  0
LINE
  5
52
  8
1
  6
________________
 62
     7
 10
484.1038598050865
 20
243.3891080982995
 30
0.0
 11
484.2091443315675
 21
243.2838235718187
 31
0.0
  0
LINE
  5
53
  8
1
  6
________________
 62
     7
 10
471.967156905152
 20
255.5258109982342
 30
0.0
 11
472.0724414316329
 21
255.4205264717532
 31
0.0
  0
LINE
  5
54
  8
1
  6
________________
 62
     7
 10
471.1881937566745
 20
211.8484680989223
 30
0.0
 11
471.0392989514172
 21
211.8484680989223
 31
0.0
  0
LINE
  5
55
  8
1
  6
________________
 62
     7
 10
450.3329504081835
 20
211.8484680989223
 30
0.0
 11
450.2066089764064
 21
211.8484680989223
 31
0.0
  0
LINE
  5
56
  8
1
  6
________________
 62
     7
 10
469.3729234533994
 20
258.1200444499867
 30
0.0
 11
469.4622603365538
 21
258.0307075668323
 31
0.0
  0
LINE
  5
57
  8
1
  6
________________
 62
     7
 10
474.856993888105
 20
211.8484680989223
 30
0.0
 11
474.7306524563278
 21
211.8484680989223
 31
0.0
  0
LINE
  5
58
  8
1
  6
________________
 62
     7
 10
486.7140409001656
 20
240.7789270032204
 30
0.0
 11
486.8033777833201
 21
240.689590120066
 31
0.0
  0
LINE
  5
59
  8
1
  6
________________
 62
     7
 10
469.3414360023083
 20
258.1515319010778
 30
0.0
 11
469.3729234533994
 21
258.1200444499868
 31
0.0
  0
LINE
  5
5A
  8
1
  6
________________
 62
     7
 10
486.8033777833201
 20
240.6895901200661
 30
0.0
 11
486.834865234411
 21
240.6581026689751
 31
0.0
  0
LINE
  5
5B
  8
1
  6
________________
 62
     7
 10
450.2066089764064
 20
211.8484680989223
 30
0.0
 11
450.1620789960289
 21
211.8484680989223
 31
0.0
  0
LINE
  5
5C
  8
1
  6
________________
 62
     7
 10
474.9015238684825
 20
211.8484680989223
 30
0.0
 11
474.856993888105
 21
211.8484680989223
 31
0.0
  0
LINE
  5
5D
  8
1
  6
________________
 62
     7
 10
449.8318014322556
 20
233.8484680989223
 30
0.0
 11
449.8318014322556
 21
216.8484680989223
 31
0.0
  0
LINE
  5
5E
  8
1
  6
________________
 62
     7
 10
475.2318014322557
 20
216.8484680989223
 30
0.0
 11
475.2318014322557
 21
228.587955856784
 31
0.0
  0
ARC
  5
5F
  8
1
  6
________________
 62
     7
 10
462.5318014322557
 20
233.8484680989223
 30
0.0
 40
12.7
 50
135.0
 51
180.0
  0
LINE
  5
60
  8
1
  6
________________
 62
     7
 10
449.8318014322556
 20
216.8484680989223
 30
0.0
 11
450.1620789960288
 21
213.5456924611904
 31
0.0
  0
LINE
  5
61
  8
1
  6
________________
 62
     7
 10
450.1620789960289
 20
213.5456924611904
 30
0.0
 11
450.1622062091014
 21
213.5444203304647
 31
0.0
  0
LINE
  5
62
  8
1
  6
________________
 62
     7
 10
474.9013785021557
 20
213.5442387979223
 30
0.0
 11
474.9015238684825
 21
213.5456924611901
 31
0.0
  0
LINE
  5
63
  8
1
  6
________________
 62
     7
 10
474.9015238684825
 20
213.5456924611901
 30
0.0
 11
475.2318014322557
 21
216.8484680989223
 31
0.0
  0
LINE
  5
64
  8
1
  6
________________
 62
     7
 10
475.2318014322557
 20
228.587955856784
 30
0.0
 11
483.5328728334961
 21
236.8890272580245
 31
0.0
  0
LINE
  5
65
  8
1
  6
________________
 62
     7
 10
465.5723605913578
 20
254.8495395001628
 30
0.0
 11
453.5515453111865
 21
242.8287242199915
 31
0.0
  0
LINE
  5
66
  8
1
  6
________________
 62
     7
 10
483.5328728334961
 20
236.8890272580245
 30
0.0
 11
485.6355559576925
 21
239.4589732987089
 31
0.0
  0
LINE
  5
67
  8
1
  6
________________
 62
     7
 10
468.1424478312239
 20
256.9523381509623
 30
0.0
 11
465.5723605913578
 21
254.8495395001628
 31
0.0
  0
LINE
  5
68
  8
1
  6
________________
 62
     7
 10
469.3414360023083
 20
258.1515319010778
 30
0.0
 11
468.1421700547939
 21
256.9522659535633
 31
0.0
  0
LINE
  5
69
  8
1
  6
________________
 62
     7
 10
485.6355540029521
 20
239.4587914375161
 30
0.0
 11
486.834865234411
 21
240.6581026689751
 31
0.0
  0
LINE
  5
6A
  8
1
  6
________________
 62
     7
 10
450.1620789960289
 20
213.5456924611904
 30
0.0
 11
450.1620789960289
 21
211.8484680989223
 31
0.0
  0
LINE
  5
6B
  8
1
  6
________________
 62
     7
 10
474.9015238684825
 20
211.8484680989223
 30
0.0
 11
474.9015238684825
 21
213.5456924611901
 31
0.0
  0
POLYLINE
  5
6C
  8
1
  6
________________
 62
     7
 66
     1
 10
0.0
 20
0.0
 30
0.0
  0
VERTEX
  5
BA
  8
1
  6
________________
 62
     7
 10
524.6669781283283
 20
258.0210701291866
 30
0.0
  0
VERTEX
  5
BB
  8
1
  6
________________
 62
     7
 10
522.4572474782047
 20
257.9561262455251
 30
0.0
  0
VERTEX
  5
BC
  8
1
  6
________________
 62
     7
 10
520.3004073443367
 20
257.6101597738248
 30
0.0
  0
VERTEX
  5
BD
  8
1
  6
________________
 62
     7
 10
518.2673381965101
 20
256.994540247534
 30
0.0
  0
VERTEX
  5
BE
  8
1
  6
________________
 62
     7
 10
516.4248530052565
 20
256.1294988374972
 30
0.0
  0
VERTEX
  5
BF
  8
1
  6
________________
 62
     7
 10
514.8335015600012
 20
255.0434634928077
 30
0.0
  0
SEQEND
  5
C0
  8
1
  6
________________
 62
     7
  0
POLYLINE
  5
6D
  8
1
  6
________________
 62
     7
 66
     1
 10
0.0
 20
0.0
 30
0.0
  0
VERTEX
  5
C1
  8
1
  6
________________
 62
     7
 10
532.5741641858282
 20
255.5879591223718
 30
0.0
  0
VERTEX
  5
C2
  8
1
  6
________________
 62
     7
 10
530.7748547039331
 20
256.6103780979221
 30
0.0
  0
VERTEX
  5
C3
  8
1
  6
________________
 62
     7
 10
528.7354045415208
 20
257.3748513707723
 30
0.0
  0
VERTEX
  5
C4
  8
1
  6
________________
 62
     7
 10
526.5288222289369
 20
257.8540122167101
 30
0.0
  0
VERTEX
  5
C5
  8
1
  6
________________
 62
     7
 10
524.2340993172853
 20
258.0307075668322
 30
0.0
  0
SEQEND
  5
C6
  8
1
  6
________________
 62
     7
  0
LINE
  5
6E
  8
1
  6
________________
 62
     7
 10
536.2655176907389
 20
249.5232100476708
 30
0.0
 11
536.2055133993675
 21
250.2674875580739
 31
0.0
  0
POLYLINE
  5
6F
  8
1
  6
________________
 62
     7
 66
     1
 10
0.0
 20
0.0
 30
0.0
  0
VERTEX
  5
C7
  8
1
  6
________________
 62
     7
 10
532.810949711117
 20
243.3891080982995
 30
0.0
  0
VERTEX
  5
C8
  8
1
  6
________________
 62
     7
 10
534.2568684927679
 20
244.6614120344008
 30
0.0
  0
VERTEX
  5
C9
  8
1
  6
________________
 62
     7
 10
535.3379969633044
 20
246.1035210741345
 30
0.0
  0
VERTEX
  5
CA
  8
1
  6
________________
 62
     7
 10
536.0156327301879
 20
247.663810390609
 30
0.0
  0
VERTEX
  5
CB
  8
1
  6
________________
 62
     7
 10
536.2655176907389
 20
249.2864245223819
 30
0.0
  0
SEQEND
  5
CC
  8
1
  6
________________
 62
     7
  0
POLYLINE
  5
70
  8
1
  6
________________
 62
     7
 66
     1
 10
0.0
 20
0.0
 30
0.0
  0
VERTEX
  5
CD
  8
1
  6
________________
 62
     7
 10
523.2256575581267
 20
240.7986362597588
 30
0.0
  0
VERTEX
  5
CE
  8
1
  6
________________
 62
     7
 10
525.4495795340729
 20
240.8337160721961
 30
0.0
  0
VERTEX
  5
CF
  8
1
  6
________________
 62
     7
 10
527.6275256022761
 20
241.1537481530686
 30
0.0
  0
VERTEX
  5
D0
  8
1
  6
________________
 62
     7
 10
529.6870884188895
 20
241.7480928114953
 30
0.0
  0
VERTEX
  5
D1
  8
1
  6
________________
 62
     7
 10
531.5597963742558
 20
242.5969906426519
 30
0.0
  0
VERTEX
  5
D2
  8
1
  6
________________
 62
     7
 10
533.1833899795708
 20
243.6722194430375
 30
0.0
  0
SEQEND
  5
D3
  8
1
  6
________________
 62
     7
  0
POLYLINE
  5
71
  8
1
  6
________________
 62
     7
 66
     1
 10
0.0
 20
0.0
 30
0.0
  0
VERTEX
  5
D4
  8
1
  6
________________
 62
     7
 10
515.5591691475053
 20
243.221675447681
 30
0.0
  0
VERTEX
  5
D5
  8
1
  6
________________
 62
     7
 10
517.3584786294003
 20
242.1992564721307
 30
0.0
  0
VERTEX
  5
D6
  8
1
  6
________________
 62
     7
 10
519.3979287918127
 20
241.4347831992805
 30
0.0
  0
VERTEX
  5
D7
  8
1
  6
________________
 62
     7
 10
521.6045111043966
 20
240.9556223533426
 30
0.0
  0
VERTEX
  5
D8
  8
1
  6
________________
 62
     7
 10
523.8992340160482
 20
240.7789270032205
 30
0.0
  0
SEQEND
  5
D9
  8
1
  6
________________
 62
     7
  0
POLYLINE
  5
72
  8
1
  6
________________
 62
     7
 66
     1
 10
0.0
 20
0.0
 30
0.0
  0
VERTEX
  5
DA
  8
1
  6
________________
 62
     7
 10
511.9254778730613
 20
250.2508476266895
 30
0.0
  0
VERTEX
  5
DB
  8
1
  6
________________
 62
     7
 10
511.9222148646017
 20
248.5825367892955
 30
0.0
  0
VERTEX
  5
DC
  8
1
  6
________________
 62
     7
 10
512.373147560639
 20
246.9449787825058
 30
0.0
  0
VERTEX
  5
DD
  8
1
  6
________________
 62
     7
 10
513.261411330567
 20
245.3994173598199
 30
0.0
  0
VERTEX
  5
DE
  8
1
  6
________________
 62
     7
 10
514.5537856062334
 20
244.0036556539488
 30
0.0
  0
VERTEX
  5
DF
  8
1
  6
________________
 62
     7
 10
516.2019363126075
 20
242.8098943719841
 30
0.0
  0
SEQEND
  5
E0
  8
1
  6
________________
 62
     7
  0
POLYLINE
  5
73
  8
1
  6
________________
 62
     7
 66
     1
 10
0.0
 20
0.0
 30
0.0
  0
VERTEX
  5
E1
  8
1
  6
________________
 62
     7
 10
515.3223836222164
 20
255.4205264717532
 30
0.0
  0
VERTEX
  5
E2
  8
1
  6
________________
 62
     7
 10
513.6521071378259
 20
253.8979759635192
 30
0.0
  0
VERTEX
  5
E3
  8
1
  6
________________
 62
     7
 10
512.5014491360462
 20
252.1512461908446
 30
0.0
  0
VERTEX
  5
E4
  8
1
  6
________________
 62
     7
 10
511.927819933966
 20
250.267487558074
 30
0.0
  0
SEQEND
  5
E5
  8
1
  6
________________
 62
     7
  0
POLYLINE
  5
74
  8
1
  6
________________
 62
     7
 66
     1
 10
0.0
 20
0.0
 30
0.0
 70
     1
  0
VERTEX
  5
E6
  8
1
  6
________________
 62
     7
 10
535.4166666666667
 20
249.4048172850264
 30
0.0
  0
VERTEX
  5
E7
  8
1
  6
________________
 62
     7
 10
535.1985795992434
 20
247.8390883075957
 30
0.0
  0
VERTEX
  5
E8
  8
1
  6
________________
 62
     7
 10
534.5526993606699
 20
246.3335294166967
 30
0.0
  0
VERTEX
  5
E9
  8
1
  6
________________
 62
     7
 10
533.5038467663006
 20
244.9459983961795
 30
0.0
  0
VERTEX
  5
EA
  8
1
  6
________________
 62
     7
 10
532.092328633134
 20
243.7298172850263
 30
0.0
  0
VERTEX
  5
EB
  8
1
  6
________________
 62
     7
 10
530.3723888114392
 20
242.7317232412965
 30
0.0
  0
VERTEX
  5
EC
  8
1
  6
________________
 62
     7
 10
528.4101236240105
 20
241.9900724593529
 30
0.0
  0
VERTEX
  5
ED
  8
1
  6
________________
 62
     7
 10
526.2809418215497
 20
241.5333661628231
 30
0.0
  0
VERTEX
  5
EE
  8
1
  6
________________
 62
     7
 10
524.0666666666667
 20
241.379155318559
 30
0.0
  0
VERTEX
  5
EF
  8
1
  6
________________
 62
     7
 10
521.8523915117837
 20
241.5333661628231
 30
0.0
  0
VERTEX
  5
F0
  8
1
  6
________________
 62
     7
 10
519.723209709323
 20
241.9900724593529
 30
0.0
  0
VERTEX
  5
F1
  8
1
  6
________________
 62
     7
 10
517.7609445218942
 20
242.7317232412965
 30
0.0
  0
VERTEX
  5
F2
  8
1
  6
________________
 62
     7
 10
516.0410047001994
 20
243.7298172850263
 30
0.0
  0
VERTEX
  5
F3
  8
1
  6
________________
 62
     7
 10
514.6294865670328
 20
244.9459983961795
 30
0.0
  0
VERTEX
  5
F4
  8
1
  6
________________
 62
     7
 10
513.5806339726636
 20
246.3335294166967
 30
0.0
  0
VERTEX
  5
F5
  8
1
  6
________________
 62
     7
 10
512.93475373409
 20
247.8390883075957
 30
0.0
  0
VERTEX
  5
F6
  8
1
  6
________________
 62
     7
 10
512.7166666666667
 20
249.4048172850264
 30
0.0
  0
VERTEX
  5
F7
  8
1
  6
________________
 62
     7
 10
512.93475373409
 20
250.9705462624571
 30
0.0
  0
VERTEX
  5
F8
  8
1
  6
________________
 62
     7
 10
513.5806339726636
 20
252.476105153356
 30
0.0
  0
VERTEX
  5
F9
  8
1
  6
________________
 62
     7
 10
514.6294865670328
 20
253.8636361738732
 30
0.0
  0
VERTEX
  5
FA
  8
1
  6
________________
 62
     7
 10
516.0410047001994
 20
255.0798172850264
 30
0.0
  0
VERTEX
  5
FB
  8
1
  6
________________
 62
     7
 10
517.7609445218942
 20
256.0779113287562
 30
0.0
  0
VERTEX
  5
FC
  8
1
  6
________________
 62
     7
 10
519.723209709323
 20
256.8195621106998
 30
0.0
  0
VERTEX
  5
FD
  8
1
  6
________________
 62
     7
 10
521.8523915117837
 20
257.2762684072296
 30
0.0
  0
VERTEX
  5
FE
  8
1
  6
________________
 62
     7
 10
524.0666666666667
 20
257.4304792514937
 30
0.0
  0
VERTEX
  5
FF
  8
1
  6
________________
 62
     7
 10
526.2809418215498
 20
257.2762684072296
 30
0.0
  0
VERTEX
  5
100
  8
1
  6
________________
 62
     7
 10
528.4101236240106
 20
256.8195621106998
 30
0.0
  0
VERTEX
  5
101
  8
1
  6
________________
 62
     7
 10
530.3723888114392
 20
256.0779113287562
 30
0.0
  0
VERTEX
  5
102
  8
1
  6
________________
 62
     7
 10
532.0923286331341
 20
255.0798172850263
 30
0.0
  0
VERTEX
  5
103
  8
1
  6
________________
 62
     7
 10
533.5038467663006
 20
253.8636361738731
 30
0.0
  0
VERTEX
  5
104
  8
1
  6
________________
 62
     7
 10
534.5526993606699
 20
252.476105153356
 30
0.0
  0
VERTEX
  5
105
  8
1
  6
________________
 62
     7
 10
535.1985795992434
 20
250.970546262457
 30
0.0
  0
SEQEND
  5
106
  8
1
  6
________________
 62
     7
  0
LINE
  5
75
  8
1
  6
________________
 62
     7
 10
536.7030071179208
 20
246.7673089912005
 30
0.0
 11
536.7666666666667
 21
245.8692833790936
 31
0.0
  0
POLYLINE
  5
76
  8
1
  6
________________
 62
     7
 66
     1
 10
0.0
 20
0.0
 30
0.0
  0
VERTEX
  5
107
  8
1
  6
________________
 62
     7
 10
536.2020876491985
 20
248.5183756409434
 30
0.0
  0
VERTEX
  5
108
  8
1
  6
________________
 62
     7
 10
536.230191096304
 20
250.0714031570701
 30
0.0
  0
VERTEX
  5
109
  8
1
  6
________________
 62
     7
 10
535.8640196085054
 20
251.6028236050457
 30
0.0
  0
VERTEX
  5
10A
  8
1
  6
________________
 62
     7
 10
535.115442462701
 20
253.0629967098883
 30
0.0
  0
VERTEX
  5
10B
  8
1
  6
________________
 62
     7
 10
534.0087244356946
 20
254.4045916458006
 30
0.0
  0
VERTEX
  5
10C
  8
1
  6
________________
 62
     7
 10
532.5797392728451
 20
255.5841212426714
 30
0.0
  0
SEQEND
  5
10D
  8
1
  6
________________
 62
     7
  0
LINE
  5
77
  8
1
  6
________________
 62
     7
 10
511.927819933966
 20
250.2674875580739
 30
0.0
 11
511.8678156425946
 21
249.5232100476707
 31
0.0
  0
LINE
  5
78
  8
1
  6
________________
 62
     7
 10
511.3666666666667
 20
245.8692833790936
 30
0.0
 11
511.4303262154127
 21
246.7673089912006
 31
0.0
  0
LINE
  5
79
  8
1
  6
________________
 62
     7
 10
536.2655176907389
 20
211.8484680989223
 30
0.0
 11
532.8109497111171
 21
211.8484680989223
 31
0.0
  0
LINE
  5
7A
  8
1
  6
________________
 62
     7
 10
532.5741641858282
 20
211.8484680989223
 30
0.0
 11
524.2340993172851
 21
211.8484680989223
 31
0.0
  0
LINE
  5
7B
  8
1
  6
________________
 62
     7
 10
523.8992340160482
 20
211.8484680989223
 30
0.0
 11
515.5591691475053
 21
211.8484680989223
 31
0.0
  0
LINE
  5
7C
  8
1
  6
________________
 62
     7
 10
515.3223836222164
 20
211.8484680989223
 30
0.0
 11
511.8678156425944
 21
211.8484680989223
 31
0.0
  0
LINE
  5
7D
  8
1
  6
________________
 62
     7
 10
524.1498716961004
 20
211.8484680989223
 30
0.0
 11
523.9834616372328
 21
211.8484680989223
 31
0.0
  0
LINE
  5
7E
  8
1
  6
________________
 62
     7
 10
524.2340993172851
 20
211.8484680989223
 30
0.0
 11
524.1498716961004
 21
211.8484680989223
 31
0.0
  0
LINE
  5
7F
  8
1
  6
________________
 62
     7
 10
523.983461637233
 20
211.8484680989223
 30
0.0
 11
523.8992340160482
 21
211.8484680989223
 31
0.0
  0
LINE
  5
80
  8
1
  6
________________
 62
     7
 10
515.4102743422478
 20
211.8484680989223
 30
0.0
 11
515.290662728734
 21
211.8484680989223
 31
0.0
  0
LINE
  5
81
  8
1
  6
________________
 62
     7
 10
532.8426706045994
 20
211.8484680989223
 30
0.0
 11
532.7230589910856
 21
211.8484680989223
 31
0.0
  0
LINE
  5
82
  8
1
  6
________________
 62
     7
 10
515.5591691475053
 20
211.8484680989223
 30
0.0
 11
515.4102743422479
 21
211.8484680989223
 31
0.0
  0
LINE
  5
83
  8
1
  6
________________
 62
     7
 10
532.7230589910855
 20
211.8484680989223
 30
0.0
 11
532.5741641858282
 21
211.8484680989223
 31
0.0
  0
LINE
  5
84
  8
1
  6
________________
 62
     7
 10
511.8678156425944
 20
211.8484680989223
 30
0.0
 11
511.7414742108173
 21
211.8484680989223
 31
0.0
  0
LINE
  5
85
  8
1
  6
________________
 62
     7
 10
536.391859122516
 20
211.8484680989223
 30
0.0
 11
536.2655176907389
 21
211.8484680989223
 31
0.0
  0
LINE
  5
86
  8
1
  6
________________
 62
     7
 10
511.7414742108173
 20
211.8484680989223
 30
0.0
 11
511.6969442304398
 21
211.8484680989223
 31
0.0
  0
LINE
  5
87
  8
1
  6
________________
 62
     7
 10
536.4363891028934
 20
211.8484680989223
 30
0.0
 11
536.3918591225159
 21
211.8484680989223
 31
0.0
  0
LINE
  5
88
  8
1
  6
________________
 62
     7
 10
536.7030071179208
 20
246.7673089912005
 30
0.0
 11
536.205513406487
 21
250.2674875079844
 31
0.0
  0
LINE
  5
89
  8
1
  6
________________
 62
     7
 10
511.9278200252066
 20
250.267488200009
 30
0.0
 11
511.4303262154126
 21
246.7673089912005
 31
0.0
  0
LINE
  5
8A
  8
1
  6
________________
 62
     7
 10
536.7666666666667
 20
233.8484680989223
 30
0.0
 11
536.7666666666667
 21
245.8692833790936
 31
0.0
  0
LINE
  5
8B
  8
1
  6
________________
 62
     7
 10
511.3666666666667
 20
245.8692833790936
 30
0.0
 11
511.3666666666667
 21
233.8484680989223
 31
0.0
  0
LINE
  5
8C
  8
1
  6
________________
 62
     7
 10
511.3666666666667
 20
233.8484680989223
 30
0.0
 11
511.3666666666667
 21
216.8484680989223
 31
0.0
  0
LINE
  5
8D
  8
1
  6
________________
 62
     7
 10
536.7666666666667
 20
220.4222591143875
 30
0.0
 11
536.7666666666667
 21
233.8484680989223
 31
0.0
  0
LINE
  5
8E
  8
1
  6
________________
 62
     7
 10
536.7666666666667
 20
216.8484680989223
 30
0.0
 11
536.7666666666667
 21
220.4222591143875
 31
0.0
  0
LINE
  5
8F
  8
1
  6
________________
 62
     7
 10
511.3666666666667
 20
216.8484680989223
 30
0.0
 11
511.6968672482792
 21
213.5464622827972
 31
0.0
  0
LINE
  5
90
  8
1
  6
________________
 62
     7
 10
536.4363888861403
 20
213.545690293659
 30
0.0
 11
536.7666666666667
 21
216.8484680989223
 31
0.0
  0
LINE
  5
91
  8
1
  6
________________
 62
     7
 10
511.6969442304398
 20
213.5456924611904
 30
0.0
 11
511.6969442304398
 21
211.8484680989223
 31
0.0
  0
LINE
  5
92
  8
1
  6
________________
 62
     7
 10
536.4363891028934
 20
211.8484680989223
 30
0.0
 11
536.4363891028934
 21
213.5456924611901
 31
0.0
  0
INSERT
  5
96
  8
1
  6
________________
 62
     7
  2
_1819
 10
0.0
 20
0.0
 30
0.0
  0
ARC
  5
97
  8
1
  6
________________
 62
     7
 10
462.5318014322557
 20
180.9333333333333
 30
0.0
 40
12.20000000000002
 50
180.7863512623972
 51
224.2136487376028
  0
ARC
  5
98
  8
1
  6
________________
 62
     7
 10
462.5318014322557
 20
180.9333333333333
 30
0.0
 40
12.2
 50
135.7863512623972
 51
179.2136487376027
  0
ARC
  5
99
  8
1
  6
________________
 62
     7
 10
462.5318014322557
 20
180.9333333333333
 30
0.0
 40
12.19999999999999
 50
44.4144529505175
 51
180.7863512623973
  0
ARC
  5
9A
  8
1
  6
________________
 62
     7
 10
462.5318014322557
 20
180.9333333333333
 30
0.0
 40
12.20000000000002
 50
45.78635126239712
 51
89.21364873760275
  0
ARC
  5
9B
  8
1
  6
________________
 62
     7
 10
462.5318014322557
 20
180.9333333333333
 30
0.0
 40
12.20000000000002
 50
0.7863512623971187
 51
44.21364873760287
  0
ARC
  5
9C
  8
1
  6
________________
 62
     7
 10
462.5318014322557
 20
180.9333333333333
 30
0.0
 40
12.2
 50
315.7863512623971
 51
44.41445295051756
  0
ARC
  5
9D
  8
1
  6
________________
 62
     7
 10
462.5318014322557
 20
180.9333333333333
 30
0.0
 40
12.19999999999999
 50
270.7863512623971
 51
314.2136487376029
  0
ARC
  5
9E
  8
1
  6
________________
 62
     7
 10
462.5318014322557
 20
180.9333333333333
 30
0.0
 40
12.2
 50
180.7863512623973
 51
315.7863512623971
  0
ARC
  5
9F
  8
1
  6
________________
 62
     7
 10
-462.5318014322557
 20
180.9333333333333
 30
0.0
 40
12.69999999999999
 50
270.0
 51
90.0
210
0.0
220
0.0
230
-1.0
  0
CIRCLE
  5
A0
  8
1
  6
________________
 62
     7
 10
462.5318014322557
 20
180.9333333333333
 30
0.0
 40
11.14600079976008
  0
LINE
  5
A1
  8
1
  6
________________
 62
     7
 10
474.552616712427
 20
168.2333333333333
 30
0.0
 11
475.4506423245339
 21
168.2969928820793
 31
0.0
  0
LINE
  5
A2
  8
1
  6
________________
 62
     7
 10
475.4506423245339
 20
193.5696737845874
 30
0.0
 11
474.552616712427
 21
193.6333333333333
 31
0.0
  0
POLYLINE
  5
A3
  8
1
  6
________________
 62
     7
 66
     1
 10
0.0
 20
0.0
 30
0.0
  0
VERTEX
  5
10E
  8
1
  6
________________
 62
     7
 10
478.9508208914073
 20
193.0721800660341
 30
0.0
  0
VERTEX
  5
10F
  8
1
  6
________________
 62
     7
 10
480.834579524178
 20
192.4985508639538
 30
0.0
  0
VERTEX
  5
110
  8
1
  6
________________
 62
     7
 10
482.5813092968526
 20
191.3478928621741
 30
0.0
  0
VERTEX
  5
111
  8
1
  6
________________
 62
     7
 10
484.1038598050866
 20
189.6776163777836
 30
0.0
  0
SEQEND
  5
112
  8
1
  6
________________
 62
     7
  0
POLYLINE
  5
A4
  8
1
  6
________________
 62
     7
 66
     1
 10
0.0
 20
0.0
 30
0.0
  0
VERTEX
  5
113
  8
1
  6
________________
 62
     7
 10
483.2576860949787
 20
190.7002062162963
 30
0.0
  0
VERTEX
  5
114
  8
1
  6
________________
 62
     7
 10
484.4275894445786
 20
189.2075723156965
 30
0.0
  0
VERTEX
  5
115
  8
1
  6
________________
 62
     7
 10
485.3860090614386
 20
187.4389097328205
 30
0.0
  0
VERTEX
  5
116
  8
1
  6
________________
 62
     7
 10
486.1009720590525
 20
185.4532210663583
 30
0.0
  0
VERTEX
  5
117
  8
1
  6
________________
 62
     7
 10
486.5486272657863
 20
183.3167489069801
 30
0.0
  0
VERTEX
  5
118
  8
1
  6
________________
 62
     7
 10
486.7140409001656
 20
181.1007659839519
 30
0.0
  0
SEQEND
  5
119
  8
1
  6
________________
 62
     7
  0
POLYLINE
  5
A5
  8
1
  6
________________
 62
     7
 66
     1
 10
0.0
 20
0.0
 30
0.0
  0
VERTEX
  5
11A
  8
1
  6
________________
 62
     7
 10
486.7133421798853
 20
181.1616774902044
 30
0.0
  0
VERTEX
  5
11B
  8
1
  6
________________
 62
     7
 10
486.5414913597346
 20
178.4998049031678
 30
0.0
  0
VERTEX
  5
11C
  8
1
  6
________________
 62
     7
 10
485.9638625163573
 20
175.9547467668992
 30
0.0
  0
VERTEX
  5
11D
  8
1
  6
________________
 62
     7
 10
485.0081830414907
 20
173.6486711911586
 30
0.0
  0
VERTEX
  5
11E
  8
1
  6
________________
 62
     7
 10
483.7203275473162
 20
171.6922746233229
 30
0.0
  0
SEQEND
  5
11F
  8
1
  6
________________
 62
     7
  0
POLYLINE
  5
A6
  8
1
  6
________________
 62
     7
 66
     1
 10
0.0
 20
0.0
 30
0.0
  0
VERTEX
  5
120
  8
1
  6
________________
 62
     7
 10
484.1038598050866
 20
172.1890502888831
 30
0.0
  0
VERTEX
  5
121
  8
1
  6
________________
 62
     7
 10
482.5813092968526
 20
170.5187738044925
 30
0.0
  0
VERTEX
  5
122
  8
1
  6
________________
 62
     7
 10
480.834579524178
 20
169.3681158027129
 30
0.0
  0
VERTEX
  5
123
  8
1
  6
________________
 62
     7
 10
478.9508208914073
 20
168.7944866006326
 30
0.0
  0
SEQEND
  5
124
  8
1
  6
________________
 62
     7
  0
LINE
  5
A7
  8
1
  6
________________
 62
     7
 10
462.5318014322557
 20
168.2333333333333
 30
0.0
 11
474.552616712427
 21
168.2333333333333
 31
0.0
  0
LINE
  5
A8
  8
1
  6
________________
 62
     7
 10
474.552616712427
 20
193.6333333333333
 30
0.0
 11
462.5318014322557
 21
193.6333333333333
 31
0.0
  0
LINE
  5
A9
  8
1
  6
________________
 62
     7
 10
475.4506423245339
 20
168.2969928820793
 30
0.0
 11
478.9508208914073
 21
168.7944866006326
 31
0.0
  0
LINE
  5
AA
  8
1
  6
________________
 62
     7
 10
478.9508208914073
 20
193.0721800660341
 30
0.0
 11
475.4506423245339
 21
193.5696737845874
 31
0.0
  0
INSERT
  5
AE
  8
1
  6
________________
 62
     7
  2
_1941
 10
0.0
 20
0.0
 30
0.0
  0
TEXT
  5
AF
  8
1
 62
     7
 10
514.1473030303031
 20
189.6863636363636
 30
0.0
 40
3.0
  1
DPNS-16
  7
EXPLODED0
  0
LINE
  5
B0
  8
1
  6
________________0
 62
     1
 10
510.7166666666667
 20
249.4048172850264
 30
0.0
 11
537.4166666666666
 21
249.4048172850264
 31
0.0
  0
LINE
  5
B2
  8
1
  6
________________0
 62
     1
 10
524.0666666666667
 20
259.4304792514937
 30
0.0
 11
524.0666666666667
 21
210.0
 31
0.0
  0
LINE
  5
B3
  8
1
  6
________________0
 62
     1
 10
448.5083333333333
 20
219.825
 30
0.0
 11
478.5083333333334
 21
249.825
 31
0.0
  0
LINE
  5
B4
  8
1
  6
________________0
 62
     1
 10
462.5318014322557
 20
255.0
 30
0.0
 11
462.5318014322557
 21
210.0
 31
0.0
  0
LINE
  5
B5
  8
1
  6
________________0
 62
     1
 10
449.1818014322557
 20
180.9333333333333
 30
0.0
 11
488.3333333333334
 21
180.9333333333333
 31
0.0
  0
LINE
  5
B6
  8
1
  6
________________0
 62
     1
 10
462.5318014322557
 20
167.5833333333333
 30
0.0
 11
462.5318014322557
 21
194.2833333333334
 31
0.0
  0
ENDSEC
  0
EOF
