  0
SECTION
  2
HEADER
  9
$ACADVER
  1
AC1006
  9
$DWGCODEPAGE
  3
ansi_932
  9
$INSBASE
 10
0.0
 20
0.0
 30
0.0
  9
$EXTMIN
 10
525.175
 20
164.2333333333333
  9
$EXTMAX
 10
635.25
 20
279.3446928138667
  9
$LIMMIN
 10
0.0
 20
0.0
  9
$LIMMAX
 10
12.0
 20
9.0
  9
$ORTHOMODE
 70
     0
  9
$REGENMODE
 70
     1
  9
$FILLMODE
 70
     1
  9
$QTEXTMODE
 70
     0
  9
$MIRRTEXT
 70
     1
  9
$DRAGMODE
 70
     2
  9
$LTSCALE
 40
1.0
  9
$OSMODE
 70
    37
  9
$ATTMODE
 70
     1
  9
$TEXTSIZE
 40
0.2
  9
$TRACEWID
 40
0.05
  9
$TEXTSTYLE
  7
STANDARD
  9
$CLAYER
  8
0
  9
$CELTYPE
  6
BYLAYER
  9
$CECOLOR
 62
   256
  9
$DIMSCALE
 40
1.0
  9
$DIMASZ
 40
3.0
  9
$DIMEXO
 40
0.0625
  9
$DIMDLI
 40
0.38
  9
$DIMRND
 40
0.0
  9
$DIMDLE
 40
0.0
  9
$DIMEXE
 40
0.18
  9
$DIMTP
 40
0.0
  9
$DIMTM
 40
0.0
  9
$DIMTXT
 40
3.0
  9
$DIMCEN
 40
0.09
  9
$DIMTSZ
 40
0.0
  9
$DIMTOL
 70
     0
  9
$DIMLIM
 70
     0
  9
$DIMTIH
 70
     1
  9
$DIMTOH
 70
     1
  9
$DIMSE1
 70
     0
  9
$DIMSE2
 70
     0
  9
$DIMTAD
 70
     1
  9
$DIMZIN
 70
     0
  9
$DIMBLK
  1

  9
$DIMASO
 70
     1
  9
$DIMSHO
 70
     1
  9
$DIMPOST
  1

  9
$DIMAPOST
  1

  9
$DIMALT
 70
     0
  9
$DIMALTD
 70
     2
  9
$DIMALTF
 40
25.4
  9
$DIMLFAC
 40
1.0
  9
$DIMTOFL
 70
     0
  9
$DIMTVP
 40
0.0
  9
$DIMTIX
 70
     0
  9
$DIMSOXD
 70
     0
  9
$DIMSAH
 70
     0
  9
$DIMBLK1
  1

  9
$DIMBLK2
  1

  9
$LUNITS
 70
     2
  9
$LUPREC
 70
     4
  9
$SKETCHINC
 40
0.1
  9
$FILLETRAD
 40
0.5
  9
$AUNITS
 70
     0
  9
$AUPREC
 70
     0
  9
$MENU
  1
.
  9
$ELEVATION
 40
0.0
  9
$THICKNESS
 40
0.0
  9
$LIMCHECK
 70
     0
  9
$CHAMFERA
 40
0.5
  9
$CHAMFERB
 40
0.5
  9
$SKPOLY
 70
     0
  9
$TDCREATE
 40
2460339.417160289
  9
$TDUPDATE
 40
2460339.417160301
  9
$TDINDWG
 40
0.0000000116
  9
$TDUSRTIMER
 40
0.0000000116
  9
$USRTIMER
 70
     1
  9
$ANGBASE
 50
0.0
  9
$ANGDIR
 70
     0
  9
$PDMODE
 70
     0
  9
$PDSIZE
 40
0.0
  9
$PLINEWID
 40
0.0
  9
$COORDS
 70
     1
  9
$SPLFRAME
 70
     0
  9
$SPLINETYPE
 70
     6
  9
$SPLINESEGS
 70
     8
  9
$ATTDIA
 70
     0
  9
$ATTREQ
 70
     1
  9
$HANDLING
 70
     1
  9
$HANDSEED
  5
154
  9
$SURFTAB1
 70
     6
  9
$SURFTAB2
 70
     6
  9
$SURFTYPE
 70
     6
  9
$SURFU
 70
     6
  9
$SURFV
 70
     6
  9
$UCSNAME
  2

  9
$UCSORG
 10
0.0
 20
0.0
 30
0.0
  9
$UCSXDIR
 10
1.0
 20
0.0
 30
0.0
  9
$UCSYDIR
 10
0.0
 20
1.0
 30
0.0
  9
$USERI1
 70
     0
  9
$USERI2
 70
     0
  9
$USERI3
 70
     0
  9
$USERI4
 70
     0
  9
$USERI5
 70
     0
  9
$USERR1
 40
0.0
  9
$USERR2
 40
0.0
  9
$USERR3
 40
0.0
  9
$USERR4
 40
0.0
  9
$USERR5
 40
0.0
  9
$WORLDVIEW
 70
     1
  0
ENDSEC
  0
SECTION
  2
TABLES
  0
TABLE
  2
VPORT
 70
     1
  0
VPORT
  2
*ACTIVE
 70
     0
 10
0.0
 20
0.0
 11
1.0
 21
1.0
 12
580.2125
 22
221.7890130736
 13
0.0
 23
0.0
 14
0.5
 24
0.5
 15
0.5
 25
0.5
 16
0.0
 26
0.0
 36
1.0
 17
0.0
 27
0.0
 37
0.0
 40
115.1113594805335
 41
1.6
 42
50.0
 43
0.0
 44
0.0
 50
0.0
 51
0.0
 71
     0
 72
   100
 73
     1
 74
     3
 75
     0
 76
     0
 77
     0
 78
     0
  0
ENDTAB
  0
TABLE
  2
LTYPE
 70
     3
  0
LTYPE
  2
CONTINUOUS
 70
     0
  3
Solid line
 72
    65
 73
     0
 40
0.0
  0
LTYPE
  2
________________
 70
     0
  3

 72
    65
 73
     0
 40
0.0
  0
LTYPE
  2
________________0
 70
     0
  3

 72
    65
 73
     4
 40
7.2
 49
2.7
 49
-1.8
 49
0.8999999999999999
 49
-1.8
  0
ENDTAB
  0
TABLE
  2
LAYER
 70
     2
  0
LAYER
  2
0
 70
     0
 62
     7
  6
CONTINUOUS
  0
LAYER
  2
1
 70
     0
 62
     7
  6
CONTINUOUS
  0
ENDTAB
  0
TABLE
  2
STYLE
 70
     2
  0
STYLE
  2
STANDARD
 70
     0
 40
0.0
 41
1.0
 50
0.0
 71
     0
 42
0.2
  3
txt
  4

  0
STYLE
  2
EXPLODED0
 70
     0
 40
0.2
 41
1.0
 50
0.0
 71
     0
 42
0.2
  3
ＭＳ ゴシック
  4

  0
ENDTAB
  0
TABLE
  2
VIEW
 70
     0
  0
ENDTAB
  0
TABLE
  2
UCS
 70
     0
  0
ENDTAB
  0
ENDSEC
  0
SECTION
  2
BLOCKS
  0
BLOCK
  8
0
  2
_1483
 70
     0
 10
0.0
 20
0.0
 30
0.0
  0
ENDBLK
  8
0
  0
BLOCK
  8
0
  2
_1829
 70
     0
 10
0.0
 20
0.0
 30
0.0
  0
ENDBLK
  8
0
  0
BLOCK
  8
0
  2
_1943
 70
     0
 10
0.0
 20
0.0
 30
0.0
  0
ENDBLK
  8
0
  0
ENDSEC
  0
SECTION
  2
ENTITIES
  0
INSERT
  5
3D
  8
1
  6
________________
 62
     7
  2
_1483
 10
0.0
 20
0.0
 30
0.0
  0
LINE
  5
3F
  8
1
  6
________________
 62
     7
 10
543.6169306337238
 20
226.9342545365492
 30
0.0
 11
533.8623512142599
 21
226.9342545365492
 31
0.0
  0
LINE
  5
40
  8
1
  6
________________
 62
     7
 10
533.6257194815748
 20
226.9342545365492
 30
0.0
 11
529.5852403907875
 21
226.9342545365492
 31
0.0
  0
LINE
  5
41
  8
1
  6
________________
 62
     7
 10
557.9832686823111
 20
226.9342545365492
 30
0.0
 11
553.9427895915236
 21
226.9342545365492
 31
0.0
  0
LINE
  5
42
  8
1
  6
________________
 62
     7
 10
553.7061578588385
 20
226.9342545365492
 30
0.0
 11
543.9515784393747
 21
226.9342545365492
 31
0.0
  0
LINE
  5
43
  8
1
  6
________________
 62
     7
 10
550.7145980963945
 20
277.9450364736582
 30
0.0
 11
553.5716482607328
 21
275.0879863093199
 31
0.0
  0
LINE
  5
44
  8
1
  6
________________
 62
     7
 10
553.7389721635583
 20
274.9206624064945
 30
0.0
 11
560.6365014186839
 21
268.0231331513688
 31
0.0
  0
LINE
  5
45
  8
1
  6
________________
 62
     7
 10
560.8731331513688
 20
267.7865014186839
 30
0.0
 11
567.7706624064946
 21
260.8889721635582
 31
0.0
  0
LINE
  5
46
  8
1
  6
________________
 62
     7
 10
567.93798630932
 20
260.7216482607328
 30
0.0
 11
570.7950364736582
 21
257.8645980963945
 31
0.0
  0
LINE
  5
47
  8
1
  6
________________
 62
     7
 10
560.6959824444849
 20
267.9636521255678
 30
0.0
 11
560.8136521255678
 21
267.8459824444849
 31
0.0
  0
LINE
  5
48
  8
1
  6
________________
 62
     7
 10
543.867459565983
 20
226.9342545365492
 30
0.0
 11
543.7010495071155
 21
226.9342545365492
 31
0.0
  0
LINE
  5
49
  8
1
  6
________________
 62
     7
 10
543.9515784393747
 20
226.9342545365492
 30
0.0
 11
543.867459565983
 21
226.9342545365492
 31
0.0
  0
LINE
  5
4A
  8
1
  6
________________
 62
     7
 10
560.6365014186839
 20
268.0231331513688
 30
0.0
 11
560.6959824444849
 21
267.9636521255678
 31
0.0
  0
LINE
  5
4B
  8
1
  6
________________
 62
     7
 10
543.7010495071155
 20
226.9342545365492
 30
0.0
 11
543.6169306337239
 21
226.9342545365492
 31
0.0
  0
LINE
  5
4C
  8
1
  6
________________
 62
     7
 10
560.8136521255678
 20
267.8459824444849
 30
0.0
 11
560.8731331513688
 21
267.7865014186838
 31
0.0
  0
LINE
  5
4D
  8
1
  6
________________
 62
     7
 10
553.5492453887944
 20
275.1103891812584
 30
0.0
 11
553.6338235718187
 21
275.0258109982341
 31
0.0
  0
LINE
  5
4E
  8
1
  6
________________
 62
     7
 10
567.8758109982341
 20
260.7838235718186
 30
0.0
 11
567.9603891812585
 21
260.6992453887943
 31
0.0
  0
LINE
  5
4F
  8
1
  6
________________
 62
     7
 10
533.7136486497573
 20
226.9342545365492
 30
0.0
 11
533.5940370362434
 21
226.9342545365492
 31
0.0
  0
LINE
  5
50
  8
1
  6
________________
 62
     7
 10
553.974472036855
 20
226.9342545365492
 30
0.0
 11
553.8548604233412
 21
226.9342545365492
 31
0.0
  0
LINE
  5
51
  8
1
  6
________________
 62
     7
 10
533.8623512142599
 20
226.9342545365492
 30
0.0
 11
533.7136486497573
 21
226.9342545365492
 31
0.0
  0
LINE
  5
52
  8
1
  6
________________
 62
     7
 10
567.7706624064946
 20
260.8889721635582
 30
0.0
 11
567.8758109982341
 21
260.7838235718186
 31
0.0
  0
LINE
  5
53
  8
1
  6
________________
 62
     7
 10
553.8548604233412
 20
226.9342545365492
 30
0.0
 11
553.7061578588385
 21
226.9342545365492
 31
0.0
  0
LINE
  5
54
  8
1
  6
________________
 62
     7
 10
553.6338235718187
 20
275.0258109982341
 30
0.0
 11
553.7389721635583
 21
274.9206624064946
 31
0.0
  0
LINE
  5
55
  8
1
  6
________________
 62
     7
 10
529.5852403907875
 20
226.9342545365492
 30
0.0
 11
529.4590620806999
 21
226.9342545365492
 31
0.0
  0
LINE
  5
56
  8
1
  6
________________
 62
     7
 10
558.1094469923986
 20
226.9342545365492
 30
0.0
 11
557.9832686823111
 21
226.9342545365492
 31
0.0
  0
LINE
  5
57
  8
1
  6
________________
 62
     7
 10
570.7950364736582
 20
257.8645980963945
 30
0.0
 11
570.8842580123599
 21
257.7753765576929
 31
0.0
  0
LINE
  5
58
  8
1
  6
________________
 62
     7
 10
550.6253765576929
 20
278.0342580123598
 30
0.0
 11
550.7145980963945
 21
277.9450364736582
 31
0.0
  0
LINE
  5
59
  8
1
  6
________________
 62
     7
 10
570.8842580123599
 20
257.7753765576929
 30
0.0
 11
570.9157454634509
 21
257.743889106602
 31
0.0
  0
LINE
  5
5A
  8
1
  6
________________
 62
     7
 10
550.5938891066019
 20
278.0657454634508
 30
0.0
 11
550.6253765576929
 21
278.0342580123598
 31
0.0
  0
LINE
  5
5B
  8
1
  6
________________
 62
     7
 10
529.4590620806999
 20
226.9342545365492
 30
0.0
 11
529.4145321003224
 21
226.9342545365492
 31
0.0
  0
LINE
  5
5C
  8
1
  6
________________
 62
     7
 10
558.153976972776
 20
226.9342545365492
 30
0.0
 11
558.1094469923985
 21
226.9342545365492
 31
0.0
  0
LINE
  5
5D
  8
1
  6
________________
 62
     7
 10
529.0842545365492
 20
250.9342545365492
 30
0.0
 11
529.0842545365492
 21
231.9342545365492
 31
0.0
  0
LINE
  5
5E
  8
1
  6
________________
 62
     7
 10
558.4842545365492
 20
231.9342545365492
 30
0.0
 11
558.4842545365492
 21
244.8453151696647
 31
0.0
  0
ARC
  5
5F
  8
1
  6
________________
 62
     7
 10
543.7842545365492
 20
250.9342545365492
 30
0.0
 40
14.7
 50
135.0
 51
180.0
  0
LINE
  5
60
  8
1
  6
________________
 62
     7
 10
558.4842545365492
 20
244.8453151696647
 30
0.0
 11
567.6137530625359
 21
253.9748136956513
 31
0.0
  0
LINE
  5
61
  8
1
  6
________________
 62
     7
 10
546.8248136956514
 20
274.7637530625358
 30
0.0
 11
533.3897848531069
 21
261.3287242199915
 31
0.0
  0
LINE
  5
62
  8
1
  6
________________
 62
     7
 10
529.0842545365492
 20
231.9342545365492
 30
0.0
 11
529.4145321003225
 21
228.6314788988172
 31
0.0
  0
LINE
  5
63
  8
1
  6
________________
 62
     7
 10
558.153976972776
 20
228.6314788988173
 30
0.0
 11
558.4842545365492
 21
231.9342545365492
 31
0.0
  0
LINE
  5
64
  8
1
  6
________________
 62
     7
 10
567.6137530625359
 20
253.9748136956514
 30
0.0
 11
569.7156266076961
 21
256.5437702508472
 31
0.0
  0
LINE
  5
65
  8
1
  6
________________
 62
     7
 10
549.3937702508472
 20
276.8656266076961
 30
0.0
 11
546.8248136956514
 21
274.7637530625358
 31
0.0
  0
LINE
  5
66
  8
1
  6
________________
 62
     7
 10
569.7156266076961
 20
256.5437702508472
 30
0.0
 11
570.9157454634509
 21
257.7438891066019
 31
0.0
  0
LINE
  5
67
  8
1
  6
________________
 62
     7
 10
550.5938891066019
 20
278.0657454634508
 30
0.0
 11
549.3937786543703
 21
276.8656350112192
 31
0.0
  0
LINE
  5
68
  8
1
  6
________________
 62
     7
 10
529.4145321003224
 20
228.6314788988172
 30
0.0
 11
529.4145321003224
 21
226.9342545365492
 31
0.0
  0
LINE
  5
69
  8
1
  6
________________
 62
     7
 10
558.153976972776
 20
226.9342545365492
 30
0.0
 11
558.153976972776
 21
228.6314788988172
 31
0.0
  0
POLYLINE
  5
6A
  8
1
  6
________________
 62
     7
 66
     1
 10
0.0
 20
0.0
 30
0.0
  0
VERTEX
  5
B8
  8
1
  6
________________
 62
     7
 10
632.6126859754997
 20
272.3784967152231
 30
0.0
  0
VERTEX
  5
B9
  8
1
  6
________________
 62
     7
 10
631.0997779052464
 20
274.0775385193425
 30
0.0
  0
VERTEX
  5
BA
  8
1
  6
________________
 62
     7
 10
629.139057738972
 20
275.5297701404852
 30
0.0
  0
VERTEX
  5
BB
  8
1
  6
________________
 62
     7
 10
626.8089229426622
 20
276.6771255266568
 30
0.0
  0
VERTEX
  5
BC
  8
1
  6
________________
 62
     7
 10
624.2025416626831
 20
277.4737288020401
 30
0.0
  0
VERTEX
  5
BD
  8
1
  6
________________
 62
     7
 10
621.4241274891516
 20
277.8877285687354
 30
0.0
  0
VERTEX
  5
BE
  8
1
  6
________________
 62
     7
 10
618.5847725781077
 20
277.9025714535559
 30
0.0
  0
VERTEX
  5
BF
  8
1
  6
________________
 62
     7
 10
615.7980057409993
 20
277.5176639783614
 30
0.0
  0
VERTEX
  5
C0
  8
1
  6
________________
 62
     7
 10
613.1752531068984
 20
276.7483962896975
 30
0.0
  0
VERTEX
  5
C1
  8
1
  6
________________
 62
     7
 10
610.8213828584026
 20
275.6255267989341
 30
0.0
  0
VERTEX
  5
C2
  8
1
  6
________________
 62
     7
 10
608.8305121805719
 20
274.1939523374613
 30
0.0
  0
VERTEX
  5
C3
  8
1
  6
________________
 62
     7
 10
607.2822440779204
 20
272.5109130010761
 30
0.0
  0
SEQEND
  5
C4
  8
1
  6
________________
 62
     7
  0
POLYLINE
  5
6B
  8
1
  6
________________
 62
     7
 66
     1
 10
0.0
 20
0.0
 30
0.0
  0
VERTEX
  5
C5
  8
1
  6
________________
 62
     7
 10
629.8219033222894
 20
275.0879863093199
 30
0.0
  0
VERTEX
  5
C6
  8
1
  6
________________
 62
     7
 10
627.7193968021703
 20
276.2862561128831
 30
0.0
  0
VERTEX
  5
C7
  8
1
  6
________________
 62
     7
 10
625.3341047395843
 20
277.1814143356486
 30
0.0
  0
VERTEX
  5
C8
  8
1
  6
________________
 62
     7
 10
622.7522903242536
 20
277.7410879173892
 30
0.0
  0
VERTEX
  5
C9
  8
1
  6
________________
 62
     7
 10
620.0673239028255
 20
277.9450364736582
 30
0.0
  0
SEQEND
  5
CA
  8
1
  6
________________
 62
     7
  0
LINE
  5
6C
  8
1
  6
________________
 62
     7
 10
634.0990141457618
 20
268.0231331513688
 30
0.0
 11
634.028821606914
 21
268.9089089143113
 31
0.0
  0
POLYLINE
  5
6D
  8
1
  6
________________
 62
     7
 66
     1
 10
0.0
 20
0.0
 30
0.0
  0
VERTEX
  5
CB
  8
1
  6
________________
 62
     7
 10
630.0585350549743
 20
260.8889721635582
 30
0.0
  0
VERTEX
  5
CC
  8
1
  6
________________
 62
     7
 10
631.8347392106616
 20
262.4641371816985
 30
0.0
  0
VERTEX
  5
CD
  8
1
  6
________________
 62
     7
 10
633.1305002192867
 20
264.2583214364441
 30
0.0
  0
VERTEX
  5
CE
  8
1
  6
________________
 62
     7
 10
633.8936561118414
 20
266.1992985041971
 30
0.0
  0
VERTEX
  5
CF
  8
1
  6
________________
 62
     7
 10
634.0934853943539
 20
268.2089326909681
 30
0.0
  0
SEQEND
  5
D0
  8
1
  6
________________
 62
     7
  0
POLYLINE
  5
6E
  8
1
  6
________________
 62
     7
 66
     1
 10
0.0
 20
0.0
 30
0.0
  0
VERTEX
  5
D1
  8
1
  6
________________
 62
     7
 10
609.3679311077454
 20
261.17000010678
 30
0.0
  0
VERTEX
  5
D2
  8
1
  6
________________
 62
     7
 10
611.4233289475935
 20
259.8491966426024
 30
0.0
  0
VERTEX
  5
D3
  8
1
  6
________________
 62
     7
 10
613.8030003950296
 20
258.8365595742808
 30
0.0
  0
VERTEX
  5
D4
  8
1
  6
________________
 62
     7
 10
616.4159115240744
 20
258.1708271604186
 30
0.0
  0
VERTEX
  5
D5
  8
1
  6
________________
 62
     7
 10
619.1621058644481
 20
257.877466881138
 30
0.0
  0
VERTEX
  5
D6
  8
1
  6
________________
 62
     7
 10
621.9365282193188
 20
257.9677011839657
 30
0.0
  0
VERTEX
  5
D7
  8
1
  6
________________
 62
     7
 10
624.633043533967
 20
258.4380781710132
 30
0.0
  0
VERTEX
  5
D8
  8
1
  6
________________
 62
     7
 10
627.1484970742298
 20
259.2706036507432
 30
0.0
  0
VERTEX
  5
D9
  8
1
  6
________________
 62
     7
 10
629.3866605932898
 20
260.4334295027023
 30
0.0
  0
VERTEX
  5
DA
  8
1
  6
________________
 62
     7
 10
631.2619135268701
 20
261.8820720219455
 30
0.0
  0
VERTEX
  5
DB
  8
1
  6
________________
 62
     7
 10
632.7025183933399
 20
263.5611136355935
 30
0.0
  0
SEQEND
  5
DC
  8
1
  6
________________
 62
     7
  0
POLYLINE
  5
6F
  8
1
  6
________________
 62
     7
 66
     1
 10
0.0
 20
0.0
 30
0.0
  0
VERTEX
  5
DD
  8
1
  6
________________
 62
     7
 10
605.883873672671
 20
266.2941958558329
 30
0.0
  0
VERTEX
  5
DE
  8
1
  6
________________
 62
     7
 10
606.6770809035306
 20
264.2445979904877
 30
0.0
  0
VERTEX
  5
DF
  8
1
  6
________________
 62
     7
 10
608.0625049694557
 20
262.3589309085379
 30
0.0
  0
VERTEX
  5
E0
  8
1
  6
________________
 62
     7
 10
609.9780966777106
 20
260.7216482607327
 30
0.0
  0
SEQEND
  5
E1
  8
1
  6
________________
 62
     7
  0
POLYLINE
  5
70
  8
1
  6
________________
 62
     7
 66
     1
 10
0.0
 20
0.0
 30
0.0
  0
VERTEX
  5
E2
  8
1
  6
________________
 62
     7
 10
605.7009858542382
 20
267.7865014186839
 30
0.0
  0
VERTEX
  5
E3
  8
1
  6
________________
 62
     7
 10
605.9894126685402
 20
265.8879434548338
 30
0.0
  0
VERTEX
  5
E4
  8
1
  6
________________
 62
     7
 10
606.7809106383397
 20
264.0623249739883
 30
0.0
  0
VERTEX
  5
E5
  8
1
  6
________________
 62
     7
 10
608.0468555374446
 20
262.3756687814233
 30
0.0
  0
VERTEX
  5
E6
  8
1
  6
________________
 62
     7
 10
609.7414649450257
 20
260.8889721635582
 30
0.0
  0
SEQEND
  5
E7
  8
1
  6
________________
 62
     7
  0
POLYLINE
  5
71
  8
1
  6
________________
 62
     7
 66
     1
 10
0.0
 20
0.0
 30
0.0
  0
VERTEX
  5
E8
  8
1
  6
________________
 62
     7
 10
609.7414649450257
 20
274.9206624064945
 30
0.0
  0
VERTEX
  5
E9
  8
1
  6
________________
 62
     7
 10
607.815548052349
 20
273.1776733007409
 30
0.0
  0
VERTEX
  5
EA
  8
1
  6
________________
 62
     7
 10
606.4760649645241
 20
271.1788032473757
 30
0.0
  0
VERTEX
  5
EB
  8
1
  6
________________
 62
     7
 10
605.7880180637135
 20
269.0210533330745
 30
0.0
  0
VERTEX
  5
EC
  8
1
  6
________________
 62
     7
 10
605.7847968626323
 20
266.8091347601029
 30
0.0
  0
SEQEND
  5
ED
  8
1
  6
________________
 62
     7
  0
POLYLINE
  5
72
  8
1
  6
________________
 62
     7
 66
     1
 10
0.0
 20
0.0
 30
0.0
 70
     1
  0
VERTEX
  5
EE
  8
1
  6
________________
 62
     7
 10
633.25
 20
267.9048172850264
 30
0.0
  0
VERTEX
  5
EF
  8
1
  6
________________
 62
     7
 10
632.9934834933831
 20
266.0631889283127
 30
0.0
  0
VERTEX
  5
F0
  8
1
  6
________________
 62
     7
 10
632.2337917590256
 20
264.2923333165505
 30
0.0
  0
VERTEX
  5
F1
  8
1
  6
________________
 62
     7
 10
631.0001193242389
 20
262.6603034377924
 30
0.0
  0
VERTEX
  5
F2
  8
1
  6
________________
 62
     7
 10
629.3398755288404
 20
261.2298172850264
 30
0.0
  0
VERTEX
  5
F3
  8
1
  6
________________
 62
     7
 10
627.3168626108117
 20
260.0558476388771
 30
0.0
  0
VERTEX
  5
F4
  8
1
  6
________________
 62
     7
 10
625.008823822074
 20
259.1835094944765
 30
0.0
  0
VERTEX
  5
F5
  8
1
  6
________________
 62
     7
 10
622.5044557989153
 20
258.6463263175011
 30
0.0
  0
VERTEX
  5
F6
  8
1
  6
________________
 62
     7
 10
619.9
 20
258.464941756186
 30
0.0
  0
VERTEX
  5
F7
  8
1
  6
________________
 62
     7
 10
617.2955442010847
 20
258.6463263175011
 30
0.0
  0
VERTEX
  5
F8
  8
1
  6
________________
 62
     7
 10
614.791176177926
 20
259.1835094944765
 30
0.0
  0
VERTEX
  5
F9
  8
1
  6
________________
 62
     7
 10
612.4831373891883
 20
260.0558476388771
 30
0.0
  0
VERTEX
  5
FA
  8
1
  6
________________
 62
     7
 10
610.4601244711596
 20
261.2298172850263
 30
0.0
  0
VERTEX
  5
FB
  8
1
  6
________________
 62
     7
 10
608.7998806757611
 20
262.6603034377924
 30
0.0
  0
VERTEX
  5
FC
  8
1
  6
________________
 62
     7
 10
607.5662082409743
 20
264.2923333165505
 30
0.0
  0
VERTEX
  5
FD
  8
1
  6
________________
 62
     7
 10
606.8065165066168
 20
266.0631889283127
 30
0.0
  0
VERTEX
  5
FE
  8
1
  6
________________
 62
     7
 10
606.55
 20
267.9048172850264
 30
0.0
  0
VERTEX
  5
FF
  8
1
  6
________________
 62
     7
 10
606.8065165066168
 20
269.74644564174
 30
0.0
  0
VERTEX
  5
100
  8
1
  6
________________
 62
     7
 10
607.5662082409743
 20
271.5173012535022
 30
0.0
  0
VERTEX
  5
101
  8
1
  6
________________
 62
     7
 10
608.7998806757611
 20
273.1493311322603
 30
0.0
  0
VERTEX
  5
102
  8
1
  6
________________
 62
     7
 10
610.4601244711596
 20
274.5798172850264
 30
0.0
  0
VERTEX
  5
103
  8
1
  6
________________
 62
     7
 10
612.4831373891883
 20
275.7537869311756
 30
0.0
  0
VERTEX
  5
104
  8
1
  6
________________
 62
     7
 10
614.7911761779261
 20
276.6261250755762
 30
0.0
  0
VERTEX
  5
105
  8
1
  6
________________
 62
     7
 10
617.2955442010847
 20
277.1633082525516
 30
0.0
  0
VERTEX
  5
106
  8
1
  6
________________
 62
     7
 10
619.9
 20
277.3446928138667
 30
0.0
  0
VERTEX
  5
107
  8
1
  6
________________
 62
     7
 10
622.5044557989153
 20
277.1633082525516
 30
0.0
  0
VERTEX
  5
108
  8
1
  6
________________
 62
     7
 10
625.008823822074
 20
276.6261250755761
 30
0.0
  0
VERTEX
  5
109
  8
1
  6
________________
 62
     7
 10
627.3168626108117
 20
275.7537869311755
 30
0.0
  0
VERTEX
  5
10A
  8
1
  6
________________
 62
     7
 10
629.3398755288404
 20
274.5798172850263
 30
0.0
  0
VERTEX
  5
10B
  8
1
  6
________________
 62
     7
 10
631.000119324239
 20
273.1493311322602
 30
0.0
  0
VERTEX
  5
10C
  8
1
  6
________________
 62
     7
 10
632.2337917590256
 20
271.5173012535022
 30
0.0
  0
VERTEX
  5
10D
  8
1
  6
________________
 62
     7
 10
632.9934834933831
 20
269.74644564174
 30
0.0
  0
SEQEND
  5
10E
  8
1
  6
________________
 62
     7
  0
LINE
  5
73
  8
1
  6
________________
 62
     7
 10
634.5263153254673
 20
265.4087303474378
 30
0.0
 11
634.6
 21
264.3692833790936
 31
0.0
  0
POLYLINE
  5
74
  8
1
  6
________________
 62
     7
 66
     1
 10
0.0
 20
0.0
 30
0.0
  0
VERTEX
  5
10F
  8
1
  6
________________
 62
     7
 10
634.028821606914
 20
268.9089089143112
 30
0.0
  0
VERTEX
  5
110
  8
1
  6
________________
 62
     7
 10
633.3582274224226
 20
271.1076374990214
 30
0.0
  0
VERTEX
  5
111
  8
1
  6
________________
 62
     7
 10
632.0122849599467
 20
273.1456451322776
 30
0.0
  0
VERTEX
  5
112
  8
1
  6
________________
 62
     7
 10
630.0585350549743
 20
274.9206624064945
 30
0.0
  0
SEQEND
  5
113
  8
1
  6
________________
 62
     7
  0
LINE
  5
75
  8
1
  6
________________
 62
     7
 10
605.771178393086
 20
268.9089089143113
 30
0.0
 11
605.7009858542382
 21
268.0231331513688
 31
0.0
  0
LINE
  5
76
  8
1
  6
________________
 62
     7
 10
605.1999999999999
 20
264.3692833790936
 30
0.0
 11
605.2736846745327
 21
265.4087303474378
 31
0.0
  0
LINE
  5
77
  8
1
  6
________________
 62
     7
 10
634.0990141457618
 20
226.9342545365492
 30
0.0
 11
630.0585350549743
 21
226.9342545365492
 31
0.0
  0
LINE
  5
78
  8
1
  6
________________
 62
     7
 10
629.8219033222894
 20
226.9342545365492
 30
0.0
 11
620.0673239028255
 21
226.9342545365492
 31
0.0
  0
LINE
  5
79
  8
1
  6
________________
 62
     7
 10
619.7326760971745
 20
226.9342545365492
 30
0.0
 11
609.9780966777106
 21
226.9342545365492
 31
0.0
  0
LINE
  5
7A
  8
1
  6
________________
 62
     7
 10
609.7414649450257
 20
226.9342545365492
 30
0.0
 11
605.7009858542383
 21
226.9342545365492
 31
0.0
  0
LINE
  5
7B
  8
1
  6
________________
 62
     7
 10
619.9832050294339
 20
226.9342545365492
 30
0.0
 11
619.8167949705662
 21
226.9342545365492
 31
0.0
  0
LINE
  5
7C
  8
1
  6
________________
 62
     7
 10
620.0673239028255
 20
226.9342545365492
 30
0.0
 11
619.9832050294339
 21
226.9342545365492
 31
0.0
  0
LINE
  5
7D
  8
1
  6
________________
 62
     7
 10
619.8167949705662
 20
226.9342545365492
 30
0.0
 11
619.7326760971745
 21
226.9342545365492
 31
0.0
  0
LINE
  5
7E
  8
1
  6
________________
 62
     7
 10
609.829394113208
 20
226.9342545365492
 30
0.0
 11
609.7097824996941
 21
226.9342545365492
 31
0.0
  0
LINE
  5
7F
  8
1
  6
________________
 62
     7
 10
630.0902175003058
 20
226.9342545365492
 30
0.0
 11
629.970605886792
 21
226.9342545365492
 31
0.0
  0
LINE
  5
80
  8
1
  6
________________
 62
     7
 10
609.9780966777106
 20
226.9342545365492
 30
0.0
 11
609.829394113208
 21
226.9342545365492
 31
0.0
  0
LINE
  5
81
  8
1
  6
________________
 62
     7
 10
629.970605886792
 20
226.9342545365492
 30
0.0
 11
629.8219033222894
 21
226.9342545365492
 31
0.0
  0
LINE
  5
82
  8
1
  6
________________
 62
     7
 10
605.7009858542383
 20
226.9342545365492
 30
0.0
 11
605.5748075441508
 21
226.9342545365492
 31
0.0
  0
LINE
  5
83
  8
1
  6
________________
 62
     7
 10
634.2251924558493
 20
226.9342545365492
 30
0.0
 11
634.0990141457618
 21
226.9342545365492
 31
0.0
  0
LINE
  5
84
  8
1
  6
________________
 62
     7
 10
605.5748075441508
 20
226.9342545365492
 30
0.0
 11
605.5302775637732
 21
226.9342545365492
 31
0.0
  0
LINE
  5
85
  8
1
  6
________________
 62
     7
 10
634.2697224362267
 20
226.9342545365492
 30
0.0
 11
634.2251924558493
 21
226.9342545365492
 31
0.0
  0
LINE
  5
86
  8
1
  6
________________
 62
     7
 10
634.5263153254673
 20
265.4087303474378
 30
0.0
 11
634.028821530119
 21
268.9089094546123
 31
0.0
  0
LINE
  5
87
  8
1
  6
________________
 62
     7
 10
605.7711783548361
 20
268.9089086452001
 30
0.0
 11
605.2736846745327
 21
265.4087303474378
 31
0.0
  0
LINE
  5
88
  8
1
  6
________________
 62
     7
 10
634.6
 20
250.9342545365492
 30
0.0
 11
634.6
 21
264.3692833790936
 31
0.0
  0
LINE
  5
89
  8
1
  6
________________
 62
     7
 10
605.1999999999999
 20
264.3692833790936
 30
0.0
 11
605.1999999999999
 21
250.9342545365492
 31
0.0
  0
LINE
  5
8A
  8
1
  6
________________
 62
     7
 10
605.1999999999999
 20
250.9342545365492
 30
0.0
 11
605.1999999999999
 21
231.9342545365492
 31
0.0
  0
LINE
  5
8B
  8
1
  6
________________
 62
     7
 10
634.6
 20
233.0342545365492
 30
0.0
 11
634.6
 21
250.9342545365492
 31
0.0
  0
LINE
  5
8C
  8
1
  6
________________
 62
     7
 10
634.6
 20
231.9342545365492
 30
0.0
 11
634.6
 21
233.0342545365492
 31
0.0
  0
LINE
  5
8D
  8
1
  6
________________
 62
     7
 10
605.1999999999999
 20
231.9342545365492
 30
0.0
 11
605.5302243059947
 21
228.6320114766022
 31
0.0
  0
LINE
  5
8E
  8
1
  6
________________
 62
     7
 10
634.2697222431888
 20
228.6314769684369
 30
0.0
 11
634.6
 21
231.9342545365492
 31
0.0
  0
LINE
  5
8F
  8
1
  6
________________
 62
     7
 10
605.5302775637732
 20
228.6314788988172
 30
0.0
 11
605.5302775637732
 21
226.9342545365492
 31
0.0
  0
LINE
  5
90
  8
1
  6
________________
 62
     7
 10
634.2697224362267
 20
226.9342545365492
 30
0.0
 11
634.2697224362267
 21
228.6314788988172
 31
0.0
  0
INSERT
  5
94
  8
1
  6
________________
 62
     7
  2
_1829
 10
0.0
 20
0.0
 30
0.0
  0
ARC
  5
95
  8
1
  6
________________
 62
     7
 10
543.7842545365492
 20
180.9333333333333
 30
0.0
 40
14.19999999999996
 50
180.675153190995
 51
224.324846809005
  0
ARC
  5
96
  8
1
  6
________________
 62
     7
 10
543.7842545365492
 20
180.9333333333333
 30
0.0
 40
14.19999999999997
 50
135.675153190995
 51
179.324846809005
  0
ARC
  5
97
  8
1
  6
________________
 62
     7
 10
543.7842545365492
 20
180.9333333333333
 30
0.0
 40
14.19999999999999
 50
44.32484680900512
 51
180.6751531909949
  0
ARC
  5
98
  8
1
  6
________________
 62
     7
 10
543.7842545365492
 20
180.9333333333333
 30
0.0
 40
14.19999999999999
 50
45.675153190995
 51
89.324846809005
  0
ARC
  5
99
  8
1
  6
________________
 62
     7
 10
543.7842545365492
 20
180.9333333333333
 30
0.0
 40
14.19999999999996
 50
0.6751531909950029
 51
44.32484680900498
  0
ARC
  5
9A
  8
1
  6
________________
 62
     7
 10
543.7842545365492
 20
180.9333333333333
 30
0.0
 40
14.19999999999997
 50
315.6751531909949
 51
359.324846809005
  0
ARC
  5
9B
  8
1
  6
________________
 62
     7
 10
543.7842545365492
 20
180.9333333333333
 30
0.0
 40
14.19999999999999
 50
270.675153190995
 51
314.324846809005
  0
ARC
  5
9C
  8
1
  6
________________
 62
     7
 10
543.7842545365492
 20
180.9333333333333
 30
0.0
 40
14.19999999999999
 50
180.6751531909949
 51
0.6751531909949071
  0
ARC
  5
9D
  8
1
  6
________________
 62
     7
 10
-543.7842545365492
 20
180.9333333333333
 30
0.0
 40
14.70000000000005
 50
270.0
 51
90.0
210
0.0
220
0.0
230
-1.0
  0
CIRCLE
  5
9E
  8
1
  6
________________
 62
     7
 10
543.7842545365492
 20
180.9333333333333
 30
0.0
 40
13.14625065900588
  0
LINE
  5
9F
  8
1
  6
________________
 62
     7
 10
557.2192833790937
 20
166.2333333333333
 30
0.0
 11
558.2587303474378
 21
166.307018007866
 31
0.0
  0
LINE
  5
A0
  8
1
  6
________________
 62
     7
 10
558.2587303474379
 20
195.5596486588007
 30
0.0
 11
557.2192833790937
 21
195.6333333333333
 31
0.0
  0
POLYLINE
  5
A1
  8
1
  6
________________
 62
     7
 66
     1
 10
0.0
 20
0.0
 30
0.0
  0
VERTEX
  5
114
  8
1
  6
________________
 62
     7
 10
561.7589089143112
 20
195.0621549402473
 30
0.0
  0
VERTEX
  5
115
  8
1
  6
________________
 62
     7
 10
563.9576374990214
 20
194.391560755756
 30
0.0
  0
VERTEX
  5
116
  8
1
  6
________________
 62
     7
 10
565.9956451322776
 20
193.0456182932801
 30
0.0
  0
VERTEX
  5
117
  8
1
  6
________________
 62
     7
 10
567.7706624064945
 20
191.0918683883077
 30
0.0
  0
SEQEND
  5
118
  8
1
  6
________________
 62
     7
  0
POLYLINE
  5
A2
  8
1
  6
________________
 62
     7
 66
     1
 10
0.0
 20
0.0
 30
0.0
  0
VERTEX
  5
119
  8
1
  6
________________
 62
     7
 10
567.148391002194
 20
191.8825081993351
 30
0.0
  0
VERTEX
  5
11A
  8
1
  6
________________
 62
     7
 10
568.6846720631481
 20
189.6439479153131
 30
0.0
  0
VERTEX
  5
11B
  8
1
  6
________________
 62
     7
 10
569.8382455614603
 20
186.9849993430995
 30
0.0
  0
VERTEX
  5
11C
  8
1
  6
________________
 62
     7
 10
570.5534381822692
 20
184.0339876230324
 30
0.0
  0
VERTEX
  5
11D
  8
1
  6
________________
 62
     7
 10
570.7957335778752
 20
180.9333333333333
 30
0.0
  0
SEQEND
  5
11E
  8
1
  6
________________
 62
     7
  0
POLYLINE
  5
A3
  8
1
  6
________________
 62
     7
 66
     1
 10
0.0
 20
0.0
 30
0.0
  0
VERTEX
  5
11F
  8
1
  6
________________
 62
     7
 10
570.7950364736582
 20
180.7660094305079
 30
0.0
  0
VERTEX
  5
120
  8
1
  6
________________
 62
     7
 10
570.5910879173892
 20
178.0810430090797
 30
0.0
  0
VERTEX
  5
121
  8
1
  6
________________
 62
     7
 10
570.0314143356486
 20
175.4992285937491
 30
0.0
  0
VERTEX
  5
122
  8
1
  6
________________
 62
     7
 10
569.1362561128831
 20
173.1139365311631
 30
0.0
  0
VERTEX
  5
123
  8
1
  6
________________
 62
     7
 10
567.93798630932
 20
171.0114300110441
 30
0.0
  0
SEQEND
  5
124
  8
1
  6
________________
 62
     7
  0
POLYLINE
  5
A4
  8
1
  6
________________
 62
     7
 66
     1
 10
0.0
 20
0.0
 30
0.0
  0
VERTEX
  5
125
  8
1
  6
________________
 62
     7
 10
570.7957335778752
 20
180.9333333333333
 30
0.0
  0
VERTEX
  5
126
  8
1
  6
________________
 62
     7
 10
570.5749557376353
 20
177.9719550151879
 30
0.0
  0
VERTEX
  5
127
  8
1
  6
________________
 62
     7
 10
569.9223310628649
 20
175.1408051921608
 30
0.0
  0
VERTEX
  5
128
  8
1
  6
________________
 62
     7
 10
568.8665591387379
 20
172.5643854784662
 30
0.0
  0
VERTEX
  5
129
  8
1
  6
________________
 62
     7
 10
567.4540682071389
 20
170.3559955697396
 30
0.0
  0
VERTEX
  5
12A
  8
1
  6
________________
 62
     7
 10
565.7469734551967
 20
168.6127508168587
 30
0.0
  0
VERTEX
  5
12B
  8
1
  6
________________
 62
     7
 10
563.8203454604217
 20
167.4113115166184
 30
0.0
  0
VERTEX
  5
12C
  8
1
  6
________________
 62
     7
 10
561.7589089143113
 20
166.8045117264193
 30
0.0
  0
SEQEND
  5
12D
  8
1
  6
________________
 62
     7
  0
LINE
  5
A5
  8
1
  6
________________
 62
     7
 10
543.7842545365492
 20
166.2333333333333
 30
0.0
 11
557.2192833790937
 21
166.2333333333333
 31
0.0
  0
LINE
  5
A6
  8
1
  6
________________
 62
     7
 10
557.2192833790937
 20
195.6333333333333
 30
0.0
 11
543.7842545365492
 21
195.6333333333333
 31
0.0
  0
LINE
  5
A7
  8
1
  6
________________
 62
     7
 10
558.2587303474378
 20
166.307018007866
 30
0.0
 11
561.7589089143112
 21
166.8045117264193
 31
0.0
  0
LINE
  5
A8
  8
1
  6
________________
 62
     7
 10
561.7589089143112
 20
195.0621549402473
 30
0.0
 11
558.2587303474379
 21
195.5596486588006
 31
0.0
  0
INSERT
  5
AC
  8
1
  6
________________
 62
     7
  2
_1943
 10
0.0
 20
0.0
 30
0.0
  0
TEXT
  5
AD
  8
1
 62
     7
 10
614.9806363636363
 20
182.1863636363636
 30
0.0
 40
3.0
  1
DPNS-20
  7
EXPLODED0
  0
LINE
  5
AE
  8
1
  6
________________0
 62
     1
 10
527.0842545365491
 20
180.9333333333333
 30
0.0
 11
575.0
 21
180.9333333333333
 31
0.0
  0
LINE
  5
B0
  8
1
  6
________________0
 62
     1
 10
543.7842545365492
 20
164.2333333333333
 30
0.0
 11
543.7842545365492
 21
197.6333333333334
 31
0.0
  0
LINE
  5
B1
  8
1
  6
________________0
 62
     1
 10
562.6750000000002
 20
269.825
 30
0.0
 11
525.175
 21
232.3250000000001
 31
0.0
  0
LINE
  5
B2
  8
1
  6
________________0
 62
     1
 10
543.7842545365492
 20
277.5
 30
0.0
 11
543.7842545365492
 21
222.5
 31
0.0
  0
LINE
  5
B3
  8
1
  6
________________0
 62
     1
 10
604.5500000000001
 20
267.9048172850264
 30
0.0
 11
635.25
 21
267.9048172850264
 31
0.0
  0
LINE
  5
B4
  8
1
  6
________________0
 62
     1
 10
619.9
 20
279.3446928138667
 30
0.0
 11
619.9
 21
222.5
 31
0.0
  0
ENDSEC
  0
EOF
