  0
SECTION
  2
HEADER
  9
$ACADVER
  1
AC1006
  9
$DWGCODEPAGE
  3
ansi_932
  9
$INSBASE
 10
0.0
 20
0.0
 30
0.0
  9
$EXTMIN
 10
455.9615164451124
 20
22.52727272727256
  9
$EXTMAX
 10
695.1473153072482
 20
294.5251388258864
  9
$LIMMIN
 10
0.0
 20
0.0
  9
$LIMMAX
 10
12.0
 20
9.0
  9
$ORTHOMODE
 70
     0
  9
$REGENMODE
 70
     1
  9
$FILLMODE
 70
     1
  9
$QTEXTMODE
 70
     0
  9
$MIRRTEXT
 70
     1
  9
$DRAGMODE
 70
     2
  9
$LTSCALE
 40
1.0
  9
$OSMODE
 70
    37
  9
$ATTMODE
 70
     1
  9
$TEXTSIZE
 40
0.2
  9
$TRACEWID
 40
0.05
  9
$TEXTSTYLE
  7
STANDARD
  9
$CLAYER
  8
0
  9
$CELTYPE
  6
BYLAYER
  9
$CECOLOR
 62
   256
  9
$DIMSCALE
 40
1.0
  9
$DIMASZ
 40
3.0
  9
$DIMEXO
 40
0.0625
  9
$DIMDLI
 40
0.38
  9
$DIMRND
 40
0.0
  9
$DIMDLE
 40
0.0
  9
$DIMEXE
 40
1.5
  9
$DIMTP
 40
0.0
  9
$DIMTM
 40
0.0
  9
$DIMTXT
 40
3.0
  9
$DIMCEN
 40
0.09
  9
$DIMTSZ
 40
0.0
  9
$DIMTOL
 70
     0
  9
$DIMLIM
 70
     0
  9
$DIMTIH
 70
     1
  9
$DIMTOH
 70
     1
  9
$DIMSE1
 70
     0
  9
$DIMSE2
 70
     0
  9
$DIMTAD
 70
     1
  9
$DIMZIN
 70
     0
  9
$DIMBLK
  1

  9
$DIMASO
 70
     1
  9
$DIMSHO
 70
     1
  9
$DIMPOST
  1

  9
$DIMAPOST
  1

  9
$DIMALT
 70
     0
  9
$DIMALTD
 70
     2
  9
$DIMALTF
 40
25.4
  9
$DIMLFAC
 40
1.0
  9
$DIMTOFL
 70
     0
  9
$DIMTVP
 40
0.0
  9
$DIMTIX
 70
     0
  9
$DIMSOXD
 70
     0
  9
$DIMSAH
 70
     0
  9
$DIMBLK1
  1

  9
$DIMBLK2
  1

  9
$LUNITS
 70
     2
  9
$LUPREC
 70
     4
  9
$SKETCHINC
 40
0.1
  9
$FILLETRAD
 40
0.5
  9
$AUNITS
 70
     0
  9
$AUPREC
 70
     0
  9
$MENU
  1
.
  9
$ELEVATION
 40
0.0
  9
$THICKNESS
 40
0.0
  9
$LIMCHECK
 70
     0
  9
$CHAMFERA
 40
0.0
  9
$CHAMFERB
 40
0.0
  9
$SKPOLY
 70
     0
  9
$TDCREATE
 40
2460363.617626018
  9
$TDUPDATE
 40
2460363.617626123
  9
$TDINDWG
 40
0.0000000116
  9
$TDUSRTIMER
 40
0.0000000116
  9
$USRTIMER
 70
     1
  9
$ANGBASE
 50
0.0
  9
$ANGDIR
 70
     0
  9
$PDMODE
 70
     0
  9
$PDSIZE
 40
0.0
  9
$PLINEWID
 40
0.0
  9
$COORDS
 70
     1
  9
$SPLFRAME
 70
     0
  9
$SPLINETYPE
 70
     6
  9
$SPLINESEGS
 70
     8
  9
$ATTDIA
 70
     0
  9
$ATTREQ
 70
     1
  9
$HANDLING
 70
     1
  9
$HANDSEED
  5
233
  9
$SURFTAB1
 70
     6
  9
$SURFTAB2
 70
     6
  9
$SURFTYPE
 70
     6
  9
$SURFU
 70
     6
  9
$SURFV
 70
     6
  9
$UCSNAME
  2

  9
$UCSORG
 10
0.0
 20
0.0
 30
0.0
  9
$UCSXDIR
 10
1.0
 20
0.0
 30
0.0
  9
$UCSYDIR
 10
0.0
 20
1.0
 30
0.0
  9
$USERI1
 70
     0
  9
$USERI2
 70
     0
  9
$USERI3
 70
     0
  9
$USERI4
 70
     0
  9
$USERI5
 70
     0
  9
$USERR1
 40
0.0
  9
$USERR2
 40
0.0
  9
$USERR3
 40
0.0
  9
$USERR4
 40
0.0
  9
$USERR5
 40
0.0
  9
$WORLDVIEW
 70
     1
  0
ENDSEC
  0
SECTION
  2
TABLES
  0
TABLE
  2
VPORT
 70
     1
  0
VPORT
  2
*ACTIVE
 70
     0
 10
0.0
 20
0.0
 11
1.0
 21
1.0
 12
575.5544158761803
 22
158.5262057765795
 13
0.0
 23
0.0
 14
0.5
 24
0.5
 15
0.5
 25
0.5
 16
0.0
 26
0.0
 36
1.0
 17
0.0
 27
0.0
 37
0.0
 40
271.9978660986138
 41
1.6
 42
50.0
 43
0.0
 44
0.0
 50
0.0
 51
0.0
 71
     0
 72
   100
 73
     1
 74
     3
 75
     0
 76
     0
 77
     0
 78
     0
  0
ENDTAB
  0
TABLE
  2
LTYPE
 70
     2
  0
LTYPE
  2
CONTINUOUS
 70
     0
  3
Solid line
 72
    65
 73
     0
 40
0.0
  0
LTYPE
  2
CENTER
 70
     0
  3

 72
    65
 73
     0
 40
0.0
  0
ENDTAB
  0
TABLE
  2
LAYER
 70
     2
  0
LAYER
  2
0
 70
     0
 62
     7
  6
CONTINUOUS
  0
LAYER
  2
1
 70
     0
 62
     7
  6
CONTINUOUS
  0
ENDTAB
  0
TABLE
  2
STYLE
 70
     2
  0
STYLE
  2
STANDARD
 70
     0
 40
0.0
 41
1.0
 50
0.0
 71
     0
 42
0.2
  3
txt
  4

  0
STYLE
  2
ＭＳ_ゴシック
 70
     0
 40
0.0
 41
1.0
 50
0.0
 71
     0
 42
0.2
  3
ＭＳ ゴシック.shx
  4

  0
ENDTAB
  0
TABLE
  2
VIEW
 70
     0
  0
ENDTAB
  0
TABLE
  2
UCS
 70
     0
  0
ENDTAB
  0
ENDSEC
  0
SECTION
  2
BLOCKS
  0
ENDSEC
  0
SECTION
  2
ENTITIES
  0
LINE
  5
70
  8
1
  6
CONTINUOUS
 62
     9
 10
693.4446973465987
 20
139.8474047862594
 30
0.0
 11
693.384307173955
 21
139.8474047862594
 31
0.0
  0
LINE
  5
71
  8
1
  6
CONTINUOUS
 62
     9
 10
616.9103234405413
 20
139.8474047862591
 30
0.0
 11
616.8499332678977
 21
139.8474047862591
 31
0.0
  0
LINE
  5
72
  8
1
  6
CONTINUOUS
 62
     9
 10
569.8429113012177
 20
120.8119407771255
 30
0.0
 11
543.801280740875
 21
146.8535713374681
 31
0.0
  0
ARC
  5
73
  8
1
  6
CONTINUOUS
 62
     9
 10
681.0969668926667
 20
78.26396744727718
 30
0.0
 40
160.8317540339698
 50
162.1045476254347
 51
170.726619314256
  0
ARC
  5
74
  8
1
  6
CONTINUOUS
 62
     9
 10
563.8235559633624
 20
98.05550829886269
 30
0.0
 40
41.90652007406141
 50
171.5945939617673
 51
189.4418394969223
  0
LINE
  5
75
  8
1
  6
CONTINUOUS
 62
     9
 10
543.801280740875
 20
145.5104255869605
 30
0.0
 11
568.49976555071
 21
120.8119407771254
 31
0.0
  0
LINE
  5
76
  8
1
  6
CONTINUOUS
 62
     7
 10
458.9702429806108
 20
189.8499999999999
 30
0.0
 11
457.9615164451125
 21
188.8500380769358
 31
0.0
  0
LINE
  5
77
  8
1
  6
CONTINUOUS
 62
     7
 10
537.7171634823862
 20
188.8500380769358
 30
0.0
 11
536.7084369468879
 21
189.8499999999999
 31
0.0
  0
LINE
  5
78
  8
1
  6
CONTINUOUS
 62
     9
 10
524.8516128281426
 20
88.50990226824862
 30
0.0
 11
531.1101552439067
 21
85.49339828220798
 31
0.0
  0
LINE
  5
79
  8
1
  6
CONTINUOUS
 62
     7
 10
537.8393399637495
 20
174.8499999999998
 30
0.0
 11
537.7171634823864
 21
188.8500380769358
 31
0.0
  0
LINE
  5
7A
  8
1
  6
CONTINUOUS
 62
     7
 10
457.9615164451124
 20
188.8500380769358
 30
0.0
 11
457.8393399637494
 21
174.8499999999998
 31
0.0
  0
ARC
  5
7B
  8
1
  6
CONTINUOUS
 62
     9
 10
526.2607614403616
 20
92.14276391079991
 30
0.0
 40
3.89658613727955
 50
194.2911133219519
 51
248.7992536058406
  0
LINE
  5
7C
  8
1
  6
CONTINUOUS
 62
     9
 10
459.6023480970425
 20
139.8474047862591
 30
0.0
 11
459.541957924399
 21
139.8474047862591
 31
0.0
  0
LINE
  5
7D
  8
1
  6
CENTER
 62
     1
 10
455.9615164451124
 20
252.6473153072494
 30
0.0
 11
591.666666666665
 21
252.6473153072494
 31
0.0
  0
TEXT
  5
7F
  8
1
  6
CONTINUOUS
 62
     7
 10
501.6884717185594
 20
22.18523821433021
 30
0.0
 40
3.0
  1
DPRY-50
  0
LINE
  5
80
  8
1
  6
CONTINUOUS
 62
     7
 10
585.5205808308814
 20
135.6611831820429
 30
0.0
 11
558.6505231457926
 21
162.5312408671318
 31
0.0
  0
ARC
  5
81
  8
1
  6
CONTINUOUS
 62
     9
 10
572.1563798146594
 20
99.94229832687613
 30
0.0
 40
51.05929816507644
 50
168.1311116487442
 51
190.1765226121043
  0
ARC
  5
82
  8
1
  6
CONTINUOUS
 62
     9
 10
711.2024393367744
 20
76.18593811759675
 30
0.0
 40
192.0932061089811
 50
164.2302189217882
 51
169.7269253279023
  0
LINE
  5
83
  8
1
  6
CONTINUOUS
 62
     7
 10
537.7171634823864
 20
188.8500380769358
 30
0.0
 11
457.9615164451124
 21
188.8500380769358
 31
0.0
  0
LINE
  5
84
  8
1
  6
CONTINUOUS
 62
     7
 10
497.0893399637494
 20
174.8229467098485
 30
0.0
 11
457.8393399637494
 21
174.8229467098485
 31
0.0
  0
LINE
  5
85
  8
1
  6
CONTINUOUS
 62
     7
 10
537.8393399637495
 20
174.8499999999998
 30
0.0
 11
498.5893399637494
 21
174.8499999999998
 31
0.0
  0
LINE
  5
86
  8
1
  6
CONTINUOUS
 62
     9
 10
499.8775222758397
 20
138.0502075382095
 30
0.0
 11
499.9064276924356
 21
137.5803612278166
 31
0.0
  0
LINE
  5
87
  8
1
  6
CONTINUOUS
 62
     7
 10
463.3393399637494
 20
62.82643745696478
 30
0.0
 11
532.3393399637494
 21
62.82643745696478
 31
0.0
  0
LINE
  5
88
  8
1
  6
CONTINUOUS
 62
     7
 10
458.9702429806108
 20
189.8499999999999
 30
0.0
 11
536.708436946888
 21
189.8499999999999
 31
0.0
  0
LINE
  5
89
  8
1
  6
CONTINUOUS
 62
     7
 10
497.0893399637494
 20
174.8499999999998
 30
0.0
 11
457.8393399637494
 21
174.8499999999998
 31
0.0
  0
LINE
  5
8A
  8
1
  6
CONTINUOUS
 62
     7
 10
537.8393399637495
 20
174.8229467098485
 30
0.0
 11
498.5893399637494
 21
174.8229467098485
 31
0.0
  0
LINE
  5
8B
  8
1
  6
CONTINUOUS
 62
     9
 10
495.7722522350633
 20
137.5803612278166
 30
0.0
 11
495.801157651659
 21
138.0502075382095
 31
0.0
  0
LINE
  5
8C
  8
1
  6
CONTINUOUS
 62
     9
 10
499.4151801324753
 20
137.1105149174236
 30
0.0
 11
496.2634997950235
 21
137.1105149174236
 31
0.0
  0
LINE
  5
8D
  8
1
  6
CONTINUOUS
 62
     7
 10
490.3721732828848
 20
69.44999999999983
 30
0.0
 11
505.3065066446139
 21
69.44999999999983
 31
0.0
  0
LINE
  5
8E
  8
1
  6
CONTINUOUS
 62
     7
 10
490.1829788587276
 20
73.14999999999982
 30
0.0
 11
505.4957010687712
 21
73.14999999999982
 31
0.0
  0
LINE
  5
8F
  8
1
  6
CONTINUOUS
 62
     7
 10
495.801157651659
 20
139.836333074088
 30
0.0
 11
495.6894739090021
 21
139.8474047862591
 31
0.0
  0
LINE
  5
90
  8
1
  6
CONTINUOUS
 62
     7
 10
499.9892060184966
 20
139.8474047862591
 30
0.0
 11
499.8775222758397
 21
139.836333074088
 31
0.0
  0
LINE
  5
91
  8
1
  6
CONTINUOUS
 62
     9
 10
499.8775222758397
 20
139.836333074088
 30
0.0
 11
499.8775222758397
 21
138.0502075382095
 31
0.0
  0
LINE
  5
92
  8
1
  6
CONTINUOUS
 62
     9
 10
526.3393399637494
 20
129.422077938642
 30
0.0
 11
469.3393399637494
 21
129.422077938642
 31
0.0
  0
LINE
  5
93
  8
1
  6
CONTINUOUS
 62
     7
 10
459.9016966292679
 20
141.8215728752537
 30
0.0
 11
459.9016966292679
 21
140.1473933631783
 31
0.0
  0
LINE
  5
94
  8
1
  6
CONTINUOUS
 62
     7
 10
495.6632843059893
 20
140.1473933631783
 30
0.0
 11
495.6632843059893
 21
141.8215728752537
 31
0.0
  0
LINE
  5
95
  8
1
  6
CONTINUOUS
 62
     9
 10
531.1101552439204
 20
84.07918471982866
 30
0.0
 11
524.6365100408026
 21
87.38553390593268
 31
0.0
  0
LINE
  5
96
  8
1
  6
CONTINUOUS
 62
     7
 10
495.6632843059893
 20
141.8215728752537
 30
0.0
 11
495.6116829287308
 21
140.4073593128806
 31
0.0
  0
LINE
  5
97
  8
1
  6
CONTINUOUS
 62
     7
 10
499.3989196731615
 20
139.8325462644183
 30
0.0
 11
499.8775222758397
 21
139.836333074088
 31
0.0
  0
LINE
  5
98
  8
1
  6
CONTINUOUS
 62
     7
 10
500.1443527800457
 20
134.1206903175498
 30
0.0
 11
495.5343271474532
 21
134.1206903175498
 31
0.0
  0
LINE
  5
99
  8
1
  6
CONTINUOUS
 62
     7
 10
495.6116829287308
 20
140.4073593128806
 30
0.0
 11
495.1264611532157
 21
134.9103750712684
 31
0.0
  0
ARC
  5
9A
  8
1
  6
CONTINUOUS
 62
     7
 10
571.7373013020818
 20
244.235959592107
 30
0.0
 40
7.731256772203432
 50
280.8125846880807
 51
306.072070234304
  0
ARC
  5
9B
  8
1
  6
CONTINUOUS
 62
     7
 10
564.0532775736466
 20
254.7841833285535
 30
0.0
 40
20.78151518547974
 50
306.0720702343021
 51
319.3006331506809
  0
ARC
  5
9C
  8
1
  6
CONTINUOUS
 62
     7
 10
570.4715992945481
 20
249.2636791156592
 30
0.0
 40
12.31565312201693
 50
319.3006331506809
 51
347.6997835508665
  0
ARC
  5
9D
  8
1
  6
CONTINUOUS
 62
     7
 10
554.9531241041585
 20
252.6473153072494
 30
0.0
 40
28.1987279537923
 50
347.6997835508702
 51
0.0
  0
LINE
  5
9E
  8
1
  6
CONTINUOUS
 62
     9
 10
469.3393399637494
 20
90.92106781186529
 30
0.0
 11
521.9003420768393
 21
90.92106781186529
 31
0.0
  0
ARC
  5
9F
  8
1
  6
CONTINUOUS
 62
     9
 10
527.0241671680433
 20
92.05988831567628
 30
0.0
 40
5.248856609315228
 50
192.5308611664641
 51
242.9420849883481
  0
LINE
  5
A0
  8
1
  6
CONTINUOUS
 62
     7
 10
466.0376133427932
 20
134.9103750712782
 30
0.0
 11
460.4915030702263
 21
140.4073593128807
 31
0.0
  0
LINE
  5
A1
  8
1
  6
CONTINUOUS
 62
     9
 10
500.0153956215095
 20
141.8215728752537
 30
0.0
 11
535.8393399637495
 21
141.8215728752537
 31
0.0
  0
LINE
  5
A2
  8
1
  6
CONTINUOUS
 62
     7
 10
466.0376133427932
 20
134.9103750712782
 30
0.0
 11
466.7977923563627
 21
134.1208258394985
 31
0.0
  0
ARC
  5
A3
  8
1
  6
CONTINUOUS
 62
     7
 10
572.0855519883369
 20
243.9754562317046
 30
0.0
 40
7.970697171291452
 50
233.9279297656986
 51
270.0
  0
ARC
  5
A4
  8
1
  6
CONTINUOUS
 62
     7
 10
580.0075532878645
 20
254.8503630645136
 30
0.0
 40
21.42512778770901
 50
220.6993668493187
 51
233.9279297656965
  0
ARC
  5
A5
  8
1
  6
CONTINUOUS
 62
     7
 10
573.3904533398754
 20
249.1588864249031
 30
0.0
 40
12.69707427842589
 50
192.3002164491309
 51
220.6993668493187
  0
ARC
  5
A6
  8
1
  6
CONTINUOUS
 62
     7
 10
589.3895424850587
 20
252.6473153072494
 30
0.0
 40
29.07205487513831
 50
180.0
 51
192.3002164491301
  0
ARC
  5
A7
  8
1
  6
CONTINUOUS
 62
     7
 10
589.3895424850587
 20
252.6473153072494
 30
0.0
 40
29.07205487513831
 50
167.6997835508698
 51
180.0
  0
ARC
  5
A8
  8
1
  6
CONTINUOUS
 62
     7
 10
573.3904533398753
 20
256.1357441895958
 30
0.0
 40
12.69707427842581
 50
139.3006331506811
 51
167.699783550869
  0
ARC
  5
A9
  8
1
  6
CONTINUOUS
 62
     7
 10
580.0075532878633
 20
250.4442675499863
 30
0.0
 40
21.42512778770739
 50
126.0720702343025
 51
139.3006331506813
  0
ARC
  5
AA
  8
1
  6
CONTINUOUS
 62
     7
 10
572.0855519883369
 20
261.3191743827944
 30
0.0
 40
7.970697171291397
 50
90.0
 51
126.0720702343018
  0
ARC
  5
AB
  8
1
  6
CONTINUOUS
 62
     7
 10
572.0855519883369
 20
261.3191743827944
 30
0.0
 40
7.970697171291397
 50
53.92792976569819
 51
90.0
  0
ARC
  5
AC
  8
1
  6
CONTINUOUS
 62
     7
 10
564.1635506888102
 20
250.4442675499862
 30
0.0
 40
21.42512778770755
 50
40.69936684931884
 51
53.92792976569746
  0
ARC
  5
AD
  8
1
  6
CONTINUOUS
 62
     7
 10
570.7806506367982
 20
256.1357441895958
 30
0.0
 40
12.69707427842589
 50
12.30021644913086
 51
40.69936684931867
  0
ARC
  5
AE
  8
1
  6
CONTINUOUS
 62
     7
 10
554.7815614916151
 20
252.6473153072494
 30
0.0
 40
29.07205487513831
 50
359.9999999999999
 51
12.30021644913006
  0
ARC
  5
AF
  8
1
  6
CONTINUOUS
 62
     7
 10
554.7815614916151
 20
252.6473153072494
 30
0.0
 40
29.07205487513831
 50
347.6997835508699
 51
0.0
  0
ARC
  5
B0
  8
1
  6
CONTINUOUS
 62
     7
 10
570.7806506367983
 20
249.158886424903
 30
0.0
 40
12.69707427842579
 50
319.3006331506812
 51
347.6997835508691
  0
ARC
  5
B1
  8
1
  6
CONTINUOUS
 62
     7
 10
564.1635506888102
 20
254.8503630645126
 30
0.0
 40
21.42512778770755
 50
306.0720702343026
 51
319.3006331506813
  0
ARC
  5
B2
  8
1
  6
CONTINUOUS
 62
     7
 10
572.0855519883369
 20
243.9754562317045
 30
0.0
 40
7.970697171291369
 50
270.0
 51
306.0720702343019
  0
LINE
  5
B3
  8
1
  6
CONTINUOUS
 62
     7
 10
495.6894739090021
 20
139.8474047862591
 30
0.0
 11
495.6632843059893
 21
140.1473933631783
 31
0.0
  0
LINE
  5
B4
  8
1
  6
CONTINUOUS
 62
     7
 10
500.0153956215095
 20
141.8215728752537
 30
0.0
 11
500.0153956215095
 21
140.1473933631783
 31
0.0
  0
LINE
  5
B5
  8
1
  6
CONTINUOUS
 62
     7
 10
500.5522187742822
 20
134.9103750712782
 30
0.0
 11
500.0669969987679
 21
140.4073593128806
 31
0.0
  0
LINE
  5
B6
  8
1
  6
CONTINUOUS
 62
     9
 10
459.8393399637494
 20
140.1473933631783
 30
0.0
 11
459.9016966292679
 21
140.1473933631783
 31
0.0
  0
LINE
  5
B7
  8
1
  6
CONTINUOUS
 62
     7
 10
500.0669969987679
 20
140.4073593128806
 30
0.0
 11
500.0153956215095
 21
141.8215728752537
 31
0.0
  0
LINE
  5
B8
  8
1
  6
CONTINUOUS
 62
     7
 10
532.3393399637494
 20
62.84999999999984
 30
0.0
 11
463.3393399637494
 21
62.84999999999984
 31
0.0
  0
LINE
  5
B9
  8
1
  6
CONTINUOUS
 62
     9
 10
495.801157651659
 20
138.0502075382095
 30
0.0
 11
495.801157651659
 21
139.836333074088
 31
0.0
  0
ARC
  5
BA
  8
1
  6
CONTINUOUS
 62
     7
 10
461.8945391932299
 20
141.8226021124083
 30
0.0
 40
1.992842829745506
 50
180.0295913690844
 51
225.2481609139877
  0
LINE
  5
BB
  8
1
  6
CONTINUOUS
 62
     7
 10
466.7972564851889
 20
134.1206903175498
 30
0.0
 11
466.711795396707
 21
134.1206903175498
 31
0.0
  0
LINE
  5
BC
  8
1
  6
CONTINUOUS
 62
     7
 10
500.0153956215095
 20
140.1473933631783
 30
0.0
 11
499.9892060184966
 21
139.8474047862591
 31
0.0
  0
ARC
  5
BD
  8
1
  6
CONTINUOUS
 62
     7
 10
554.9531241041587
 20
252.6473153072494
 30
0.0
 40
28.19872795379208
 50
0.0
 51
12.30021644912983
  0
ARC
  5
BE
  8
1
  6
CONTINUOUS
 62
     7
 10
570.4715992945479
 20
256.0309514988394
 30
0.0
 40
12.31565312201717
 50
12.30021644913359
 51
40.69936684931893
  0
ARC
  5
BF
  8
1
  6
CONTINUOUS
 62
     7
 10
564.0532775736456
 20
250.5104472859445
 30
0.0
 40
20.78151518548114
 50
40.69936684931893
 51
53.92792976569687
  0
ARC
  5
C0
  8
1
  6
CONTINUOUS
 62
     7
 10
571.7373013020818
 20
261.0586710223917
 30
0.0
 40
7.731256772203598
 50
53.92792976569682
 51
79.17988193274013
  0
LINE
  5
C1
  8
1
  6
CONTINUOUS
 62
     9
 10
459.9016966292678
 20
141.8215728752537
 30
0.0
 11
495.6632843059893
 21
141.8215728752537
 31
0.0
  0
ARC
  5
C2
  8
1
  6
CONTINUOUS
 62
     7
 10
561.2666620917867
 20
254.765305091596
 30
0.0
 40
20.59792014634104
 50
220.6993668493189
 51
232.1492056951841
  0
ARC
  5
C3
  8
1
  6
CONTINUOUS
 62
     7
 10
554.9050432636734
 20
249.293571970606
 30
0.0
 40
12.20685004405105
 50
192.300216449131
 51
220.6993668493185
  0
ARC
  5
C4
  8
1
  6
CONTINUOUS
 62
     7
 10
570.2864199299892
 20
252.6473153072494
 30
0.0
 40
27.94960528318136
 50
180.0
 51
192.3002164491299
  0
ARC
  5
C5
  8
1
  6
CONTINUOUS
 62
     7
 10
570.2864199299901
 20
252.6473153072494
 30
0.0
 40
27.94960528318224
 50
167.6997835508703
 51
180.0
  0
ARC
  5
C6
  8
1
  6
CONTINUOUS
 62
     7
 10
554.9050432636736
 20
256.0010586438927
 30
0.0
 40
12.20685004405133
 50
139.3006331506815
 51
167.6997835508682
  0
ARC
  5
C7
  8
1
  6
CONTINUOUS
 62
     7
 10
561.2666620917864
 20
250.5293255229031
 30
0.0
 40
20.59792014634066
 50
127.8355077716216
 51
139.3006331506814
  0
LINE
  5
C8
  8
1
  6
CONTINUOUS
 62
     9
 10
535.8393399637495
 20
172.5526066368213
 30
0.0
 11
459.8393399637494
 21
172.5526066368213
 31
0.0
  0
LINE
  5
C9
  8
1
  6
CENTER
 62
     1
 10
655.1473153072482
 20
197.4999999999998
 30
0.0
 11
655.1473153072482
 21
27.49999999999982
 31
0.0
  0
LINE
  5
CA
  8
1
  6
CENTER
 62
     1
 10
576.0780033152073
 20
153.0886633514576
 30
0.0
 11
497.8393399637494
 21
74.84999999999988
 31
0.0
  0
LINE
  5
CB
  8
1
  6
CENTER
 62
     1
 10
497.8393399637494
 20
197.4999999999998
 30
0.0
 11
497.8393399637494
 21
32.49999999999984
 31
0.0
  0
ARC
  5
CC
  8
1
  6
CONTINUOUS
 62
     7
 10
571.7373013020818
 20
244.235959592107
 30
0.0
 40
7.731256772203432
 50
268.7310233510258
 51
270.0
  0
ARC
  5
CD
  8
1
  6
CONTINUOUS
 62
     7
 10
571.7373013020818
 20
244.235959592107
 30
0.0
 40
7.731256772203432
 50
270.0
 51
280.8125846880807
  0
ARC
  5
CE
  8
1
  6
CONTINUOUS
 62
     7
 10
463.7918329307529
 20
243.1704402391867
 30
0.0
 40
0.4990385352304595
 50
15.52318147755256
 51
105.0314178798852
  0
ARC
  5
CF
  8
1
  6
CONTINUOUS
 62
     7
 10
571.7373013020818
 20
261.058671022392
 30
0.0
 40
7.731256772203321
 50
91.26897664897429
 51
103.4699735378598
  0
ARC
  5
D0
  8
1
  6
CONTINUOUS
 62
     7
 10
541.4634811127675
 20
252.6473153072494
 30
0.0
 40
27.68757773364538
 50
347.6997835508674
 51
0.0000000000001137
  0
ARC
  5
D1
  8
1
  6
CONTINUOUS
 62
     7
 10
556.7006573728311
 20
249.3250133143864
 30
0.0
 40
12.09241082488709
 50
319.3006331506809
 51
347.6997835508706
  0
ARC
  5
D2
  8
1
  6
CONTINUOUS
 62
     7
 10
550.3986787212287
 20
254.7454489373695
 30
0.0
 40
20.40481464497165
 50
314.2145030792317
 51
319.3006331506809
  0
LINE
  5
D3
  8
1
  6
CONTINUOUS
 62
     7
 10
531.1092980179623
 20
85.49254105624311
 30
0.0
 11
564.9642316447773
 21
119.3474746830582
 31
0.0
  0
ARC
  5
D4
  8
1
  6
CONTINUOUS
 62
     7
 10
570.9791114133933
 20
252.6473153072494
 30
0.0
 40
27.17783067251822
 50
172.4728823466328
 51
180.0
  0
ARC
  5
D5
  8
1
  6
CONTINUOUS
 62
     7
 10
565.5198313246481
 20
253.3686719494045
 30
0.0
 40
21.67109892922883
 50
163.6270707526768
 51
172.4728823466303
  0
LINE
  5
D6
  8
1
  6
CONTINUOUS
 62
     7
 10
532.3393399637494
 20
35.84999999999982
 30
0.0
 11
532.3393399637494
 21
82.02157287525364
 31
0.0
  0
LINE
  5
D7
  8
1
  6
CONTINUOUS
 62
     7
 10
571.2571248635908
 20
121.3977272147524
 30
0.0
 11
585.5205808308814
 21
135.661183182043
 31
0.0
  0
ARC
  5
D8
  8
1
  6
CONTINUOUS
 62
     7
 10
506.6558789228141
 20
286.8717588673852
 30
0.0
 40
0.4990385352304152
 50
255.5231814775454
 51
345.0314178798767
  0
ARC
  5
D9
  8
1
  6
CONTINUOUS
 62
     7
 10
-12778.88685212968
 20
-83.33377756486269
 30
0.0
 40
13468.58297569191
 50
0.6515904408759071
 51
0.6657019355052398
  0
ARC
  5
DA
  8
1
  6
CONTINUOUS
 62
     7
 10
-12778.88685213034
 20
-83.33377756487198
 30
0.0
 40
13468.58297569258
 50
0.6499609795955621
 51
0.6515904408759071
  0
LINE
  5
DB
  8
1
  6
CONTINUOUS
 62
     7
 10
463.3393399637494
 20
82.02157287525364
 30
0.0
 11
463.3393399637494
 21
35.84999999999984
 31
0.0
  0
LINE
  5
DC
  8
1
  6
CONTINUOUS
 62
     7
 10
463.3393399637494
 20
35.84999999999984
 30
0.0
 11
532.3393399637494
 21
35.84999999999982
 31
0.0
  0
LINE
  5
DD
  8
1
  6
CONTINUOUS
 62
     7
 10
526.3393399637494
 20
128.3913480902756
 30
0.0
 11
526.3393399637494
 21
129.422077938642
 31
0.0
  0
ARC
  5
DE
  8
1
  6
CONTINUOUS
 62
     7
 10
14089.18148274417
 20
-83.33377756486271
 30
0.0
 40
13468.58297569191
 50
179.3342980644948
 51
179.3484095591241
  0
ARC
  5
DF
  8
1
  6
CONTINUOUS
 62
     7
 10
14089.18148274484
 20
-83.33377756487198
 30
0.0
 40
13468.58297569258
 50
179.3484095591241
 51
179.3500390204044
  0
ARC
  5
E0
  8
1
  6
CONTINUOUS
 62
     7
 10
489.0228010053255
 20
286.8717588684825
 30
0.0
 40
0.4990385361328429
 50
194.9685822228414
 51
284.4768184197194
  0
ARC
  5
E1
  8
1
  6
CONTINUOUS
 62
     7
 10
523.0703080376815
 20
227.8997468151765
 30
0.0
 40
0.4990385352305688
 50
135.523181477575
 51
225.0314178798717
  0
ARC
  5
E2
  8
1
  6
CONTINUOUS
 62
     7
 10
531.8868469973759
 20
243.1704402380834
 30
0.0
 40
0.4990385361326921
 50
74.96858222282106
 51
164.4768184197366
  0
ARC
  5
E3
  8
1
  6
CONTINUOUS
 62
     7
 10
557.4781786382064
 20
252.6473153072494
 30
0.0
 40
28.04240219267506
 50
352.4728823466334
 51
0.0
  0
ARC
  5
E4
  8
1
  6
CONTINUOUS
 62
     7
 10
563.1111274108932
 20
251.9030111231736
 30
0.0
 40
22.36049225022201
 50
343.0291881635214
 51
352.4728823466298
  0
ARC
  5
E5
  8
1
  6
CONTINUOUS
 62
     7
 10
553.0541813261918
 20
254.9721267875993
 30
0.0
 40
32.87532156468128
 50
337.0598828115023
 51
343.0291881635212
  0
ARC
  5
E6
  8
1
  6
CONTINUOUS
 62
     7
 10
571.5389401131547
 20
247.1486024285155
 30
0.0
 40
12.80310592192331
 50
321.6930462631956
 51
337.0598828115013
  0
ARC
  5
E7
  8
1
  6
CONTINUOUS
 62
     7
 10
566.4314178439995
 20
251.1832870588979
 30
0.0
 40
19.31198169248155
 50
304.8758636780444
 51
321.6930462631956
  0
ARC
  5
E8
  8
1
  6
CONTINUOUS
 62
     7
 10
572.085551988337
 20
243.0709953003539
 30
0.0
 40
9.423679993104534
 50
270.0
 51
304.8758636780459
  0
LINE
  5
E9
  8
1
  6
CONTINUOUS
 62
     7
 10
531.3393399637494
 20
34.84999999999982
 30
0.0
 11
464.3393399637494
 21
34.84999999999984
 31
0.0
  0
ARC
  5
EA
  8
1
  6
CONTINUOUS
 62
     7
 10
572.085551988337
 20
243.070995300354
 30
0.0
 40
9.423679993104644
 50
235.1241363219546
 51
270.0
  0
ARC
  5
EB
  8
1
  6
CONTINUOUS
 62
     7
 10
577.7396861326749
 20
251.1832870588981
 30
0.0
 40
19.31198169248207
 50
218.3069537368042
 51
235.124136321955
  0
ARC
  5
EC
  8
1
  6
CONTINUOUS
 62
     7
 10
572.6321638635192
 20
247.1486024285155
 30
0.0
 40
12.80310592192331
 50
202.9401171884986
 51
218.3069537368044
  0
ARC
  5
ED
  8
1
  6
CONTINUOUS
 62
     7
 10
591.1169226504808
 20
254.9721267875988
 30
0.0
 40
32.87532156467987
 50
196.9708118364787
 51
202.9401171884979
  0
ARC
  5
EE
  8
1
  6
CONTINUOUS
 62
     7
 10
581.0599765657728
 20
251.9030111231712
 30
0.0
 40
22.36049225021366
 50
187.5271176533668
 51
196.9708118364785
  0
ARC
  5
EF
  8
1
  6
CONTINUOUS
 62
     7
 10
586.6929253384532
 20
252.6473153072493
 30
0.0
 40
28.04240219266063
 50
179.9999999999998
 51
187.5271176533703
  0
ARC
  5
F0
  8
1
  6
CONTINUOUS
 62
     7
 10
586.6929253384668
 20
252.6473153072495
 30
0.0
 40
28.04240219267429
 50
172.4728823466332
 51
180.0000000000001
  0
ARC
  5
F1
  8
1
  6
CONTINUOUS
 62
     7
 10
581.0599765657801
 20
253.3916194913254
 30
0.0
 40
22.36049225022132
 50
163.0291881635213
 51
172.4728823466301
  0
ARC
  5
F2
  8
1
  6
CONTINUOUS
 62
     7
 10
591.1169226504775
 20
250.3225038269012
 30
0.0
 40
32.87532156467635
 50
157.0598828115019
 51
163.0291881635216
  0
ARC
  5
F3
  8
1
  6
CONTINUOUS
 62
     7
 10
572.6321638635194
 20
258.1460281859833
 30
0.0
 40
12.80310592192354
 50
141.6930462631959
 51
157.0598828115014
  0
ARC
  5
F4
  8
1
  6
CONTINUOUS
 62
     7
 10
577.7396861326748
 20
254.1113435556008
 30
0.0
 40
19.31198169248195
 50
124.8758636780449
 51
141.6930462631957
  0
ARC
  5
F5
  8
1
  6
CONTINUOUS
 62
     7
 10
572.085551988337
 20
262.2236353141449
 30
0.0
 40
9.42367999310456
 50
90.0
 51
124.8758636780458
  0
ARC
  5
F6
  8
1
  6
CONTINUOUS
 62
     7
 10
571.7373013020818
 20
261.0586710223917
 30
0.0
 40
7.731256772203598
 50
79.17988193274014
 51
90.00000000000001
  0
ARC
  5
F7
  8
1
  6
CONTINUOUS
 62
     7
 10
571.7373013020818
 20
261.058671022392
 30
0.0
 40
7.731256772203321
 50
90.0
 51
91.2689766489743
  0
ARC
  5
F8
  8
1
  6
CONTINUOUS
 62
     7
 10
472.6083718885466
 20
227.8997468151826
 30
0.0
 40
0.4990385361329588
 50
314.9685822228489
 51
44.47681841971377
  0
LINE
  5
F9
  8
1
  6
CONTINUOUS
 62
     7
 10
558.6505231457926
 20
162.5312408671318
 30
0.0
 11
544.3870671785024
 21
148.2677848998407
 31
0.0
  0
LINE
  5
FA
  8
1
  6
CONTINUOUS
 62
     7
 10
499.9892060184966
 20
139.8474047862594
 30
0.0
 11
495.6894739090021
 21
139.8474047862594
 31
0.0
  0
ARC
  5
FB
  8
1
  6
CONTINUOUS
 62
     7
 10
572.085551988337
 20
262.2236353141449
 30
0.0
 40
9.42367999310456
 50
55.12413632195421
 51
90.0
  0
ARC
  5
FC
  8
1
  6
CONTINUOUS
 62
     7
 10
566.4314178439992
 20
254.1113435556008
 30
0.0
 40
19.31198169248195
 50
38.30695373680436
 51
55.12413632195518
  0
ARC
  5
FD
  8
1
  6
CONTINUOUS
 62
     7
 10
571.5389401131546
 20
258.1460281859833
 30
0.0
 40
12.80310592192354
 50
22.94011718849856
 51
38.30695373680402
  0
ARC
  5
FE
  8
1
  6
CONTINUOUS
 62
     7
 10
553.0541813261939
 20
250.3225038269003
 30
0.0
 40
32.87532156467917
 50
16.97081183647861
 51
22.94011718849794
  0
ARC
  5
FF
  8
1
  6
CONTINUOUS
 62
     7
 10
563.1111274108936
 20
253.3916194913254
 30
0.0
 40
22.36049225022166
 50
7.527117653370111
 51
16.9708118364785
  0
ARC
  5
100
  8
1
  6
CONTINUOUS
 62
     7
 10
557.4781786382064
 20
252.6473153072494
 30
0.0
 40
28.04240219267506
 50
0.0
 51
7.527117653366645
  0
CIRCLE
  5
101
  8
1
  6
CONTINUOUS
 62
     7
 10
497.8393399637494
 20
252.6473153072494
 30
0.0
 40
30.49999999999997
  0
ARC
  5
102
  8
1
  6
CONTINUOUS
 62
     7
 10
571.7373013020818
 20
244.235959592107
 30
0.0
 40
7.731256772203432
 50
256.5369258184574
 51
268.7310233510258
  0
LINE
  5
103
  8
1
  6
CONTINUOUS
 62
     7
 10
531.7535535261067
 20
83.43578643761084
 30
0.0
 11
531.1081827432266
 21
84.0811572205226
 31
0.0
  0
ARC
  5
104
  8
1
  6
CONTINUOUS
 62
     7
 10
550.3986787212285
 20
250.5491816771293
 30
0.0
 40
20.40481464497184
 50
40.69936684931867
 51
45.7830833938458
  0
ARC
  5
105
  8
1
  6
CONTINUOUS
 62
     7
 10
556.700657372831
 20
255.9696173001122
 30
0.0
 40
12.09241082488735
 50
12.30021644912978
 51
40.69936684931889
  0
ARC
  5
106
  8
1
  6
CONTINUOUS
 62
     7
 10
541.4634811127675
 20
252.6473153072495
 30
0.0
 40
27.68757773364538
 50
359.9999999999998
 51
12.30021644913256
  0
ARC
  5
107
  8
1
  6
CONTINUOUS
 62
     7
 10
551.6439620188589
 20
254.3008397006918
 30
0.0
 40
16.08089126201318
 50
314.0020769985462
 51
319.3006331506807
  0
ARC
  5
108
  8
1
  6
CONTINUOUS
 62
     7
 10
556.6105071796551
 20
250.0290324158656
 30
0.0
 40
9.529944131031112
 50
319.3006331506809
 51
347.6997835508679
  0
ARC
  5
109
  8
1
  6
CONTINUOUS
 62
     7
 10
544.6021954727572
 20
252.6473153072496
 30
0.0
 40
21.82038575651124
 50
347.6997835508693
 51
359.9999999999996
  0
ARC
  5
10A
  8
1
  6
CONTINUOUS
 62
     7
 10
544.6021954727609
 20
252.6473153072496
 30
0.0
 40
21.82038575650758
 50
359.9999999999996
 51
12.30021644913182
  0
ARC
  5
10B
  8
1
  6
CONTINUOUS
 62
     7
 10
556.6105071796555
 20
255.2655981986337
 30
0.0
 40
9.529944131030607
 50
12.30021644913027
 51
40.69936684931874
  0
ARC
  5
10C
  8
1
  6
CONTINUOUS
 62
     7
 10
551.6439620188604
 20
250.9937909138085
 30
0.0
 40
16.08089126201117
 50
40.69936684931892
 51
45.99422387214674
  0
ARC
  5
10D
  8
1
  6
CONTINUOUS
 62
     7
 10
544.4267502274486
 20
252.6473153072494
 30
0.0
 40
22.70905429258252
 50
347.6997835508689
 51
0.0000000000001137
  0
ARC
  5
10E
  8
1
  6
CONTINUOUS
 62
     7
 10
556.9241187688282
 20
249.9223988462264
 30
0.0
 40
9.918065660791045
 50
319.3006331506813
 51
347.69978355087
  0
ARC
  5
10F
  8
1
  6
CONTINUOUS
 62
     7
 10
551.7553034709867
 20
254.3681820070302
 30
0.0
 40
16.73581011890076
 50
312.9847314123593
 51
319.3006331506813
  0
ARC
  5
110
  8
1
  6
CONTINUOUS
 62
     7
 10
496.2889813539114
 20
137.6575392611151
 30
0.0
 40
0.5478956597928201
 50
256.4277491687947
 51
267.3329685158351
  0
ARC
  5
111
  8
1
  6
CONTINUOUS
 62
     7
 10
496.2889813539114
 20
137.6575392611151
 30
0.0
 40
0.5478956597927931
 50
236.1167054534614
 51
256.427749168794
  0
ARC
  5
112
  8
1
  6
CONTINUOUS
 62
     7
 10
496.2434713729133
 20
137.5897705909753
 30
0.0
 40
0.4662638582509819
 50
212.2012162405819
 51
236.1167054534275
  0
ARC
  5
113
  8
1
  6
CONTINUOUS
 62
     7
 10
496.2786590398352
 20
137.6119304906115
 30
0.0
 40
0.5078479063379143
 50
191.2379215058893
 51
212.2012162405817
  0
ARC
  5
114
  8
1
  6
CONTINUOUS
 62
     7
 10
496.2023699966374
 20
137.5967723744978
 30
0.0
 40
0.4300675322313308
 50
182.1850610026705
 51
191.2379215058615
  0
LINE
  5
115
  8
1
  6
CONTINUOUS
 62
     9
 10
614.8473153072481
 20
173.3657274012161
 30
0.0
 11
614.8542948198237
 21
173.3657274012161
 31
0.0
  0
LINE
  5
116
  8
1
  6
CONTINUOUS
 62
     7
 10
616.2782183241095
 20
189.8499999999999
 30
0.0
 11
615.2694917886113
 21
188.8500380769358
 31
0.0
  0
LINE
  5
117
  8
1
  6
CONTINUOUS
 62
     7
 10
689.6473153072482
 20
62.82643745696478
 30
0.0
 11
687.4429520394847
 21
62.84567464376536
 31
0.0
  0
LINE
  5
118
  8
1
  6
CONTINUOUS
 62
     7
 10
695.025138825885
 20
188.8500380769358
 30
0.0
 11
694.0164122903867
 21
189.8499999999999
 31
0.0
  0
LINE
  5
119
  8
1
  6
CONTINUOUS
 62
     7
 10
620.6473153072482
 20
35.84999999999983
 30
0.0
 11
621.6473153072482
 21
34.84999999999983
 31
0.0
  0
LINE
  5
11A
  8
1
  6
CONTINUOUS
 62
     7
 10
688.647315307248
 20
34.84999999999983
 30
0.0
 11
689.647315307248
 21
35.84999999999983
 31
0.0
  0
ARC
  5
11B
  8
1
  6
CONTINUOUS
 62
     7
 10
499.476309930862
 20
137.5967723744979
 30
0.0
 40
0.4300675322306506
 50
348.7620784941017
 51
357.8149389973039
  0
ARC
  5
11C
  8
1
  6
CONTINUOUS
 62
     7
 10
499.400020887664
 20
137.6119304906112
 30
0.0
 40
0.5078479063372523
 50
327.7987837594194
 51
348.7620784941341
  0
ARC
  5
11D
  8
1
  6
CONTINUOUS
 62
     7
 10
499.4352085545859
 20
137.5897705909749
 30
0.0
 40
0.4662638582503051
 50
303.8832945465444
 51
327.7987837594221
  0
ARC
  5
11E
  8
1
  6
CONTINUOUS
 62
     7
 10
499.3896985735875
 20
137.6575392611146
 30
0.0
 40
0.5478956597922005
 50
283.5722508312091
 51
303.8832945465598
  0
ARC
  5
11F
  8
1
  6
CONTINUOUS
 62
     7
 10
499.3896985735876
 20
137.6575392611143
 30
0.0
 40
0.5478956597919046
 50
272.667031484146
 51
283.5722508312047
  0
ARC
  5
120
  8
1
  6
CONTINUOUS
 62
     7
 10
521.3902324118461
 20
91.74072628138804
 30
0.0
 40
0.9713510865679086
 50
301.8958282543309
 51
309.3718867065058
  0
ARC
  5
121
  8
1
  6
CONTINUOUS
 62
     7
 10
522.5139002587607
 20
90.37138132688153
 30
0.0
 40
0.800014215853416
 50
103.4343320572924
 51
129.3718867065098
  0
ARC
  5
122
  8
1
  6
CONTINUOUS
 62
     7
 10
526.0976965490464
 20
75.36806300730561
 30
0.0
 40
16.2254204163004
 50
102.8700967084128
 51
103.4343320572972
  0
LINE
  5
123
  8
1
  6
CONTINUOUS
 62
     7
 10
695.1473153072482
 20
174.8499999999998
 30
0.0
 11
695.0251388258852
 21
188.8500380769358
 31
0.0
  0
ARC
  5
124
  8
1
  6
CONTINUOUS
 62
     7
 10
565.5198313246481
 20
251.9259586650943
 30
0.0
 40
21.67109892922882
 50
187.5271176533695
 51
196.396284936332
  0
ARC
  5
125
  8
1
  6
CONTINUOUS
 62
     7
 10
570.9791114133933
 20
252.6473153072494
 30
0.0
 40
27.17783067251822
 50
180.0
 51
187.5271176533671
  0
LINE
  5
126
  8
1
  6
CONTINUOUS
 62
     7
 10
622.8516785750115
 20
62.84567464376536
 30
0.0
 11
620.647315307248
 21
62.82643745696478
 31
0.0
  0
ARC
  5
127
  8
1
  6
CONTINUOUS
 62
     7
 10
551.7553034709869
 20
250.9264486074689
 30
0.0
 40
16.73581011890053
 50
40.69936684931832
 51
47.01273472331121
  0
ARC
  5
128
  8
1
  6
CONTINUOUS
 62
     7
 10
556.9241187688282
 20
255.3722317682725
 30
0.0
 40
9.918065660791063
 50
12.30021644913018
 51
40.69936684931884
  0
ARC
  5
129
  8
1
  6
CONTINUOUS
 62
     7
 10
544.4267502274486
 20
252.6473153072495
 30
0.0
 40
22.70905429258252
 50
359.9999999999998
 51
12.30021644913108
  0
ARC
  5
12A
  8
1
  6
CONTINUOUS
 62
     7
 10
622.8473153072481
 20
63.34565560529732
 30
0.0
 40
0.4999999999999997
 50
270.4999999999998
 51
277.5584409704152
  0
ARC
  5
12B
  8
1
  6
CONTINUOUS
 62
     7
 10
687.4473153072481
 20
63.34565560529732
 30
0.0
 40
0.5000000000000018
 50
262.4415590295848
 51
269.5000000000003
  0
LINE
  5
12C
  8
1
  6
CONTINUOUS
 62
     7
 10
689.0615288696213
 20
83.43578643762672
 30
0.0
 11
685.1117814013153
 21
87.38553390593255
 31
0.0
  0
LINE
  5
12D
  8
1
  6
CONTINUOUS
 62
     7
 10
693.4446973465873
 20
172.8525952137405
 30
0.0
 11
694.651678574997
 21
172.8631283793468
 31
0.0
  0
LINE
  5
12E
  8
1
  6
CONTINUOUS
 62
     7
 10
620.6473153072482
 20
82.02157287525364
 30
0.0
 11
620.6473153072482
 21
73.14999999999984
 31
0.0
  0
ARC
  5
12F
  8
1
  6
CONTINUOUS
 62
     7
 10
658.4842257359711
 20
137.7126462297901
 30
0.0
 40
16.35114282365492
 50
282.3157031680281
 51
337.7197200803147
  0
ARC
  5
130
  8
1
  6
CONTINUOUS
 62
     7
 10
663.4303882779981
 20
134.8509020998143
 30
0.0
 40
10.7171642231837
 50
341.8548846001306
 51
359.1407242488316
  0
LINE
  5
131
  8
1
  6
CONTINUOUS
 62
     7
 10
674.146347294315
 20
134.6901807654986
 30
0.0
 11
674.1473152979846
 21
134.8323149989606
 31
0.0
  0
LINE
  5
132
  8
1
  6
CONTINUOUS
 62
     7
 10
671.1473153072482
 20
98.95932397121037
 30
0.0
 11
671.1473153072482
 21
127.2421143832317
 31
0.0
  0
LINE
  5
133
  8
1
  6
CONTINUOUS
 62
     7
 10
625.1828492131809
 20
87.38553390593255
 30
0.0
 11
621.233101744875
 21
83.43578643762672
 31
0.0
  0
ARC
  5
134
  8
1
  6
CONTINUOUS
 62
     7
 10
693.4473153072481
 20
172.5526066368213
 30
0.0
 40
0.299999999999967
 50
90.50000000000045
 51
180.0
  0
ARC
  5
135
  8
1
  6
CONTINUOUS
 62
     7
 10
621.6473153072482
 20
90.92106781186529
 30
0.0
 40
5.000000000000004
 50
315.0
 51
0.0
  0
LINE
  5
136
  8
1
  6
CONTINUOUS
 62
     7
 10
624.0197707402058
 20
134.1206903175498
 30
0.0
 11
625.1828492131809
 21
132.9576118445747
 31
0.0
  0
LINE
  5
137
  8
1
  6
CONTINUOUS
 62
     7
 10
693.1473153072482
 20
140.1473933631783
 30
0.0
 11
693.1473153072482
 21
172.5526066368213
 31
0.0
  0
ARC
  5
138
  8
1
  6
CONTINUOUS
 62
     7
 10
654.3474527925906
 20
155.5359553595638
 30
0.0
 40
18.07906371942258
 50
222.0270540345113
 51
272.5357347600974
  0
ARC
  5
139
  8
1
  6
CONTINUOUS
 62
     7
 10
648.1928782406013
 20
149.132866406066
 30
0.0
 40
9.24242966603822
 50
193.4118222775619
 51
218.0810789181648
  0
ARC
  5
13A
  8
1
  6
CONTINUOUS
 62
     7
 10
692.5473153072481
 20
175.3456556052973
 30
0.0
 40
0.5000000000000018
 50
262.4415590295897
 51
269.4999999999995
  0
LINE
  5
13B
  8
1
  6
CONTINUOUS
 62
     7
 10
685.1117814013153
 20
132.9576118445747
 30
0.0
 11
686.2748598742904
 21
134.1206903175498
 31
0.0
  0
ARC
  5
13C
  8
1
  6
CONTINUOUS
 62
     7
 10
687.647315307248
 20
82.02157287525364
 30
0.0
 40
2.000000000000002
 50
0.0
 51
44.99999999999996
  0
LINE
  5
13D
  8
1
  6
CONTINUOUS
 62
     7
 10
683.647315307248
 20
90.92106781186529
 30
0.0
 11
683.647315307248
 21
129.422077938642
 31
0.0
  0
ARC
  5
13E
  8
1
  6
CONTINUOUS
 62
     7
 10
645.5709953003528
 20
134.8327560572967
 30
0.0
 40
9.423679993104672
 50
179.9999999999998
 51
214.8758636780451
  0
ARC
  5
13F
  8
1
  6
CONTINUOUS
 62
     7
 10
653.6832870588977
 20
140.4868902016356
 30
0.0
 40
19.3119816924833
 50
214.8758636780459
 51
231.6930462631954
  0
ARC
  5
140
  8
1
  6
CONTINUOUS
 62
     7
 10
649.6486024285143
 20
135.3793679324792
 30
0.0
 40
12.80310592192345
 50
231.6930462631957
 51
247.059882811501
  0
ARC
  5
141
  8
1
  6
CONTINUOUS
 62
     7
 10
657.4721267875988
 20
153.8641267194446
 30
0.0
 40
32.87532156468403
 50
247.0598828115027
 51
253.0291881635209
  0
ARC
  5
142
  8
1
  6
CONTINUOUS
 62
     7
 10
654.4030111231714
 20
143.8071806347378
 30
0.0
 40
22.36049225021911
 50
253.0291881635215
 51
262.472882346631
  0
ARC
  5
143
  8
1
  6
CONTINUOUS
 62
     7
 10
655.147315307248
 20
149.4401294074203
 30
0.0
 40
28.04240219266796
 50
262.4728823466316
 51
270.0000000000002
  0
ARC
  5
144
  8
1
  6
CONTINUOUS
 62
     7
 10
655.1473153072482
 20
149.4401294074195
 30
0.0
 40
28.04240219266718
 50
270.0
 51
277.5271176533688
  0
ARC
  5
145
  8
1
  6
CONTINUOUS
 62
     7
 10
655.8916194913251
 20
143.8071806347371
 30
0.0
 40
22.36049225021831
 50
277.5271176533687
 51
286.9708118364786
  0
ARC
  5
146
  8
1
  6
CONTINUOUS
 62
     7
 10
652.8225038268961
 20
153.8641267194484
 30
0.0
 40
32.87532156468814
 50
286.9708118364791
 51
292.9401171884969
  0
ARC
  5
147
  8
1
  6
CONTINUOUS
 62
     7
 10
660.6460281859818
 20
135.3793679324792
 30
0.0
 40
12.80310592192357
 50
292.9401171884994
 51
308.3069537368046
  0
ARC
  5
148
  8
1
  6
CONTINUOUS
 62
     7
 10
656.6113435555986
 20
140.4868902016356
 30
0.0
 40
19.31198169248319
 50
308.3069537368043
 51
325.124136321954
  0
ARC
  5
149
  8
1
  6
CONTINUOUS
 62
     7
 10
664.7236353141435
 20
134.8327560572967
 30
0.0
 40
9.423679993104672
 50
325.1241363219548
 51
0.0000000000001137
  0
ARC
  5
14A
  8
1
  6
CONTINUOUS
 62
     7
 10
663.5586710223903
 20
148.7479613383323
 30
0.0
 40
7.731256772203765
 50
10.81941548526799
 51
36.07207023430295
  0
ARC
  5
14B
  8
1
  6
CONTINUOUS
 62
     7
 10
653.0104472859435
 20
141.0639376098964
 30
0.0
 40
20.78151518548065
 50
36.07207023430293
 51
49.30063315068111
  0
ARC
  5
14C
  8
1
  6
CONTINUOUS
 62
     7
 10
658.5309514988389
 20
147.4822593307993
 30
0.0
 40
12.31565312201597
 50
49.30063315068109
 51
77.69978355086874
  0
ARC
  5
14D
  8
1
  6
CONTINUOUS
 62
     7
 10
655.1473153072482
 20
131.9637841404121
 30
0.0
 40
28.19872795378919
 50
77.6997835508687
 51
89.99999999999999
  0
ARC
  5
14E
  8
1
  6
CONTINUOUS
 62
     7
 10
655.1473153072482
 20
131.9637841404121
 30
0.0
 40
28.19872795378919
 50
90.0
 51
102.3002164491313
  0
ARC
  5
14F
  8
1
  6
CONTINUOUS
 62
     7
 10
651.7636791156572
 20
147.4822593307994
 30
0.0
 40
12.31565312201583
 50
102.3002164491309
 51
130.6993668493188
  0
ARC
  5
150
  8
1
  6
CONTINUOUS
 62
     7
 10
657.2841833285528
 20
141.0639376098963
 30
0.0
 40
20.78151518548079
 50
130.6993668493189
 51
143.9279297656971
  0
ARC
  5
151
  8
1
  6
CONTINUOUS
 62
     7
 10
646.7359595921059
 20
148.7479613383323
 30
0.0
 40
7.731256772203765
 50
143.9279297656971
 51
169.188605611424
  0
LINE
  5
152
  8
1
  6
CONTINUOUS
 62
     7
 10
695.147315307248
 20
174.8229467098485
 30
0.0
 11
692.54295203948
 21
174.8456746437654
 31
0.0
  0
ARC
  5
153
  8
1
  6
CONTINUOUS
 62
     7
 10
617.7473153072481
 20
175.3456556052973
 30
0.0
 40
0.4999999999999997
 50
270.5000000000006
 51
277.5584409704104
  0
ARC
  5
154
  8
1
  6
CONTINUOUS
 62
     7
 10
616.8473153072481
 20
172.5526066368213
 30
0.0
 40
0.2999999999999841
 50
0.0
 51
89.49999999999955
  0
ARC
  5
155
  8
1
  6
CONTINUOUS
 62
     7
 10
653.0293255229006
 20
138.277322128038
 30
0.0
 40
20.59792014634223
 50
310.6993668493187
 51
322.1747242222311
  0
ARC
  5
156
  8
1
  6
CONTINUOUS
 62
     7
 10
658.5010586438915
 20
131.9157032999238
 30
0.0
 40
12.20685004405103
 50
282.3002164491313
 51
310.6993668493187
  0
ARC
  5
157
  8
1
  6
CONTINUOUS
 62
     7
 10
655.1473153072482
 20
147.2970799662374
 30
0.0
 40
27.94960528317923
 50
270.0
 51
282.3002164491309
  0
ARC
  5
158
  8
1
  6
CONTINUOUS
 62
     7
 10
655.1473153072482
 20
147.2970799662374
 30
0.0
 40
27.94960528317923
 50
257.6997835508691
 51
270.0
  0
ARC
  5
159
  8
1
  6
CONTINUOUS
 62
     7
 10
651.7935719706047
 20
131.9157032999238
 30
0.0
 40
12.20685004405103
 50
229.3006331506813
 51
257.6997835508687
  0
ARC
  5
15A
  8
1
  6
CONTINUOUS
 62
     7
 10
657.2653050915956
 20
138.277322128038
 30
0.0
 40
20.59792014634223
 50
217.8211981847264
 51
229.3006331506813
  0
ARC
  5
15B
  8
1
  6
CONTINUOUS
 62
     7
 10
694.647315307248
 20
173.3631093408789
 30
0.0
 40
0.5000000000000018
 50
270.4999999999997
 51
0.0
  0
ARC
  5
15C
  8
1
  6
CONTINUOUS
 62
     7
 10
649.4427921668492
 20
135.655389129587
 30
0.0
 40
13.36030131189422
 50
186.6457684636302
 51
245.9947087785112
  0
ARC
  5
15D
  8
1
  6
CONTINUOUS
 62
     7
 10
654.2104504168791
 20
142.8622463071506
 30
0.0
 40
21.92964873101175
 50
242.2731827576277
 51
254.4673102434234
  0
ARC
  5
15E
  8
1
  6
CONTINUOUS
 62
     7
 10
621.6473153072482
 20
129.422077938642
 30
0.0
 40
5.000000000000021
 50
0.0
 51
44.99999999999983
  0
LINE
  5
15F
  8
1
  6
CONTINUOUS
 62
     7
 10
639.147315307248
 20
127.242869721839
 30
0.0
 11
639.147315307248
 21
98.96299483057557
 31
0.0
  0
ARC
  5
160
  8
1
  6
CONTINUOUS
 62
     7
 10
659.4243344562894
 20
150.5971094682329
 30
0.0
 40
12.21269290656102
 50
288.0641707749298
 51
342.8297960463469
  0
ARC
  5
161
  8
1
  6
CONTINUOUS
 62
     7
 10
655.2591139328667
 20
159.1409233452704
 30
0.0
 40
21.66661752917518
 50
269.7043554297343
 51
291.5321617271727
  0
LINE
  5
162
  8
1
  6
CONTINUOUS
 62
     7
 10
617.147315307248
 20
172.5526066368213
 30
0.0
 11
617.147315307248
 21
140.1473933631783
 31
0.0
  0
ARC
  5
163
  8
1
  6
CONTINUOUS
 62
     7
 10
688.647315307248
 20
90.92106781186529
 30
0.0
 40
5.000000000000012
 50
180.0
 51
225.0
  0
ARC
  5
164
  8
1
  6
CONTINUOUS
 62
     7
 10
622.6473153072482
 20
82.02157287525364
 30
0.0
 40
2.000000000000032
 50
135.0000000000001
 51
180.0
  0
LINE
  5
165
  8
1
  6
CONTINUOUS
 62
     7
 10
689.647315307248
 20
73.14999999999982
 30
0.0
 11
689.647315307248
 21
82.02157287525364
 31
0.0
  0
ARC
  5
166
  8
1
  6
CONTINUOUS
 62
     7
 10
688.647315307248
 20
129.422077938642
 30
0.0
 40
5.000000000000004
 50
135.0000000000002
 51
180.0
  0
LINE
  5
167
  8
1
  6
CONTINUOUS
 62
     7
 10
695.1473153072482
 20
173.3631093408789
 30
0.0
 11
695.1473153072482
 21
174.8229467098485
 31
0.0
  0
LINE
  5
168
  8
1
  6
CONTINUOUS
 62
     7
 10
524.61650661189
 20
225.647801282401
 30
0.0
 11
522.7176280549835
 21
227.5466798393076
 31
0.0
  0
LINE
  5
169
  8
1
  6
CONTINUOUS
 62
     7
 10
461.068491604326
 20
242.9573657610144
 30
0.0
 11
463.662407951762
 21
243.6524035515438
 31
0.0
  0
ARC
  5
16A
  8
1
  6
CONTINUOUS
 62
     7
 10
693.4473153072481
 20
140.1473933631783
 30
0.0
 40
0.3000000000000118
 50
180.0
 51
269.4999999999995
  0
ARC
  5
16B
  8
1
  6
CONTINUOUS
 62
     7
 10
497.8393399637494
 20
252.6473153072494
 30
0.0
 40
34.84277666215089
 50
315.554599357438
 51
344.4454006425622
  0
ARC
  5
16C
  8
1
  6
CONTINUOUS
 62
     7
 10
497.8393399637494
 20
252.6473153072494
 30
0.0
 40
38.02618060337225
 50
74.76310375580964
 51
105.2368962441903
  0
CIRCLE
  5
16D
  8
1
  6
CONTINUOUS
 62
     7
 10
497.8393399637494
 20
252.6473153072494
 30
0.0
 40
38.86909698313868
  0
ARC
  5
16E
  8
1
  6
CONTINUOUS
 62
     7
 10
497.8393399637494
 20
252.6473153072494
 30
0.0
 40
38.02618060337227
 50
314.7631037558097
 51
345.2368962441903
  0
ARC
  5
16F
  8
1
  6
CONTINUOUS
 62
     7
 10
616.8473153072481
 20
140.1473933631783
 30
0.0
 40
0.299999999999967
 50
270.5000000000005
 51
0.0
  0
LINE
  5
170
  8
1
  6
CONTINUOUS
 62
     7
 10
507.8330216750321
 20
289.3367788783328
 30
0.0
 11
507.1379838845027
 21
286.7428625308968
 31
0.0
  0
LINE
  5
171
  8
1
  6
CONTINUOUS
 62
     7
 10
488.5406960429961
 20
286.7428625308968
 30
0.0
 11
487.8456582524667
 21
289.3367788783328
 31
0.0
  0
LINE
  5
172
  8
1
  6
CONTINUOUS
 62
     7
 10
532.0162719757368
 20
243.6524035515438
 30
0.0
 11
534.6101883231728
 21
242.9573657610145
 31
0.0
  0
LINE
  5
173
  8
1
  6
CONTINUOUS
 62
     7
 10
695.1473153072482
 20
138.0502075382095
 30
0.0
 11
695.1473153072482
 21
139.8325462644183
 31
0.0
  0
LINE
  5
174
  8
1
  6
CONTINUOUS
 62
     7
 10
686.2748598742904
 20
134.1206903175498
 30
0.0
 11
694.4893354505738
 21
137.1105149174236
 31
0.0
  0
ARC
  5
175
  8
1
  6
CONTINUOUS
 62
     7
 10
616.147315307248
 20
138.0502075382095
 30
0.0
 40
1.000000000000001
 50
180.0
 51
250.0000000000003
  0
ARC
  5
176
  8
1
  6
CONTINUOUS
 62
     7
 10
694.1473153072482
 20
138.0502075382095
 30
0.0
 40
0.9999999999999918
 50
289.9999999999997
 51
0.0
  0
LINE
  5
177
  8
1
  6
CONTINUOUS
 62
     7
 10
615.147315307248
 20
139.8325462644183
 30
0.0
 11
615.147315307248
 21
138.0502075382095
 31
0.0
  0
LINE
  5
178
  8
1
  6
CONTINUOUS
 62
     7
 10
615.8052951639224
 20
137.1105149174236
 30
0.0
 11
624.0197707402058
 21
134.1206903175498
 31
0.0
  0
ARC
  5
179
  8
1
  6
CONTINUOUS
 62
     7
 10
497.8393399637494
 20
252.6473153072494
 30
0.0
 40
34.8427766621509
 50
75.55459935743784
 51
104.4454006425622
  0
ARC
  5
17A
  8
1
  6
CONTINUOUS
 62
     7
 10
-64455.48316018518
 20
3393.246133715465
 30
0.0
 40
65045.76707898489
 50
357.070947519342
 51
357.0742109345988
  0
POLYLINE
  5
17B
  8
1
  6
CONTINUOUS
 62
     7
 66
     1
 10
0.0
 20
0.0
 30
0.0
  0
VERTEX
  5
22E
  8
1
  6
CONTINUOUS
 62
     7
 10
459.9016966292679
 20
140.1473933631783
 30
0.0
  0
VERTEX
  5
22F
  8
1
  6
CONTINUOUS
 62
     7
 10
459.8287720105523
 20
139.951903354891
 30
0.0
  0
VERTEX
  5
230
  8
1
  6
CONTINUOUS
 62
     7
 10
459.6425438754139
 20
139.8504316944608
 30
0.0
  0
VERTEX
  5
231
  8
1
  6
CONTINUOUS
 62
     7
 10
459.6023480970422
 20
139.8474047862591
 30
0.0
  0
SEQEND
  5
232
  8
1
  6
CONTINUOUS
 62
     7
  0
ARC
  5
17C
  8
1
  6
CONTINUOUS
 62
     7
 10
497.8393399637494
 20
252.6473153072494
 30
0.0
 40
38.02618060337229
 50
194.7631037558097
 51
225.2368962441903
  0
ARC
  5
17D
  8
1
  6
CONTINUOUS
 62
     7
 10
664.7236353141435
 20
149.0962120245873
 30
0.0
 40
9.423679993104672
 50
325.1241363219548
 51
0.0000000000001705
  0
ARC
  5
17E
  8
1
  6
CONTINUOUS
 62
     7
 10
656.6113435555985
 20
154.7503461689262
 30
0.0
 40
19.3119816924833
 50
308.3069537368046
 51
325.124136321954
  0
ARC
  5
17F
  8
1
  6
CONTINUOUS
 62
     7
 10
660.6460281859822
 20
149.6428238997694
 30
0.0
 40
12.80310592192296
 50
292.9401171884983
 51
308.3069537368042
  0
ARC
  5
180
  8
1
  6
CONTINUOUS
 62
     7
 10
652.8225038268977
 20
168.1275826867341
 30
0.0
 40
32.87532156468298
 50
286.970811836479
 51
292.9401171884977
  0
ARC
  5
181
  8
1
  6
CONTINUOUS
 62
     7
 10
655.8916194913248
 20
158.0706366020284
 30
0.0
 40
22.36049225021909
 50
277.5271176533689
 51
286.9708118364786
  0
ARC
  5
182
  8
1
  6
CONTINUOUS
 62
     7
 10
655.1473153072483
 20
163.7035853747109
 30
0.0
 40
28.04240219266796
 50
269.9999999999998
 51
277.5271176533683
  0
ARC
  5
183
  8
1
  6
CONTINUOUS
 62
     7
 10
645.5709953003528
 20
149.0962120245874
 30
0.0
 40
9.423679993104672
 50
145.1241363219549
 51
180.0000000000002
  0
ARC
  5
184
  8
1
  6
CONTINUOUS
 62
     7
 10
653.6832870588977
 20
143.4420778802485
 30
0.0
 40
19.3119816924833
 50
128.3069537368045
 51
145.1241363219541
  0
ARC
  5
185
  8
1
  6
CONTINUOUS
 62
     7
 10
649.648602428514
 20
148.5496001494053
 30
0.0
 40
12.80310592192296
 50
112.9401171884983
 51
128.3069537368042
  0
ARC
  5
186
  8
1
  6
CONTINUOUS
 62
     7
 10
657.4721267875985
 20
130.0648413624406
 30
0.0
 40
32.87532156468298
 50
106.970811836479
 51
112.9401171884977
  0
ARC
  5
187
  8
1
  6
CONTINUOUS
 62
     7
 10
654.4030111231714
 20
140.1217874471463
 30
0.0
 40
22.36049225021909
 50
97.52711765336892
 51
106.9708118364786
  0
ARC
  5
188
  8
1
  6
CONTINUOUS
 62
     7
 10
655.147315307248
 20
134.4888386744638
 30
0.0
 40
28.04240219266796
 50
89.99999999999977
 51
97.52711765336836
  0
ARC
  5
189
  8
1
  6
CONTINUOUS
 62
     7
 10
655.1473153072483
 20
134.4888386744638
 30
0.0
 40
28.04240219266796
 50
82.47288234663165
 51
90.00000000000021
  0
ARC
  5
18A
  8
1
  6
CONTINUOUS
 62
     7
 10
655.8916194913248
 20
140.1217874471463
 30
0.0
 40
22.36049225021909
 50
73.02918816352138
 51
82.47288234663101
  0
ARC
  5
18B
  8
1
  6
CONTINUOUS
 62
     7
 10
652.8225038268961
 20
130.0648413624357
 30
0.0
 40
32.87532156468814
 50
67.05988281150314
 51
73.02918816352087
  0
ARC
  5
18C
  8
1
  6
CONTINUOUS
 62
     7
 10
660.6460281859818
 20
148.5496001494049
 30
0.0
 40
12.80310592192357
 50
51.69304626319536
 51
67.05988281150064
  0
ARC
  5
18D
  8
1
  6
CONTINUOUS
 62
     7
 10
656.6113435555986
 20
143.4420778802485
 30
0.0
 40
19.31198169248319
 50
34.87586367804601
 51
51.69304626319564
  0
ARC
  5
18E
  8
1
  6
CONTINUOUS
 62
     7
 10
664.7236353141435
 20
149.0962120245874
 30
0.0
 40
9.423679993104672
 50
359.9999999999998
 51
34.87586367804511
  0
ARC
  5
18F
  8
1
  6
CONTINUOUS
 62
     7
 10
655.147315307248
 20
163.7035853747109
 30
0.0
 40
28.04240219266796
 50
262.4728823466316
 51
270.0000000000002
  0
ARC
  5
190
  8
1
  6
CONTINUOUS
 62
     7
 10
654.4030111231714
 20
158.0706366020284
 30
0.0
 40
22.36049225021909
 50
253.0291881635215
 51
262.472882346631
  0
ARC
  5
191
  8
1
  6
CONTINUOUS
 62
     7
 10
657.4721267876001
 20
168.127582686739
 30
0.0
 40
32.87532156468814
 50
247.0598828115031
 51
253.0291881635207
  0
ARC
  5
192
  8
1
  6
CONTINUOUS
 62
     7
 10
649.6486024285144
 20
149.6428238997698
 30
0.0
 40
12.80310592192357
 50
231.6930462631954
 51
247.0598828115006
  0
ARC
  5
193
  8
1
  6
CONTINUOUS
 62
     7
 10
653.6832870588976
 20
154.7503461689262
 30
0.0
 40
19.31198169248319
 50
214.875863678046
 51
231.6930462631956
  0
ARC
  5
194
  8
1
  6
CONTINUOUS
 62
     7
 10
645.5709953003528
 20
149.0962120245873
 30
0.0
 40
9.423679993104672
 50
179.9999999999999
 51
214.8758636780451
  0
CIRCLE
  5
195
  8
1
  6
CONTINUOUS
 62
     7
 10
497.8393399637494
 20
252.6473153072494
 30
0.0
 40
39.877823518637
  0
LINE
  5
196
  8
1
  6
CONTINUOUS
 62
     7
 10
472.9610518725154
 20
227.5466798393076
 30
0.0
 11
471.0621733156087
 21
225.647801282401
 31
0.0
  0
ARC
  5
197
  8
1
  6
CONTINUOUS
 62
     7
 10
495.73841420323
 20
134.7262718580557
 30
0.0
 40
0.6390465777524597
 50
163.2563317427459
 51
251.3756672534665
  0
ARC
  5
198
  8
1
  6
CONTINUOUS
 62
     7
 10
497.8393399637494
 20
252.6473153072494
 30
0.0
 40
34.84277666215085
 50
195.5545993574378
 51
224.4454006425622
  0
ARC
  5
199
  8
1
  6
CONTINUOUS
 62
     7
 10
499.9027367370885
 20
134.7456552861869
 30
0.0
 40
0.6700444196005513
 50
291.1368676020336
 51
14.23113340243032
  0
ARC
  5
19A
  8
1
  6
CONTINUOUS
 62
     7
 10
65451.16184006802
 20
3393.246133713195
 30
0.0
 40
65045.76707894017
 50
182.9257890654013
 51
182.9290524806579
  0
ARC
  5
19B
  8
1
  6
CONTINUOUS
 62
     7
 10
646.7359595921059
 20
148.7479613383323
 30
0.0
 40
7.731256772203765
 50
169.1886056114242
 51
180.0
  0
ARC
  5
19C
  8
1
  6
CONTINUOUS
 62
     7
 10
646.7359595921059
 20
148.7479613383323
 30
0.0
 40
7.731256772203765
 50
180.0
 51
181.2689766489744
  0
ARC
  5
19D
  8
1
  6
CONTINUOUS
 62
     7
 10
655.8686719494035
 20
142.5304913608974
 30
0.0
 40
21.6710989292277
 50
277.5271176533693
 51
286.3063985284597
  0
ARC
  5
19E
  8
1
  6
CONTINUOUS
 62
     7
 10
655.1473153072482
 20
147.9897714496375
 30
0.0
 40
27.17783067251203
 50
270.0
 51
277.5271176533688
  0
ARC
  5
19F
  8
1
  6
CONTINUOUS
 62
     7
 10
646.7359595921059
 20
148.7479613383323
 30
0.0
 40
7.731256772203765
 50
181.268976648974
 51
193.4984332284837
  0
ARC
  5
1A0
  8
1
  6
CONTINUOUS
 62
     7
 10
663.5586710223903
 20
148.7479613383323
 30
0.0
 40
7.731256772203765
 50
346.5301033175648
 51
358.7310233510258
  0
ARC
  5
1A1
  8
1
  6
CONTINUOUS
 62
     7
 10
657.2454489373654
 20
127.4093387574822
 30
0.0
 40
20.4048146449674
 50
130.699366849319
 51
135.7843786341911
  0
ARC
  5
1A2
  8
1
  6
CONTINUOUS
 62
     7
 10
651.8250133143855
 20
133.711317409081
 30
0.0
 40
12.09241082488768
 50
102.3002164491302
 51
130.6993668493189
  0
ARC
  5
1A3
  8
1
  6
CONTINUOUS
 62
     7
 10
655.1473153072482
 20
118.4741411490151
 30
0.0
 40
27.68757773364805
 50
90.0
 51
102.3002164491315
  0
ARC
  5
1A4
  8
1
  6
CONTINUOUS
 62
     7
 10
655.1473153072482
 20
118.4741411490151
 30
0.0
 40
27.68757773364805
 50
77.69978355086852
 51
90.0
  0
ARC
  5
1A5
  8
1
  6
CONTINUOUS
 62
     7
 10
658.4696173001107
 20
133.711317409081
 30
0.0
 40
12.09241082488768
 50
49.30063315068106
 51
77.69978355086982
  0
ARC
  5
1A6
  8
1
  6
CONTINUOUS
 62
     7
 10
653.0491816771308
 20
127.4093387574822
 30
0.0
 40
20.4048146449674
 50
44.21678860788722
 51
49.30063315068106
  0
ARC
  5
1A7
  8
1
  6
CONTINUOUS
 62
     7
 10
663.5586710223903
 20
148.7479613383323
 30
0.0
 40
7.731256772203765
 50
358.731023351026
 51
0.0
  0
ARC
  5
1A8
  8
1
  6
CONTINUOUS
 62
     7
 10
663.5586710223903
 20
148.7479613383323
 30
0.0
 40
7.731256772203765
 50
0.0
 51
10.819415485268
  0
ARC
  5
1A9
  8
1
  6
CONTINUOUS
 62
     7
 10
655.1473153072482
 20
147.9897714496375
 30
0.0
 40
27.17783067251203
 50
262.4728823466312
 51
270.0
  0
ARC
  5
1AA
  8
1
  6
CONTINUOUS
 62
     7
 10
654.4259586650927
 20
142.5304913608974
 30
0.0
 40
21.6710989292277
 50
253.7352246739121
 51
262.4728823466307
  0
LINE
  5
1AB
  8
1
  6
CONTINUOUS
 62
     7
 10
636.147315307248
 20
149.0962123229271
 30
0.0
 11
636.147315307248
 21
134.8327560572968
 31
0.0
  0
LINE
  5
1AC
  8
1
  6
CONTINUOUS
 62
     9
 10
615.6500721478794
 20
172.8525952137405
 30
0.0
 11
694.6516785749973
 21
172.8525952137405
 31
0.0
  0
ARC
  5
1AD
  8
1
  6
CONTINUOUS
 62
     7
 10
655.1473153072482
 20
121.6128555090089
 30
0.0
 40
21.82038575650999
 50
90.0
 51
102.300216449131
  0
ARC
  5
1AE
  8
1
  6
CONTINUOUS
 62
     7
 10
652.5290324158639
 20
133.621167215906
 30
0.0
 40
9.529944131030584
 50
102.3002164491306
 51
130.6993668493189
  0
ARC
  5
1AF
  8
1
  6
CONTINUOUS
 62
     7
 10
656.8008397006889
 20
128.6546220551111
 30
0.0
 40
16.0808912620109
 50
130.699366849319
 51
135.9894277591955
  0
LINE
  5
1B0
  8
1
  6
CONTINUOUS
 62
     9
 10
530.1349766960002
 20
62.84567464376536
 30
0.0
 11
465.5437032314986
 21
62.84567464376536
 31
0.0
  0
LINE
  5
1B1
  8
1
  6
CONTINUOUS
 62
     9
 10
532.3393399637494
 20
82.02157287525364
 30
0.0
 11
463.3393399637494
 21
82.02157287525364
 31
0.0
  0
CIRCLE
  5
1B2
  8
1
  6
CONTINUOUS
 62
     7
 10
497.8393399637494
 20
252.6473153072494
 30
0.0
 40
25.49999999999997
  0
LINE
  5
1B3
  8
1
  6
CONTINUOUS
 62
     7
 10
695.1473153072482
 20
139.8325462644183
 30
0.0
 11
693.3843117728129
 21
139.847931763178
 31
0.0
  0
LINE
  5
1B4
  8
1
  6
CONTINUOUS
 62
     7
 10
620.6473153072482
 20
69.44999999999983
 30
0.0
 11
620.6473153072482
 21
35.84999999999983
 31
0.0
  0
LINE
  5
1B5
  8
1
  6
CONTINUOUS
 62
     7
 10
689.647315307248
 20
35.84999999999983
 30
0.0
 11
689.647315307248
 21
69.44999999999983
 31
0.0
  0
LINE
  5
1B6
  8
1
  6
CONTINUOUS
 62
     7
 10
636.1443159510926
 20
134.8370464769755
 30
0.0
 11
636.172263586811
 21
134.109193038857
 31
0.0
  0
LINE
  5
1B7
  8
1
  6
CONTINUOUS
 62
     7
 10
615.2694917886112
 20
188.8500380769358
 30
0.0
 11
615.1473158427419
 21
174.8500613615098
 31
0.0
  0
LINE
  5
1B8
  8
1
  6
CONTINUOUS
 62
     7
 10
568.1964558437327
 20
271.6568959730402
 30
0.0
 11
557.8022607421028
 21
271.6472965720828
 31
0.0
  0
ARC
  5
1B9
  8
1
  6
CONTINUOUS
 62
     7
 10
615.654385943964
 20
173.3631485417696
 30
0.0
 40
0.5000387701628721
 50
180.004491742897
 51
269.5057075771524
  0
ARC
  5
1BA
  8
1
  6
CONTINUOUS
 62
     7
 10
560.6126822828533
 20
249.247100129464
 30
0.0
 40
16.24834746592026
 50
192.2849965148732
 51
248.4360500171894
  0
ARC
  5
1BB
  8
1
  6
CONTINUOUS
 62
     7
 10
557.8461546711521
 20
244.3783543764164
 30
0.0
 40
10.73220034522643
 50
252.6222892923718
 51
265.7471465654513
  0
LINE
  5
1BC
  8
1
  6
CONTINUOUS
 62
     7
 10
557.6313151307236
 20
233.6490485994574
 30
0.0
 11
557.817690398581
 21
233.6473162315118
 31
0.0
  0
LINE
  5
1BD
  8
1
  6
CONTINUOUS
 62
     7
 10
674.1473153072482
 20
134.8327560572968
 30
0.0
 11
674.1473153072482
 21
149.096212755237
 31
0.0
  0
LINE
  5
1BE
  8
1
  6
CONTINUOUS
 62
     7
 10
550.2304713820375
 20
268.6473153072494
 30
0.0
 11
534.499945523396
 21
268.6473153072494
 31
0.0
  0
ARC
  5
1BF
  8
1
  6
CONTINUOUS
 62
     7
 10
653.493790913807
 20
128.6546220551107
 30
0.0
 40
16.08089126201139
 50
44.00255454553421
 51
49.30063315068102
  0
ARC
  5
1C0
  8
1
  6
CONTINUOUS
 62
     7
 10
657.7655981986321
 20
133.6211672159058
 30
0.0
 40
9.529944131030899
 50
49.30063315068102
 51
77.69978355086842
  0
ARC
  5
1C1
  8
1
  6
CONTINUOUS
 62
     7
 10
655.1473153072482
 20
121.6128555090089
 30
0.0
 40
21.82038575650999
 50
77.69978355086899
 51
90.0
  0
ARC
  5
1C2
  8
1
  6
CONTINUOUS
 62
     7
 10
558.4413839246339
 20
258.7098304754523
 30
0.0
 40
12.95324312455806
 50
92.82816705906686
 51
152.4413042559088
  0
ARC
  5
1C3
  8
1
  6
CONTINUOUS
 62
     7
 10
565.2596756623043
 20
253.8072667977254
 30
0.0
 40
21.29948695920847
 50
149.2337454792758
 51
164.5086158822676
  0
LINE
  5
1C4
  8
1
  6
CONTINUOUS
 62
     9
 10
535.2349766960002
 20
174.8456746437654
 30
0.0
 11
460.4437032314985
 21
174.8456746437654
 31
0.0
  0
LINE
  5
1C5
  8
1
  6
CONTINUOUS
 62
     7
 10
616.9103188416831
 20
139.847931763178
 30
0.0
 11
615.147315307248
 21
139.8325462644183
 31
0.0
  0
LINE
  5
1C6
  8
1
  6
CONTINUOUS
 62
     7
 10
557.0502744946151
 20
233.6757052186296
 30
0.0
 11
557.6313151307236
 21
233.6490485994574
 31
0.0
  0
LINE
  5
1C7
  8
1
  6
CONTINUOUS
 62
     7
 10
626.6473153072482
 20
129.422077938642
 30
0.0
 11
626.6473153072482
 21
90.9210678118653
 31
0.0
  0
ARC
  5
1C8
  8
1
  6
CONTINUOUS
 62
     7
 10
656.8681820070304
 20
128.7659635072353
 30
0.0
 40
16.73581011890318
 50
130.6993668493187
 51
137.0079234791108
  0
ARC
  5
1C9
  8
1
  6
CONTINUOUS
 62
     7
 10
652.4223988462252
 20
133.9347788050783
 30
0.0
 40
9.918065660791283
 50
102.3002164491305
 51
130.6993668493186
  0
ARC
  5
1CA
  8
1
  6
CONTINUOUS
 62
     7
 10
655.1473153072482
 20
121.4374102636998
 30
0.0
 40
22.70905429258166
 50
90.0
 51
102.3002164491316
  0
ARC
  5
1CB
  8
1
  6
CONTINUOUS
 62
     7
 10
655.1473153072482
 20
121.4374102636998
 30
0.0
 40
22.70905429258166
 50
77.69978355086833
 51
90.0
  0
ARC
  5
1CC
  8
1
  6
CONTINUOUS
 62
     7
 10
657.8722317682709
 20
133.9347788050783
 30
0.0
 40
9.918065660791376
 50
49.30063315068099
 51
77.6997835508689
  0
ARC
  5
1CD
  8
1
  6
CONTINUOUS
 62
     7
 10
653.4264486074658
 20
128.7659635072353
 30
0.0
 40
16.73581011890318
 50
42.98413700471843
 51
49.30063315068121
  0
ARC
  5
1CE
  8
1
  6
CONTINUOUS
 62
     7
 10
573.6301665443576
 20
248.4277135504869
 30
0.0
 40
12.28040022559011
 50
197.6786557272196
 51
252.7188366528847
  0
ARC
  5
1CF
  8
1
  6
CONTINUOUS
 62
     7
 10
581.6326811003006
 20
252.5259932469236
 30
0.0
 40
21.20089191743697
 50
143.8997794629016
 51
201.6668680611197
  0
ARC
  5
1D0
  8
1
  6
CONTINUOUS
 62
     7
 10
572.548718420801
 20
258.6730966950996
 30
0.0
 40
10.24654612402074
 50
104.5119540699251
 51
141.7437618177226
  0
LINE
  5
1D1
  8
1
  6
CONTINUOUS
 62
     7
 10
534.499945523396
 20
236.6473153072494
 30
0.0
 11
550.2274487616426
 21
236.6473153072494
 31
0.0
  0
LINE
  5
1D2
  8
1
  6
CONTINUOUS
 62
     9
 10
692.5429520394989
 20
174.8456746437654
 30
0.0
 11
617.7516785749973
 21
174.8456746437654
 31
0.0
  0
LINE
  5
1D3
  8
1
  6
CONTINUOUS
 62
     7
 10
557.8220960210464
 20
233.6473153072494
 30
0.0
 11
572.0855526870563
 21
233.6473153072494
 31
0.0
  0
CIRCLE
  5
1D4
  8
1
  6
CONTINUOUS
 62
     7
 10
497.8393399637494
 20
252.6473153072494
 30
0.0
 40
24.90000000000003
  0
LINE
  5
1D5
  8
1
  6
CONTINUOUS
 62
     7
 10
459.6023434981843
 20
139.847931763178
 30
0.0
 11
457.8393399637494
 21
139.8325462644183
 31
0.0
  0
LINE
  5
1D6
  8
1
  6
CONTINUOUS
 62
     7
 10
542.3368146468077
 20
141.9748916810277
 30
0.0
 11
528.0460758302082
 21
127.6841528644282
 31
0.0
  0
LINE
  5
1D7
  8
1
  6
CONTINUOUS
 62
     7
 10
686.2748598742904
 20
134.1206903175498
 30
0.0
 11
686.1893987858086
 21
134.1206903175498
 31
0.0
  0
LINE
  5
1D8
  8
1
  6
CONTINUOUS
 62
     9
 10
689.647315307248
 20
82.02157287525364
 30
0.0
 11
620.6473153072482
 21
82.02157287525364
 31
0.0
  0
LINE
  5
1D9
  8
1
  6
CONTINUOUS
 62
     9
 10
693.1473153072482
 20
172.5526066368213
 30
0.0
 11
617.147315307248
 21
172.5526066368213
 31
0.0
  0
LINE
  5
1DA
  8
1
  6
CONTINUOUS
 62
     9
 10
670.4220715185232
 20
90.92106781186529
 30
0.0
 11
683.647315307248
 21
90.92106781186529
 31
0.0
  0
LINE
  5
1DB
  8
1
  6
CONTINUOUS
 62
     7
 10
689.647315307248
 20
73.14999999999982
 30
0.0
 11
688.7870259871797
 21
73.14999999999982
 31
0.0
  0
LINE
  5
1DC
  8
1
  6
CONTINUOUS
 62
     7
 10
686.1892086308193
 20
134.1204926425001
 30
0.0
 11
686.9490419281943
 21
134.9103750712684
 31
0.0
  0
LINE
  5
1DD
  8
1
  6
CONTINUOUS
 62
     9
 10
683.647315307248
 20
129.422077938642
 30
0.0
 11
672.6954143618482
 21
129.422077938642
 31
0.0
  0
LINE
  5
1DE
  8
1
  6
CONTINUOUS
 62
     7
 10
624.1052318286876
 20
134.1206903175498
 30
0.0
 11
624.0197707402058
 21
134.1206903175498
 31
0.0
  0
LINE
  5
1DF
  8
1
  6
CONTINUOUS
 62
     9
 10
674.1473153072482
 20
141.8215728752537
 30
0.0
 11
693.0849586417297
 21
141.8215728752537
 31
0.0
  0
LINE
  5
1E0
  8
1
  6
CONTINUOUS
 62
     7
 10
692.495152200771
 20
140.4073593128806
 30
0.0
 11
686.9490419281943
 21
134.9103750712684
 31
0.0
  0
LINE
  5
1E1
  8
1
  6
CONTINUOUS
 62
     7
 10
620.6473153072482
 20
73.14999999999982
 30
0.0
 11
621.5076046273165
 21
73.14999999999982
 31
0.0
  0
LINE
  5
1E2
  8
1
  6
CONTINUOUS
 62
     7
 10
689.647315307248
 20
69.44999999999983
 30
0.0
 11
688.8295275528858
 21
69.44999999999983
 31
0.0
  0
LINE
  5
1E3
  8
1
  6
CONTINUOUS
 62
     7
 10
689.647315307248
 20
62.84999999999984
 30
0.0
 11
620.6473153072482
 21
62.84999999999984
 31
0.0
  0
LINE
  5
1E4
  8
1
  6
CONTINUOUS
 62
     9
 10
615.3500184750392
 20
172.865746439684
 30
0.0
 11
615.3429520394989
 21
172.865746439684
 31
0.0
  0
ARC
  5
1E5
  8
1
  6
CONTINUOUS
 62
     7
 10
691.0918147129975
 20
141.8227277984342
 30
0.0
 40
1.993144263340977
 50
314.7554476356785
 51
359.9668000812445
  0
LINE
  5
1E6
  8
1
  6
CONTINUOUS
 62
     7
 10
623.345588686292
 20
134.9103750712782
 30
0.0
 11
624.1057676998613
 21
134.1208258394985
 31
0.0
  0
ARC
  5
1E7
  8
1
  6
CONTINUOUS
 62
     7
 10
619.202514536728
 20
141.822602112408
 30
0.0
 40
1.992842829744782
 50
180.0295913690757
 51
225.2481609140009
  0
LINE
  5
1E8
  8
1
  6
CONTINUOUS
 62
     7
 10
615.1543471753378
 20
174.8229467098485
 30
0.0
 11
615.1543471753378
 21
173.3631093408789
 31
0.0
  0
LINE
  5
1E9
  8
1
  6
CONTINUOUS
 62
     9
 10
617.2096719727665
 20
141.8215728752537
 30
0.0
 11
635.8472671249888
 21
141.8215728752537
 31
0.0
  0
LINE
  5
1EA
  8
1
  6
CONTINUOUS
 62
     7
 10
623.345588686292
 20
134.9103750712782
 30
0.0
 11
617.7994784137252
 21
140.4073593128806
 31
0.0
  0
LINE
  5
1EB
  8
1
  6
CONTINUOUS
 62
     7
 10
620.6473153072482
 20
69.44999999999983
 30
0.0
 11
621.4651030616104
 21
69.44999999999983
 31
0.0
  0
LINE
  5
1EC
  8
1
  6
CONTINUOUS
 62
     9
 10
637.5965535562142
 20
129.422077938642
 30
0.0
 11
626.6473153072482
 21
129.422077938642
 31
0.0
  0
LINE
  5
1ED
  8
1
  6
CONTINUOUS
 62
     9
 10
626.6473153072482
 20
90.92106781186529
 30
0.0
 11
639.872559095973
 21
90.92106781186529
 31
0.0
  0
ARC
  5
1EE
  8
1
  6
CONTINUOUS
 62
     7
 10
569.8429113012177
 20
122.8119407771255
 30
0.0
 40
2.000000000000002
 50
270.0
 51
314.9999999999993
  0
LINE
  5
1EF
  8
1
  6
CONTINUOUS
 62
     7
 10
466.711795396707
 20
134.1206903175498
 30
0.0
 11
467.8748738696821
 21
132.9576118445747
 31
0.0
  0
ARC
  5
1F0
  8
1
  6
CONTINUOUS
 62
     7
 10
530.1393399637494
 20
63.34565560529731
 30
0.0
 40
0.5000000000000018
 50
262.4415590295816
 51
269.5000000000003
  0
LINE
  5
1F1
  8
1
  6
CONTINUOUS
 62
     7
 10
459.8393399637494
 20
172.5526066368213
 30
0.0
 11
459.8393399637494
 21
140.1473933631783
 31
0.0
  0
LINE
  5
1F2
  8
1
  6
CONTINUOUS
 62
     7
 10
527.8038060578166
 20
132.9576118445747
 30
0.0
 11
535.2535535261225
 21
140.4073593128806
 31
0.0
  0
LINE
  5
1F3
  8
1
  6
CONTINUOUS
 62
     7
 10
465.5437032315128
 20
62.84567464376536
 30
0.0
 11
463.3393399637494
 21
62.82643745696478
 31
0.0
  0
LINE
  5
1F4
  8
1
  6
CONTINUOUS
 62
     7
 10
543.801280740875
 20
146.8535713374681
 30
0.0
 11
543.801280740875
 21
145.5104255869605
 31
0.0
  0
LINE
  5
1F5
  8
1
  6
CONTINUOUS
 62
     7
 10
457.8393399637494
 20
174.8229467098485
 30
0.0
 11
457.8393399637494
 21
173.3631093408789
 31
0.0
  0
ARC
  5
1F6
  8
1
  6
CONTINUOUS
 62
     7
 10
538.8012807408751
 20
145.5104255869605
 30
0.0
 40
5.000000000000004
 50
314.9999999999995
 51
0.0
  0
ARC
  5
1F7
  8
1
  6
CONTINUOUS
 62
     7
 10
458.3393399637494
 20
173.3631093408789
 30
0.0
 40
0.5000000000000004
 50
180.0
 51
269.5000000000003
  0
ARC
  5
1F8
  8
1
  6
CONTINUOUS
 62
     7
 10
533.8393399637495
 20
141.8215728752537
 30
0.0
 40
1.999999999999954
 50
315.0000000000002
 51
0.0
  0
ARC
  5
1F9
  8
1
  6
CONTINUOUS
 62
     7
 10
535.2393399637493
 20
175.3456556052973
 30
0.0
 40
0.5000000000000018
 50
262.4415590295897
 51
269.4999999999995
  0
ARC
  5
1FA
  8
1
  6
CONTINUOUS
 62
     7
 10
531.8172620251072
 20
84.78629150101506
 30
0.0
 40
1.000000000000026
 50
134.9999999999999
 51
225.0000000000002
  0
LINE
  5
1FB
  8
1
  6
CONTINUOUS
 62
     7
 10
458.4973198204237
 20
137.1105149174236
 30
0.0
 11
466.711795396707
 21
134.1206903175498
 31
0.0
  0
ARC
  5
1FC
  8
1
  6
CONTINUOUS
 62
     7
 10
464.3393399637494
 20
129.422077938642
 30
0.0
 40
4.999999999999981
 50
0.0
 51
44.99999999999983
  0
ARC
  5
1FD
  8
1
  6
CONTINUOUS
 62
     7
 10
537.3393399637494
 20
173.3631093408789
 30
0.0
 40
0.5000000000000018
 50
270.4999999999997
 51
0.0
  0
LINE
  5
1FE
  8
1
  6
CONTINUOUS
 62
     7
 10
537.8393399637495
 20
173.3631093408789
 30
0.0
 11
537.8393399637495
 21
174.8229467098485
 31
0.0
  0
ARC
  5
1FF
  8
1
  6
CONTINUOUS
 62
     7
 10
459.5393399637494
 20
140.1473933631783
 30
0.0
 40
0.3000000000000225
 50
270.5000000000005
 51
0.0
  0
LINE
  5
200
  8
1
  6
CONTINUOUS
 62
     7
 10
537.8393399637494
 20
174.8229467098485
 30
0.0
 11
535.2349766959813
 21
174.8456746437654
 31
0.0
  0
ARC
  5
201
  8
1
  6
CONTINUOUS
 62
     7
 10
545.8012807408751
 20
146.8535713374681
 30
0.0
 40
2.000000000000032
 50
135.0000000000007
 51
180.0
  0
ARC
  5
202
  8
1
  6
CONTINUOUS
 62
     7
 10
568.49976555071
 20
115.8119407771255
 30
0.0
 40
4.999999999999992
 50
90.0
 51
135.0000000000005
  0
LINE
  5
203
  8
1
  6
CONTINUOUS
 62
     7
 10
463.3393399637494
 20
35.84999999999984
 30
0.0
 11
464.3393399637494
 21
34.84999999999984
 31
0.0
  0
ARC
  5
204
  8
1
  6
CONTINUOUS
 62
     7
 10
458.8393399637494
 20
138.0502075382095
 30
0.0
 40
1.000000000000001
 50
180.0
 51
250.0000000000003
  0
LINE
  5
205
  8
1
  6
CONTINUOUS
 62
     7
 10
457.8393399637494
 20
139.8325462644183
 30
0.0
 11
457.8393399637494
 21
138.0502075382095
 31
0.0
  0
LINE
  5
206
  8
1
  6
CONTINUOUS
 62
     7
 10
469.3393399637494
 20
129.422077938642
 30
0.0
 11
469.3393399637494
 21
90.92106781186529
 31
0.0
  0
ARC
  5
207
  8
1
  6
CONTINUOUS
 62
     7
 10
530.3393399637494
 20
82.02157287525364
 30
0.0
 40
2.000000000000002
 50
0.0
 51
44.99999999999996
  0
ARC
  5
208
  8
1
  6
CONTINUOUS
 62
     7
 10
536.1393399637494
 20
172.5526066368213
 30
0.0
 40
0.299999999999967
 50
90.50000000000045
 51
180.0
  0
ARC
  5
209
  8
1
  6
CONTINUOUS
 62
     7
 10
459.5393399637494
 20
172.5526066368213
 30
0.0
 40
0.2999999999999845
 50
0.0
 51
89.49999999999955
  0
LINE
  5
20A
  8
1
  6
CONTINUOUS
 62
     7
 10
568.49976555071
 20
120.8119407771255
 30
0.0
 11
569.8429113012177
 21
120.8119407771255
 31
0.0
  0
LINE
  5
20B
  8
1
  6
CONTINUOUS
 62
     7
 10
536.1367220030886
 20
172.8525952137405
 30
0.0
 11
537.3437032314984
 21
172.8631283793468
 31
0.0
  0
LINE
  5
20C
  8
1
  6
CONTINUOUS
 62
     7
 10
695.0251388258852
 20
188.8500380769358
 30
0.0
 11
615.2694917886112
 21
188.8500380769358
 31
0.0
  0
LINE
  5
20D
  8
1
  6
CONTINUOUS
 62
     7
 10
695.1473153072482
 20
174.8499999999998
 30
0.0
 11
615.1543471753376
 21
174.8499999999998
 31
0.0
  0
LINE
  5
20E
  8
1
  6
CONTINUOUS
 62
     7
 10
467.8748738696821
 20
87.38553390593255
 30
0.0
 11
463.9251264013763
 21
83.43578643762672
 31
0.0
  0
ARC
  5
20F
  8
1
  6
CONTINUOUS
 62
     7
 10
531.3393399637494
 20
129.422077938642
 30
0.0
 40
5.000000000000004
 50
135.0000000000002
 51
180.0
  0
LINE
  5
210
  8
1
  6
CONTINUOUS
 62
     7
 10
460.4437032315175
 20
174.8456746437654
 30
0.0
 11
457.8393399637494
 21
174.8229467098485
 31
0.0
  0
LINE
  5
211
  8
1
  6
CONTINUOUS
 62
     7
 10
458.3349766960004
 20
172.8631283793468
 30
0.0
 11
459.5419579244103
 21
172.8525952137405
 31
0.0
  0
ARC
  5
212
  8
1
  6
CONTINUOUS
 62
     7
 10
465.5393399637494
 20
63.34565560529732
 30
0.0
 40
0.4999999999999997
 50
270.4999999999998
 51
277.558440970412
  0
LINE
  5
213
  8
1
  6
CONTINUOUS
 62
     7
 10
535.8393399637495
 20
141.8215728752537
 30
0.0
 11
535.8393399637495
 21
172.5526066368213
 31
0.0
  0
LINE
  5
214
  8
1
  6
CONTINUOUS
 62
     7
 10
532.3393399637495
 20
62.82643745696478
 30
0.0
 11
530.1349766959861
 21
62.84567464376535
 31
0.0
  0
LINE
  5
215
  8
1
  6
CONTINUOUS
 62
     7
 10
531.3393399637494
 20
34.84999999999982
 30
0.0
 11
532.3393399637494
 21
35.84999999999982
 31
0.0
  0
ARC
  5
216
  8
1
  6
CONTINUOUS
 62
     7
 10
460.4393399637494
 20
175.3456556052973
 30
0.0
 40
0.4999999999999997
 50
270.5000000000006
 51
277.5584409704104
  0
ARC
  5
217
  8
1
  6
CONTINUOUS
 62
     7
 10
465.3393399637494
 20
82.02157287525364
 30
0.0
 40
2.000000000000032
 50
135.0000000000001
 51
180.0
  0
ARC
  5
218
  8
1
  6
CONTINUOUS
 62
     7
 10
527.3393399637494
 20
128.3916305603425
 30
0.0
 40
1.000000000000016
 50
180.0
 51
315.0000000000001
  0
ARC
  5
219
  8
1
  6
CONTINUOUS
 62
     7
 10
464.3393399637494
 20
90.92106781186529
 30
0.0
 40
4.999999999999948
 50
315.0
 51
0.0
  0
LINE
  5
21A
  8
1
  6
CONTINUOUS
 62
     7
 10
616.2782183241094
 20
189.8499999999999
 30
0.0
 11
694.0164122903868
 21
189.8499999999999
 31
0.0
  0
LINE
  5
21B
  8
1
  6
CONTINUOUS
 62
     7
 10
688.647315307248
 20
34.84999999999983
 30
0.0
 11
621.6473153072482
 21
34.84999999999983
 31
0.0
  0
LINE
  5
21C
  8
1
  6
CONTINUOUS
 62
     9
 10
687.4429520394989
 20
62.84567464376536
 30
0.0
 11
622.8516785749973
 21
62.84567464376536
 31
0.0
  0
LINE
  5
21D
  8
1
  6
CONTINUOUS
 62
     7
 10
620.6473153072482
 20
35.84999999999983
 30
0.0
 11
689.647315307248
 21
35.84999999999983
 31
0.0
  0
LINE
  5
21E
  8
1
  6
CONTINUOUS
 62
     7
 10
620.6473153072482
 20
62.82643745696478
 30
0.0
 11
689.647315307248
 21
62.82643745696478
 31
0.0
  0
LINE
  5
21F
  8
1
  6
CONTINUOUS
 62
     7
 10
695.1473153072482
 20
174.8229467098485
 30
0.0
 11
615.1543471753378
 21
174.8229467098485
 31
0.0
  0
ARC
  5
220
  8
1
  6
CONTINUOUS
 62
     9
 10
654.7114040731154
 20
112.2095598068582
 30
0.0
 40
26.78543032836147
 50
242.2265005459929
 51
276.0055952629554
  0
ARC
  5
221
  8
1
  6
CONTINUOUS
 62
     9
 10
656.8973468717774
 20
108.193652705505
 30
0.0
 40
22.63091499801159
 50
271.5610120614107
 51
299.567771717558
  0
ARC
  5
222
  8
1
  6
CONTINUOUS
 62
     9
 10
645.0642810683363
 20
92.65037574093446
 30
0.0
 40
5.017637293699028
 50
197.029423253682
 51
235.6071396264346
  0
ARC
  5
223
  8
1
  6
CONTINUOUS
 62
     9
 10
665.2605005032966
 20
92.62821284617571
 30
0.0
 40
4.982332967987254
 50
304.2507106560921
 51
343.1127264637917
  0
ARC
  5
224
  8
1
  6
CONTINUOUS
 62
     9
 10
663.8965488552332
 20
98.55123005449855
 30
0.0
 40
24.7526602064218
 50
179.0465853716184
 51
197.3230677922596
  0
ARC
  5
225
  8
1
  6
CONTINUOUS
 62
     9
 10
646.53018903218
 20
98.53202129275614
 30
0.0
 40
24.62083455609658
 50
342.6280656074051
 51
0.9944387745712788
  0
LINE
  5
226
  8
1
  6
CENTER
 62
     1
 10
497.8393399637494
 20
210.7694917886124
 30
0.0
 11
497.8393399637494
 21
294.5251388258864
 31
0.0
  0
ENDSEC
  0
EOF
