  0
SECTION
  2
HEADER
  9
$ACADVER
  1
AC1006
  9
$DWGCODEPAGE
  3
ansi_932
  9
$INSBASE
 10
0.0
 20
0.0
 30
0.0
  9
$EXTMIN
 10
475.3000000000001
 20
154.3166666666667
  9
$EXTMAX
 10
532.0272727272728
 20
248.3333333333333
  9
$LIMMIN
 10
0.0
 20
0.0
  9
$LIMMAX
 10
12.0
 20
9.0
  9
$ORTHOMODE
 70
     0
  9
$REGENMODE
 70
     1
  9
$FILLMODE
 70
     1
  9
$QTEXTMODE
 70
     0
  9
$MIRRTEXT
 70
     1
  9
$DRAGMODE
 70
     2
  9
$LTSCALE
 40
1.0
  9
$OSMODE
 70
    37
  9
$ATTMODE
 70
     1
  9
$TEXTSIZE
 40
0.2
  9
$TRACEWID
 40
0.05
  9
$TEXTSTYLE
  7
STANDARD
  9
$CLAYER
  8
0
  9
$CELTYPE
  6
BYLAYER
  9
$CECOLOR
 62
   256
  9
$DIMSCALE
 40
1.0
  9
$DIMASZ
 40
3.0
  9
$DIMEXO
 40
0.0625
  9
$DIMDLI
 40
0.38
  9
$DIMRND
 40
0.0
  9
$DIMDLE
 40
0.0
  9
$DIMEXE
 40
0.18
  9
$DIMTP
 40
0.0
  9
$DIMTM
 40
0.0
  9
$DIMTXT
 40
3.0
  9
$DIMCEN
 40
0.09
  9
$DIMTSZ
 40
0.0
  9
$DIMTOL
 70
     0
  9
$DIMLIM
 70
     0
  9
$DIMTIH
 70
     1
  9
$DIMTOH
 70
     1
  9
$DIMSE1
 70
     0
  9
$DIMSE2
 70
     0
  9
$DIMTAD
 70
     1
  9
$DIMZIN
 70
     0
  9
$DIMBLK
  1

  9
$DIMASO
 70
     1
  9
$DIMSHO
 70
     1
  9
$DIMPOST
  1

  9
$DIMAPOST
  1

  9
$DIMALT
 70
     0
  9
$DIMALTD
 70
     2
  9
$DIMALTF
 40
25.4
  9
$DIMLFAC
 40
1.0
  9
$DIMTOFL
 70
     0
  9
$DIMTVP
 40
0.0
  9
$DIMTIX
 70
     0
  9
$DIMSOXD
 70
     0
  9
$DIMSAH
 70
     0
  9
$DIMBLK1
  1

  9
$DIMBLK2
  1

  9
$LUNITS
 70
     2
  9
$LUPREC
 70
     4
  9
$SKETCHINC
 40
0.1
  9
$FILLETRAD
 40
0.5
  9
$AUNITS
 70
     0
  9
$AUPREC
 70
     0
  9
$MENU
  1
.
  9
$ELEVATION
 40
0.0
  9
$THICKNESS
 40
0.0
  9
$LIMCHECK
 70
     0
  9
$CHAMFERA
 40
0.5
  9
$CHAMFERB
 40
0.5
  9
$SKPOLY
 70
     0
  9
$TDCREATE
 40
2460339.418839213
  9
$TDUPDATE
 40
2460339.418839225
  9
$TDINDWG
 40
0.0000000116
  9
$TDUSRTIMER
 40
0.0000000116
  9
$USRTIMER
 70
     1
  9
$ANGBASE
 50
0.0
  9
$ANGDIR
 70
     0
  9
$PDMODE
 70
     0
  9
$PDSIZE
 40
0.0
  9
$PLINEWID
 40
0.0
  9
$COORDS
 70
     1
  9
$SPLFRAME
 70
     0
  9
$SPLINETYPE
 70
     6
  9
$SPLINESEGS
 70
     8
  9
$ATTDIA
 70
     0
  9
$ATTREQ
 70
     1
  9
$HANDLING
 70
     1
  9
$HANDSEED
  5
7B
  9
$SURFTAB1
 70
     6
  9
$SURFTAB2
 70
     6
  9
$SURFTYPE
 70
     6
  9
$SURFU
 70
     6
  9
$SURFV
 70
     6
  9
$UCSNAME
  2

  9
$UCSORG
 10
0.0
 20
0.0
 30
0.0
  9
$UCSXDIR
 10
1.0
 20
0.0
 30
0.0
  9
$UCSYDIR
 10
0.0
 20
1.0
 30
0.0
  9
$USERI1
 70
     0
  9
$USERI2
 70
     0
  9
$USERI3
 70
     0
  9
$USERI4
 70
     0
  9
$USERI5
 70
     0
  9
$USERR1
 40
0.0
  9
$USERR2
 40
0.0
  9
$USERR3
 40
0.0
  9
$USERR4
 40
0.0
  9
$USERR5
 40
0.0
  9
$WORLDVIEW
 70
     1
  0
ENDSEC
  0
SECTION
  2
TABLES
  0
TABLE
  2
VPORT
 70
     1
  0
VPORT
  2
*ACTIVE
 70
     0
 10
0.0
 20
0.0
 11
1.0
 21
1.0
 12
503.6636363636364
 22
201.325
 13
0.0
 23
0.0
 14
0.5
 24
0.5
 15
0.5
 25
0.5
 16
0.0
 26
0.0
 36
1.0
 17
0.0
 27
0.0
 37
0.0
 40
94.01666666666665
 41
1.6
 42
50.0
 43
0.0
 44
0.0
 50
0.0
 51
0.0
 71
     0
 72
   100
 73
     1
 74
     3
 75
     0
 76
     0
 77
     0
 78
     0
  0
ENDTAB
  0
TABLE
  2
LTYPE
 70
     3
  0
LTYPE
  2
CONTINUOUS
 70
     0
  3
Solid line
 72
    65
 73
     0
 40
0.0
  0
LTYPE
  2
________________
 70
     0
  3

 72
    65
 73
     0
 40
0.0
  0
LTYPE
  2
________________0
 70
     0
  3

 72
    65
 73
     4
 40
7.2
 49
2.7
 49
-1.8
 49
0.8999999999999999
 49
-1.8
  0
ENDTAB
  0
TABLE
  2
LAYER
 70
     2
  0
LAYER
  2
0
 70
     0
 62
     7
  6
CONTINUOUS
  0
LAYER
  2
1
 70
     0
 62
     7
  6
CONTINUOUS
  0
ENDTAB
  0
TABLE
  2
STYLE
 70
     2
  0
STYLE
  2
STANDARD
 70
     0
 40
0.0
 41
1.0
 50
0.0
 71
     0
 42
0.2
  3
txt
  4

  0
STYLE
  2
EXPLODED0
 70
     0
 40
0.2
 41
1.0
 50
0.0
 71
     0
 42
0.2
  3
ＭＳ ゴシック
  4

  0
ENDTAB
  0
TABLE
  2
VIEW
 70
     0
  0
ENDTAB
  0
TABLE
  2
UCS
 70
     0
  0
ENDTAB
  0
ENDSEC
  0
SECTION
  2
BLOCKS
  0
BLOCK
  8
0
  2
_1483
 70
     0
 10
0.0
 20
0.0
 30
0.0
  0
ENDBLK
  8
0
  0
BLOCK
  8
0
  2
_1645
 70
     0
 10
0.0
 20
0.0
 30
0.0
  0
ENDBLK
  8
0
  0
ENDSEC
  0
SECTION
  2
ENTITIES
  0
INSERT
  5
3D
  8
1
  6
________________
 62
     7
  2
_1483
 10
0.0
 20
0.0
 30
0.0
  0
LINE
  5
3F
  8
1
  6
________________
 62
     7
 10
477.8000000000001
 20
211.8333333333334
 30
0.0
 11
502.2000000000001
 21
211.8333333333334
 31
0.0
  0
LINE
  5
40
  8
1
  6
________________
 62
     7
 10
477.8000000000001
 20
244.8333333333333
 30
0.0
 11
502.2000000000001
 21
244.8333333333333
 31
0.0
  0
LINE
  5
41
  8
1
  6
________________
 62
     7
 10
477.3000000000001
 20
216.8333333333333
 30
0.0
 11
477.8000000000001
 21
211.8333333333333
 31
0.0
  0
LINE
  5
42
  8
1
  6
________________
 62
     7
 10
502.2000000000001
 20
211.8333333333334
 30
0.0
 11
502.7000000000002
 21
216.8333333333334
 31
0.0
  0
LINE
  5
43
  8
1
  6
________________
 62
     7
 10
502.7
 20
239.8333333333334
 30
0.0
 11
502.2
 21
244.8333333333334
 31
0.0
  0
LINE
  5
44
  8
1
  6
________________
 62
     7
 10
477.8000000000001
 20
244.8333333333333
 30
0.0
 11
477.3000000000001
 21
239.8333333333333
 31
0.0
  0
LINE
  5
45
  8
1
  6
________________
 62
     7
 10
502.7
 20
216.8333333333333
 30
0.0
 11
502.7
 21
239.8333333333333
 31
0.0
  0
LINE
  5
46
  8
1
  6
________________
 62
     7
 10
477.3000000000001
 20
239.8333333333334
 30
0.0
 11
477.3000000000001
 21
216.8333333333334
 31
0.0
  0
CIRCLE
  5
47
  8
1
  6
________________
 62
     7
 10
490.0000000000001
 20
169.0166666666667
 30
0.0
 40
12.69999999999999
  0
CIRCLE
  5
48
  8
1
  6
________________
 62
     7
 10
-490.0000000000001
 20
169.0166666666667
 30
0.0
 40
11.14600079976008
210
0.0
220
0.0
230
-1.0
  0
INSERT
  5
4C
  8
1
  6
________________
 62
     7
  2
_1645
 10
0.0
 20
0.0
 30
0.0
  0
LINE
  5
4D
  8
1
  6
________________0
 62
     1
 10
475.3000000000001
 20
169.0166666666667
 30
0.0
 11
504.7
 21
169.0166666666667
 31
0.0
  0
LINE
  5
4F
  8
1
  6
________________0
 62
     1
 10
490.0000000000001
 20
154.3166666666667
 30
0.0
 11
490.0000000000001
 21
183.7166666666667
 31
0.0
  0
LINE
  5
50
  8
1
  6
________________0
 62
     1
 10
490.0000000000001
 20
208.3333333333334
 30
0.0
 11
490.0000000000001
 21
248.3333333333333
 31
0.0
  0
TEXT
  5
51
  8
1
 62
     7
 10
519.9806363636363
 20
173.8530303030303
 30
0.0
 40
3.0
  1
DPSS-16
  7
EXPLODED0
  0
ENDSEC
  0
EOF
