  0
SECTION
  2
HEADER
  9
$ACADVER
  1
AC1006
  9
$DWGCODEPAGE
  3
ansi_932
  9
$INSBASE
 10
0.0
 20
0.0
 30
0.0
  9
$EXTMIN
 10
598.5271655070891
 20
-27.57954545454546
  9
$EXTMAX
 10
774.1
 20
184.25
  9
$LIMMIN
 10
0.0
 20
0.0
  9
$LIMMAX
 10
12.0
 20
9.0
  9
$ORTHOMODE
 70
     0
  9
$REGENMODE
 70
     1
  9
$FILLMODE
 70
     1
  9
$QTEXTMODE
 70
     0
  9
$MIRRTEXT
 70
     1
  9
$DRAGMODE
 70
     2
  9
$LTSCALE
 40
1.0
  9
$OSMODE
 70
    37
  9
$ATTMODE
 70
     1
  9
$TEXTSIZE
 40
0.2
  9
$TRACEWID
 40
0.05
  9
$TEXTSTYLE
  7
STANDARD
  9
$CLAYER
  8
0
  9
$CELTYPE
  6
BYLAYER
  9
$CECOLOR
 62
   256
  9
$DIMSCALE
 40
1.0
  9
$DIMASZ
 40
3.0
  9
$DIMEXO
 40
0.0625
  9
$DIMDLI
 40
0.38
  9
$DIMRND
 40
0.0
  9
$DIMDLE
 40
0.0
  9
$DIMEXE
 40
1.5
  9
$DIMTP
 40
0.0
  9
$DIMTM
 40
0.0
  9
$DIMTXT
 40
3.0
  9
$DIMCEN
 40
0.09
  9
$DIMTSZ
 40
0.0
  9
$DIMTOL
 70
     0
  9
$DIMLIM
 70
     0
  9
$DIMTIH
 70
     1
  9
$DIMTOH
 70
     1
  9
$DIMSE1
 70
     0
  9
$DIMSE2
 70
     0
  9
$DIMTAD
 70
     1
  9
$DIMZIN
 70
     0
  9
$DIMBLK
  1

  9
$DIMASO
 70
     1
  9
$DIMSHO
 70
     1
  9
$DIMPOST
  1

  9
$DIMAPOST
  1

  9
$DIMALT
 70
     0
  9
$DIMALTD
 70
     2
  9
$DIMALTF
 40
25.4
  9
$DIMLFAC
 40
1.0
  9
$DIMTOFL
 70
     0
  9
$DIMTVP
 40
0.0
  9
$DIMTIX
 70
     0
  9
$DIMSOXD
 70
     0
  9
$DIMSAH
 70
     0
  9
$DIMBLK1
  1

  9
$DIMBLK2
  1

  9
$LUNITS
 70
     2
  9
$LUPREC
 70
     4
  9
$SKETCHINC
 40
0.1
  9
$FILLETRAD
 40
0.5
  9
$AUNITS
 70
     0
  9
$AUPREC
 70
     0
  9
$MENU
  1
.
  9
$ELEVATION
 40
0.0
  9
$THICKNESS
 40
0.0
  9
$LIMCHECK
 70
     0
  9
$CHAMFERA
 40
0.0
  9
$CHAMFERB
 40
0.0
  9
$SKPOLY
 70
     0
  9
$TDCREATE
 40
2459692.407646111
  9
$TDUPDATE
 40
2459692.407646528
  9
$TDINDWG
 40
0.0000000116
  9
$TDUSRTIMER
 40
0.0000000116
  9
$USRTIMER
 70
     1
  9
$ANGBASE
 50
0.0
  9
$ANGDIR
 70
     0
  9
$PDMODE
 70
     0
  9
$PDSIZE
 40
0.0
  9
$PLINEWID
 40
0.0
  9
$COORDS
 70
     1
  9
$SPLFRAME
 70
     0
  9
$SPLINETYPE
 70
     6
  9
$SPLINESEGS
 70
     8
  9
$ATTDIA
 70
     0
  9
$ATTREQ
 70
     1
  9
$HANDLING
 70
     1
  9
$HANDSEED
  5
1B4
  9
$SURFTAB1
 70
     6
  9
$SURFTAB2
 70
     6
  9
$SURFTYPE
 70
     6
  9
$SURFU
 70
     6
  9
$SURFV
 70
     6
  9
$UCSNAME
  2

  9
$UCSORG
 10
0.0
 20
0.0
 30
0.0
  9
$UCSXDIR
 10
1.0
 20
0.0
 30
0.0
  9
$UCSYDIR
 10
0.0
 20
1.0
 30
0.0
  9
$USERI1
 70
     0
  9
$USERI2
 70
     0
  9
$USERI3
 70
     0
  9
$USERI4
 70
     0
  9
$USERI5
 70
     0
  9
$USERR1
 40
0.0
  9
$USERR2
 40
0.0
  9
$USERR3
 40
0.0
  9
$USERR4
 40
0.0
  9
$USERR5
 40
0.0
  9
$WORLDVIEW
 70
     1
  0
ENDSEC
  0
SECTION
  2
TABLES
  0
TABLE
  2
VPORT
 70
     1
  0
VPORT
  2
*ACTIVE
 70
     0
 10
0.0
 20
0.0
 11
1.0
 21
1.0
 12
686.3135827535446
 22
78.33522727272725
 13
0.0
 23
0.0
 14
0.5
 24
0.5
 15
0.5
 25
0.5
 16
0.0
 26
0.0
 36
1.0
 17
0.0
 27
0.0
 37
0.0
 40
211.8295454545454
 41
1.6
 42
50.0
 43
0.0
 44
0.0
 50
0.0
 51
0.0
 71
     0
 72
   100
 73
     1
 74
     3
 75
     0
 76
     0
 77
     0
 78
     0
  0
ENDTAB
  0
TABLE
  2
LTYPE
 70
     2
  0
LTYPE
  2
CONTINUOUS
 70
     0
  3
Solid line
 72
    65
 73
     0
 40
0.0
  0
LTYPE
  2
CENTER
 70
     0
  3

 72
    65
 73
     0
 40
0.0
  0
ENDTAB
  0
TABLE
  2
LAYER
 70
     2
  0
LAYER
  2
0
 70
     0
 62
     7
  6
CONTINUOUS
  0
LAYER
  2
1
 70
     0
 62
     7
  6
CONTINUOUS
  0
ENDTAB
  0
TABLE
  2
STYLE
 70
     2
  0
STYLE
  2
STANDARD
 70
     0
 40
0.0
 41
1.0
 50
0.0
 71
     0
 42
0.2
  3
txt
  4

  0
STYLE
  2
ＭＳ_ゴシック
 70
     0
 40
0.0
 41
1.0
 50
0.0
 71
     0
 42
0.2
  3
ＭＳ ゴシック.shx
  4

  0
ENDTAB
  0
TABLE
  2
VIEW
 70
     0
  0
ENDTAB
  0
TABLE
  2
UCS
 70
     0
  0
ENDTAB
  0
ENDSEC
  0
SECTION
  2
BLOCKS
  0
BLOCK
  8
0
  2
D_FRAME_VIEW_3150
 70
     0
 10
0.0
 20
0.0
 30
0.0
  0
ENDBLK
  8
0
  0
BLOCK
  8
0
  2
D_FRAME_VIEW_3315
 70
     0
 10
0.0
 20
0.0
 30
0.0
  0
ENDBLK
  8
0
  0
BLOCK
  8
0
  2
D_FRAME_VIEW_2731
 70
     0
 10
0.0
 20
0.0
 30
0.0
  0
ENDBLK
  8
0
  0
ENDSEC
  0
SECTION
  2
ENTITIES
  0
LINE
  5
70
  8
1
  6
CENTER
 62
     1
 10
620.027165507089
 20
141.25
 30
0.0
 11
620.027165507089
 21
184.25
 31
0.0
  0
LINE
  5
72
  8
1
  6
CENTER
 62
     1
 10
676.9885827535447
 20
84.7114172464553
 30
0.0
 11
620.027165507089
 21
27.75000000000005
 31
0.0
  0
LINE
  5
73
  8
1
  6
CENTER
 62
     1
 10
754.5999999999999
 20
103.75
 30
0.0
 11
754.5999999999999
 21
-16.25000000000001
 31
0.0
  0
LINE
  5
74
  8
1
  6
CENTER
 62
     1
 10
620.027165507089
 20
103.75
 30
0.0
 11
620.027165507089
 21
-16.25
 31
0.0
  0
LINE
  5
75
  8
1
  6
CENTER
 62
     1
 10
598.5271655070891
 20
162.75
 30
0.0
 11
687.95
 21
162.75
 31
0.0
  0
TEXT
  5
76
  8
1
  6
CONTINUOUS
 62
     7
 10
748.4990777791671
 20
-27.92157996748782
 30
0.0
 40
3.0
  1
DPSY-20
  0
INSERT
  5
78
  8
1
  6
CONTINUOUS
 62
     7
  2
D_FRAME_VIEW_3150
 10
0.0
 20
0.0
 30
0.0
  0
INSERT
  5
7C
  8
1
  6
CONTINUOUS
 62
     7
  2
D_FRAME_VIEW_3315
 10
0.0
 20
0.0
 30
0.0
  0
INSERT
  5
80
  8
1
  6
CONTINUOUS
 62
     7
  2
D_FRAME_VIEW_2731
 10
0.0
 20
0.0
 30
0.0
  0
LINE
  5
81
  8
1
  6
CONTINUOUS
 62
     7
 10
761.7730094132728
 20
92.394759721522
 30
0.0
 11
758.3199601363797
 21
93.09566898582189
 31
0.0
  0
LINE
  5
82
  8
1
  6
CONTINUOUS
 62
     7
 10
758.3199601363797
 20
93.09566898582189
 30
0.0
 11
750.8800398636201
 21
93.09566898582189
 31
0.0
  0
ARC
  5
83
  8
1
  6
CONTINUOUS
 62
     7
 10
764.4283284281291
 20
63.8124458405138
 30
0.0
 40
9.671671571870876
 50
0.0
 51
0.7128695040542539
  0
ARC
  5
84
  8
1
  6
CONTINUOUS
 62
     7
 10
754.5999999999999
 20
84.94662810498875
 30
0.0
 40
25.46762250782386
 50
253.5317349963587
 51
270.0
  0
ARC
  5
85
  8
1
  6
CONTINUOUS
 62
     7
 10
754.5999999999999
 20
84.94662810498917
 30
0.0
 40
25.46762250782429
 50
270.0
 51
286.468265003641
  0
LINE
  5
86
  8
1
  6
CONTINUOUS
 62
     7
 10
750.8800398636201
 20
93.09566898582189
 30
0.0
 11
747.426990586727
 21
92.394759721522
 31
0.0
  0
LINE
  5
87
  8
1
  6
CONTINUOUS
 62
     7
 10
623.1235499541879
 20
7.599999999999989
 30
0.0
 11
616.9307810599904
 21
7.599999999999989
 31
0.0
  0
LINE
  5
88
  8
1
  6
CONTINUOUS
 62
     7
 10
623.2722873905956
 20
9.750000000000002
 30
0.0
 11
616.7820436235826
 21
9.750000000000002
 31
0.0
  0
LINE
  5
89
  8
1
  6
CONTINUOUS
 62
     7
 10
684.671925228611
 20
67.04999096181926
 30
0.0
 11
659.3271564689084
 21
92.39475972152198
 31
0.0
  0
LINE
  5
8A
  8
1
  6
CONTINUOUS
 62
     7
 10
623.1235499541879
 20
79.89999999999999
 30
0.0
 11
616.9307810599904
 21
79.89999999999999
 31
0.0
  0
LINE
  5
8B
  8
1
  6
CONTINUOUS
 62
     7
 10
651.7561711042539
 20
86.8925702293872
 30
0.0
 11
652.9076308322633
 21
86.08630944789009
 31
0.0
  0
LINE
  5
8C
  8
1
  6
CONTINUOUS
 62
     7
 10
660.0404069180626
 20
93.09566898582185
 30
0.0
 11
685.3728344929109
 21
67.76324141097346
 31
0.0
  0
LINE
  5
8D
  8
1
  6
CONTINUOUS
 62
     7
 10
623.2722873905956
 20
77.75
 30
0.0
 11
616.7820436235826
 21
77.75
 31
0.0
  0
LINE
  5
8E
  8
1
  6
CONTINUOUS
 62
     7
 10
678.3634749549792
 20
60.63046532517428
 30
0.0
 11
679.1697357364764
 21
59.47900559716483
 31
0.0
  0
ARC
  5
8F
  8
1
  6
CONTINUOUS
 62
     7
 10
764.3293622728062
 20
79.72237534167063
 30
0.0
 40
9.574282869609263
 50
359.9999999999999
 51
0.7128695040541404
  0
ARC
  5
90
  8
1
  6
CONTINUOUS
 62
     7
 10
764.3293622728062
 20
79.7223753416706
 30
0.0
 40
9.574282869609263
 50
325.1241363219553
 51
0.0000000000000568
  0
ARC
  5
91
  8
1
  6
CONTINUOUS
 62
     7
 10
756.0874253570861
 20
85.46687003166689
 30
0.0
 40
19.62061271518504
 50
308.3069537368041
 51
325.124136321954
  0
ARC
  5
92
  8
1
  6
CONTINUOUS
 62
     7
 10
760.1865895869009
 20
80.27772279794098
 30
0.0
 40
13.00771649671318
 50
292.9401171884972
 51
308.3069537368042
  0
ARC
  5
93
  8
1
  6
CONTINUOUS
 62
     7
 10
752.2380349558078
 20
99.05789249091835
 30
0.0
 40
33.40071270669905
 50
286.9708118364786
 51
292.9401171884987
  0
ARC
  5
94
  8
1
  6
CONTINUOUS
 62
     7
 10
755.3561991498648
 20
88.84022309958017
 30
0.0
 40
22.71784250568152
 50
286.4087017174731
 51
286.9708118364788
  0
ARC
  5
95
  8
1
  6
CONTINUOUS
 62
     7
 10
744.8706377271936
 20
79.72237534167063
 30
0.0
 40
9.574282869609263
 50
145.1241363219553
 51
179.2871304959461
  0
ARC
  5
96
  8
1
  6
CONTINUOUS
 62
     7
 10
753.1125746429143
 20
73.97788065167374
 30
0.0
 40
19.62061271518585
 50
128.3069537368043
 51
145.1241363219534
  0
ARC
  5
97
  8
1
  6
CONTINUOUS
 62
     7
 10
749.0134104130985
 20
79.16702788540076
 30
0.0
 40
13.00771649671257
 50
112.9401171884967
 51
128.3069537368044
  0
ARC
  5
98
  8
1
  6
CONTINUOUS
 62
     7
 10
756.9619650441903
 20
60.38685819242802
 30
0.0
 40
33.40071270669365
 50
106.9708118364786
 51
112.9401171884995
  0
ARC
  5
99
  8
1
  6
CONTINUOUS
 62
     7
 10
753.8438008501353
 20
70.60452758376029
 30
0.0
 40
22.71784250568232
 50
106.4087017174728
 51
106.9708118364787
  0
LINE
  5
9A
  8
1
  6
CONTINUOUS
 62
     7
 10
637.8228022392956
 20
86.75432535623422
 30
0.0
 11
639.5271655070889
 21
86.76919910913968
 31
0.0
  0
LINE
  5
9B
  8
1
  6
CONTINUOUS
 62
     7
 10
639.2342722882756
 20
88.04289321881349
 30
0.0
 11
636.8200587259026
 21
90.45710678118655
 31
0.0
  0
LINE
  5
9C
  8
1
  6
CONTINUOUS
 62
     7
 10
634.618379220052
 20
21.74695167279456
 30
0.0
 11
632.642428728151
 21
22.1642135623731
 31
0.0
  0
ARC
  5
9D
  8
1
  6
CONTINUOUS
 62
     7
 10
601.5271655070891
 20
87.33578643762694
 30
0.0
 40
1.000000000000001
 50
134.9999999999997
 51
180.0
  0
ARC
  5
9E
  8
1
  6
CONTINUOUS
 62
     7
 10
602.2271655070891
 20
86.25434439470251
 30
0.0
 40
0.5000000000000014
 50
82.4415590295772
 51
89.49999999999989
  0
ARC
  5
9F
  8
1
  6
CONTINUOUS
 62
     7
 10
637.5271655070891
 20
91.16421356237309
 30
0.0
 40
0.9999999999999989
 50
180.0
 51
224.9999999999999
  0
ARC
  5
A0
  8
1
  6
CONTINUOUS
 62
     7
 10
637.827165507089
 20
86.25434439470251
 30
0.0
 40
0.5000000000000001
 50
90.50000000000016
 51
97.55844097042285
  0
ARC
  5
A1
  8
1
  6
CONTINUOUS
 62
     7
 10
602.5271655070891
 20
91.16421356237309
 30
0.0
 40
1.000000000000001
 50
315.0000000000001
 51
0.0
  0
LINE
  5
A2
  8
1
  6
CONTINUOUS
 62
     7
 10
636.5271655070891
 20
97.75
 30
0.0
 11
635.5271655070891
 21
98.75
 31
0.0
  0
ARC
  5
A3
  8
1
  6
CONTINUOUS
 62
     7
 10
638.5271655070891
 20
87.33578643762694
 30
0.0
 40
1.000000000000001
 50
0.0
 51
45.00000000000028
  0
LINE
  5
A4
  8
1
  6
CONTINUOUS
 62
     7
 10
636.5271655070891
 20
91.16421356237309
 30
0.0
 11
636.5271655070891
 21
97.75
 31
0.0
  0
ARC
  5
A5
  8
1
  6
CONTINUOUS
 62
     7
 10
637.827165507089
 20
1.245655605297477
 30
0.0
 40
0.5000000000000014
 50
262.4415590295772
 51
269.4999999999999
  0
LINE
  5
A6
  8
1
  6
CONTINUOUS
 62
     7
 10
636.5271655070891
 20
-10.25000000000001
 30
0.0
 11
636.5271655070891
 21
-3.664213562373106
 31
0.0
  0
LINE
  5
A7
  8
1
  6
CONTINUOUS
 62
     7
 10
603.2342722882756
 20
90.45710678118655
 30
0.0
 11
600.8200587259026
 21
88.04289321881349
 31
0.0
  0
LINE
  5
A8
  8
1
  6
CONTINUOUS
 62
     7
 10
600.8200587259025
 20
-0.5428932188134977
 30
0.0
 11
603.2342722882755
 21
-2.957106781186561
 31
0.0
  0
LINE
  5
A9
  8
1
  6
CONTINUOUS
 62
     7
 10
635.5271655070891
 20
-11.25000000000001
 30
0.0
 11
636.5271655070891
 21
-10.25000000000001
 31
0.0
  0
ARC
  5
AA
  8
1
  6
CONTINUOUS
 62
     7
 10
601.5271655070891
 20
16.33578643762691
 30
0.0
 40
1.000000000000001
 50
134.9999999999998
 51
180.0
  0
ARC
  5
AB
  8
1
  6
CONTINUOUS
 62
     7
 10
638.5271655070891
 20
16.33578643762691
 30
0.0
 40
1.000000000000001
 50
0.0
 51
45.00000000000021
  0
ARC
  5
AC
  8
1
  6
CONTINUOUS
 62
     7
 10
601.5271655070891
 20
71.16421356237309
 30
0.0
 40
1.000000000000001
 50
180.0
 51
224.9999999999998
  0
ARC
  5
AD
  8
1
  6
CONTINUOUS
 62
     7
 10
638.5271655070891
 20
71.16421356237309
 30
0.0
 40
0.9999999999999989
 50
315.0000000000001
 51
0.0
  0
ARC
  5
AE
  8
1
  6
CONTINUOUS
 62
     7
 10
602.2271655070891
 20
1.245655605297477
 30
0.0
 40
0.4999999999999997
 50
270.5000000000002
 51
277.5584409704229
  0
LINE
  5
AF
  8
1
  6
CONTINUOUS
 62
     7
 10
604.5271655070891
 20
98.75
 30
0.0
 11
603.5271655070891
 21
97.75
 31
0.0
  0
LINE
  5
B0
  8
1
  6
CONTINUOUS
 62
     7
 10
603.5271655070891
 20
97.75
 30
0.0
 11
603.5271655070891
 21
91.16421356237309
 31
0.0
  0
LINE
  5
B1
  8
1
  6
CONTINUOUS
 62
     7
 10
603.5271655070891
 20
-3.664213562373106
 30
0.0
 11
603.5271655070891
 21
-10.25000000000001
 31
0.0
  0
LINE
  5
B2
  8
1
  6
CONTINUOUS
 62
     7
 10
600.5271655070893
 20
86.76919910913966
 30
0.0
 11
602.2315287748826
 21
86.7543253562342
 31
0.0
  0
ARC
  5
B3
  8
1
  6
CONTINUOUS
 62
     7
 10
601.5271655070891
 20
0.1642135623730542
 30
0.0
 40
1.000000000000001
 50
180.0
 51
225.0000000000003
  0
LINE
  5
B4
  8
1
  6
CONTINUOUS
 62
     7
 10
639.5271655070889
 20
0.7308008908603266
 30
0.0
 11
637.8228022392956
 21
0.7456746437657785
 31
0.0
  0
LINE
  5
B5
  8
1
  6
CONTINUOUS
 62
     7
 10
602.2315287748826
 20
0.7456746437657785
 30
0.0
 11
600.5271655070893
 21
0.7308008908603266
 31
0.0
  0
LINE
  5
B6
  8
1
  6
CONTINUOUS
 62
     7
 10
636.8200587259025
 20
-2.957106781186561
 30
0.0
 11
639.2342722882755
 21
-0.5428932188134973
 31
0.0
  0
LINE
  5
B7
  8
1
  6
CONTINUOUS
 62
     7
 10
603.5271655070891
 20
-10.25000000000001
 30
0.0
 11
604.5271655070891
 21
-11.25000000000001
 31
0.0
  0
ARC
  5
B8
  8
1
  6
CONTINUOUS
 62
     7
 10
637.5271655070891
 20
-3.664213562373106
 30
0.0
 40
1.000000000000001
 50
135.0
 51
180.0
  0
ARC
  5
B9
  8
1
  6
CONTINUOUS
 62
     7
 10
602.5271655070891
 20
-3.664213562373106
 30
0.0
 40
1.000000000000001
 50
0.0
 51
45.0
  0
ARC
  5
BA
  8
1
  6
CONTINUOUS
 62
     7
 10
638.5271655070891
 20
0.1642135623730542
 30
0.0
 40
1.000000000000001
 50
314.9999999999998
 51
0.0
  0
ARC
  5
BB
  8
1
  6
CONTINUOUS
 62
     7
 10
640.5939223332787
 20
70.23706704297267
 30
0.0
 40
1.000000000000001
 50
315.0000000000001
 51
0.0
  0
LINE
  5
BC
  8
1
  6
CONTINUOUS
 62
     7
 10
761.7881279860629
 20
60.63046532517432
 30
0.0
 11
761.7730094132728
 21
67.0499909618192
 31
0.0
  0
LINE
  5
BD
  8
1
  6
CONTINUOUS
 62
     7
 10
639.2342722882756
 20
17.04289321881346
 30
0.0
 11
634.8200587259025
 21
21.45710678118655
 31
0.0
  0
LINE
  5
BE
  8
1
  6
CONTINUOUS
 62
     7
 10
605.2342722882756
 20
21.45710678118655
 30
0.0
 11
600.8200587259025
 21
17.04289321881346
 31
0.0
  0
ARC
  5
BF
  8
1
  6
CONTINUOUS
 62
     7
 10
668.756873237181
 20
50.3167568261897
 30
0.0
 40
1.000000000000001
 50
270.0000000000007
 51
314.9999999999987
  0
ARC
  5
C0
  8
1
  6
CONTINUOUS
 62
     7
 10
635.5271655070891
 20
65.33578643762691
 30
0.0
 40
1.000000000000001
 50
134.9999999999997
 51
180.0
  0
LINE
  5
C1
  8
1
  6
CONTINUOUS
 62
     7
 10
634.5271655070891
 20
63.96320343559644
 30
0.0
 11
634.5271655070891
 21
65.33578643762691
 31
0.0
  0
ARC
  5
C2
  8
1
  6
CONTINUOUS
 62
     7
 10
635.0271655070891
 20
63.96320343559641
 30
0.0
 40
0.4999999999999994
 50
180.0
 51
315.0
  0
LINE
  5
C3
  8
1
  6
CONTINUOUS
 62
     7
 10
761.7881279860629
 20
60.63046532517432
 30
0.0
 11
747.4118720139369
 21
60.63046532517432
 31
0.0
  0
LINE
  5
C4
  8
1
  6
CONTINUOUS
 62
     7
 10
747.426990586727
 20
67.0499909618192
 30
0.0
 11
750.8800398636201
 21
67.76324141097342
 31
0.0
  0
LINE
  5
C5
  8
1
  6
CONTINUOUS
 62
     7
 10
600.8200587259025
 20
70.45710678118655
 30
0.0
 11
605.2342722882756
 21
66.04289321881346
 31
0.0
  0
ARC
  5
C6
  8
1
  6
CONTINUOUS
 62
     7
 10
753.8534208662386
 20
37.42422377898825
 30
0.0
 40
30.6660392604852
 50
75.03358908469494
 51
81.62502106004922
  0
LINE
  5
C7
  8
1
  6
CONTINUOUS
 62
     7
 10
641.5939223332788
 20
76.47970773009196
 30
0.0
 11
641.5939223332788
 21
70.23706704297268
 31
0.0
  0
ARC
  5
C8
  8
1
  6
CONTINUOUS
 62
     7
 10
662.5142325500617
 20
48.31675682618969
 30
0.0
 40
0.9999999999999989
 50
90.0
 51
134.9999999999999
  0
ARC
  5
C9
  8
1
  6
CONTINUOUS
 62
     7
 10
604.5271655070891
 20
22.1642135623731
 30
0.0
 40
1.000000000000001
 50
314.9999999999999
 51
0.0
  0
LINE
  5
CA
  8
1
  6
CONTINUOUS
 62
     7
 10
662.5142325500617
 20
49.31675682618969
 30
0.0
 11
668.756873237181
 21
49.3167568261897
 31
0.0
  0
ARC
  5
CB
  8
1
  6
CONTINUOUS
 62
     7
 10
635.5271655070891
 20
22.1642135623731
 30
0.0
 40
1.0
 50
204.5452650821198
 51
225.0
  0
LINE
  5
CC
  8
1
  6
CONTINUOUS
 62
     7
 10
634.8200587259025
 20
22.03679656440356
 30
0.0
 11
661.8071257688753
 21
49.02386360737626
 31
0.0
  0
ARC
  5
CD
  8
1
  6
CONTINUOUS
 62
     7
 10
642.5939223332788
 20
76.47970773009195
 30
0.0
 40
0.9999999999999987
 50
135.0000000000013
 51
179.9999999999992
  0
LINE
  5
CE
  8
1
  6
CONTINUOUS
 62
     7
 10
747.426990586727
 20
67.0499909618192
 30
0.0
 11
747.4118720139369
 21
60.63046532517432
 31
0.0
  0
ARC
  5
CF
  8
1
  6
CONTINUOUS
 62
     7
 10
635.5271655070891
 20
21.32968978321701
 30
0.0
 40
0.9999999999999998
 50
135.0000000000009
 51
155.3862149096527
  0
LINE
  5
D0
  8
1
  6
CONTINUOUS
 62
     7
 10
641.3010291144653
 20
69.52996026178614
 30
0.0
 11
635.3807188976824
 21
63.60965004500319
 31
0.0
  0
LINE
  5
D1
  8
1
  6
CONTINUOUS
 62
     7
 10
605.5271655070891
 20
65.33578643762691
 30
0.0
 11
605.5271655070891
 21
22.1642135623731
 31
0.0
  0
LINE
  5
D2
  8
1
  6
CONTINUOUS
 62
     7
 10
634.8200587259025
 20
66.04289321881346
 30
0.0
 11
639.2342722882756
 21
70.45710678118655
 31
0.0
  0
LINE
  5
D3
  8
1
  6
CONTINUOUS
 62
     7
 10
758.3199601363797
 20
67.76324141097342
 30
0.0
 11
750.8800398636201
 21
67.76324141097342
 31
0.0
  0
ARC
  5
D4
  8
1
  6
CONTINUOUS
 62
     7
 10
604.5271655070891
 20
65.33578643762691
 30
0.0
 40
1.000000000000001
 50
0.0
 51
45.00000000000028
  0
ARC
  5
D5
  8
1
  6
CONTINUOUS
 62
     7
 10
-7149.834887526644
 20
-53.00763836999985
 30
0.0
 40
7923.935233940795
 50
0.4248651796920649
 51
0.4537891930548618
  0
ARC
  5
D6
  8
1
  6
CONTINUOUS
 62
     7
 10
681.117388606674
 20
163.5061991498635
 30
0.0
 40
22.7178425056865
 50
163.0291881635213
 51
163.5912982825271
  0
ARC
  5
D7
  8
1
  6
CONTINUOUS
 62
     7
 10
691.3350579980281
 20
160.3880349558016
 30
0.0
 40
33.40071270672063
 50
157.059882811505
 51
163.0291881635212
  0
ARC
  5
D8
  8
1
  6
CONTINUOUS
 62
     7
 10
672.5548883050319
 20
168.3365895868995
 30
0.0
 40
13.00771649671566
 50
141.6930462631956
 51
157.0598828114994
  0
ARC
  5
D9
  8
1
  6
CONTINUOUS
 62
     7
 10
677.7440355387556
 20
164.2374253570863
 30
0.0
 40
19.62061271518468
 50
124.8758636780455
 51
141.6930462631958
  0
ARC
  5
DA
  8
1
  6
CONTINUOUS
 62
     7
 10
671.9995408487597
 20
172.4793622728067
 30
0.0
 40
9.574282869608847
 50
90.0
 51
124.875863678046
  0
ARC
  5
DB
  8
1
  6
CONTINUOUS
 62
     7
 10
671.9995408487597
 20
172.4793622728068
 30
0.0
 40
9.574282869608764
 50
89.28713049594616
 51
90.0
  0
ARC
  5
DC
  8
1
  6
CONTINUOUS
 62
     7
 10
664.0652329587402
 20
163.4666833929724
 30
0.0
 40
21.530704512018
 50
8.022909779288339
 51
16.97081183647875
  0
ARC
  5
DD
  8
1
  6
CONTINUOUS
 62
     7
 10
654.381495587479
 20
160.5114612205545
 30
0.0
 40
31.65533327380034
 50
16.97081183647866
 51
22.94011718849624
  0
ARC
  5
DE
  8
1
  6
CONTINUOUS
 62
     7
 10
672.1802933493794
 20
168.0446581346969
 30
0.0
 40
12.32798846091215
 50
22.94011718849881
 51
38.3069537368043
  0
ARC
  5
DF
  8
1
  6
CONTINUOUS
 62
     7
 10
667.2623089179458
 20
164.1596988232525
 30
0.0
 40
18.59532280011912
 50
38.30695373680418
 51
55.12413632195337
  0
ARC
  5
E0
  8
1
  6
CONTINUOUS
 62
     7
 10
672.7066207054867
 20
171.9709471094704
 30
0.0
 40
9.073971497446848
 50
55.12413632195572
 51
90.00000000000001
  0
ARC
  5
E1
  8
1
  6
CONTINUOUS
 62
     7
 10
672.7066207054867
 20
171.9709471094704
 30
0.0
 40
9.073971497446848
 50
90.0
 51
124.8758636780443
  0
ARC
  5
E2
  8
1
  6
CONTINUOUS
 62
     7
 10
678.1509324930275
 20
164.1596988232525
 30
0.0
 40
18.59532280011912
 50
124.8758636780466
 51
141.6930462631958
  0
ARC
  5
E3
  8
1
  6
CONTINUOUS
 62
     7
 10
673.2329480615939
 20
168.0446581346969
 30
0.0
 40
12.32798846091215
 50
141.6930462631958
 51
157.0598828115012
  0
ARC
  5
E4
  8
1
  6
CONTINUOUS
 62
     7
 10
691.0317458234944
 20
160.5114612205545
 30
0.0
 40
31.65533327380034
 50
157.0598828115039
 51
163.0291881635214
  0
ARC
  5
E5
  8
1
  6
CONTINUOUS
 62
     7
 10
681.3480084522332
 20
163.4666833929724
 30
0.0
 40
21.530704512018
 50
163.0291881635214
 51
171.9770902207117
  0
ARC
  5
E6
  8
1
  6
CONTINUOUS
 62
     7
 10
677.223793612078
 20
162.75
 30
0.0
 40
25.46762250782408
 50
163.5317349963588
 51
180.0
  0
ARC
  5
E7
  8
1
  6
CONTINUOUS
 62
     7
 10
677.223793612078
 20
162.75
 30
0.0
 40
25.46762250782408
 50
180.0
 51
196.4682650036412
  0
ARC
  5
E8
  8
1
  6
CONTINUOUS
 62
     7
 10
656.0748013618589
 20
152.9216715718702
 30
0.0
 40
9.67167157187021
 50
235.1241363219538
 51
270.0
  0
ARC
  5
E9
  8
1
  6
CONTINUOUS
 62
     7
 10
661.8777285099945
 20
161.2474446924811
 30
0.0
 40
19.82019173702026
 50
218.3069537368042
 51
235.1241363219556
  0
ARC
  5
EA
  8
1
  6
CONTINUOUS
 62
     7
 10
656.635797760073
 20
157.1065841507736
 30
0.0
 40
13.14002976197485
 50
202.9401171884994
 51
218.3069537368038
  0
ARC
  5
EB
  8
1
  6
CONTINUOUS
 62
     7
 10
675.606997567749
 20
165.1359907298338
 30
0.0
 40
33.74046160586147
 50
196.9708118364784
 51
202.9401171884965
  0
ARC
  5
EC
  8
1
  6
CONTINUOUS
 62
     7
 10
665.2853950071274
 20
161.9861088637108
 30
0.0
 40
22.94892625680377
 50
187.527117653369
 51
196.9708118364785
  0
ARC
  5
ED
  8
1
  6
CONTINUOUS
 62
     7
 10
671.066579273832
 20
162.75
 30
0.0
 40
28.78036014511065
 50
180.0
 51
187.5271176533674
  0
ARC
  5
EE
  8
1
  6
CONTINUOUS
 62
     7
 10
671.066579273832
 20
162.75
 30
0.0
 40
28.78036014511065
 50
172.4728823466326
 51
180.0
  0
ARC
  5
EF
  8
1
  6
CONTINUOUS
 62
     7
 10
665.285395007127
 20
163.5138911362893
 30
0.0
 40
22.94892625680342
 50
163.0291881635216
 51
172.4728823466312
  0
ARC
  5
F0
  8
1
  6
CONTINUOUS
 62
     7
 10
675.6069975677477
 20
160.3640092701666
 30
0.0
 40
33.74046160586018
 50
157.0598828115035
 51
163.0291881635217
  0
ARC
  5
F1
  8
1
  6
CONTINUOUS
 62
     7
 10
656.635797760073
 20
168.3934158492264
 30
0.0
 40
13.14002976197485
 50
141.6930462631962
 51
157.0598828115006
  0
ARC
  5
F2
  8
1
  6
CONTINUOUS
 62
     7
 10
661.8777285099949
 20
164.2525553075187
 30
0.0
 40
19.82019173702068
 50
124.8758636780447
 51
141.6930462631959
  0
ARC
  5
F3
  8
1
  6
CONTINUOUS
 62
     7
 10
656.0748013618589
 20
172.5783284281296
 30
0.0
 40
9.671671571870377
 50
90.00000000000006
 51
124.8758636780457
  0
ARC
  5
F4
  8
1
  6
CONTINUOUS
 62
     7
 10
656.0896113476027
 20
172.5783284281293
 30
0.0
 40
9.671671571870737
 50
89.28713049594552
 51
90.0
  0
ARC
  5
F5
  8
1
  6
CONTINUOUS
 62
     7
 10
754.5999999999999
 20
77.66483121121729
 30
0.0
 40
28.34807438502759
 50
262.472882346631
 51
270.0
  0
ARC
  5
F6
  8
1
  6
CONTINUOUS
 62
     7
 10
753.8475826346714
 20
71.97048128648926
 30
0.0
 40
22.6042295963083
 50
253.0291881635212
 51
262.4728823466306
  0
ARC
  5
F7
  8
1
  6
CONTINUOUS
 62
     7
 10
756.9501527552186
 20
82.13705167287762
 30
0.0
 40
33.23367430307923
 50
248.764167296836
 51
253.0291881635216
  0
ARC
  5
F8
  8
1
  6
CONTINUOUS
 62
     7
 10
-7149.834887526633
 20
140.5076383699997
 30
0.0
 40
7923.935233940784
 50
359.5675816636035
 51
359.575134820308
  0
ARC
  5
F9
  8
1
  6
CONTINUOUS
 62
     7
 10
662.8816930908453
 20
161.9938008501365
 30
0.0
 40
22.7178425056865
 50
343.0291881635214
 51
343.5912982825269
  0
ARC
  5
FA
  8
1
  6
CONTINUOUS
 62
     7
 10
652.6640236994913
 20
165.1119650441984
 30
0.0
 40
33.40071270672063
 50
337.0598828115051
 51
343.0291881635212
  0
ARC
  5
FB
  8
1
  6
CONTINUOUS
 62
     7
 10
671.4441933924874
 20
157.1634104131006
 30
0.0
 40
13.00771649671566
 50
321.6930462631956
 51
337.0598828114994
  0
ARC
  5
FC
  8
1
  6
CONTINUOUS
 62
     7
 10
666.2550461587638
 20
161.2625746429137
 30
0.0
 40
19.62061271518468
 50
304.8758636780456
 51
321.6930462631958
  0
ARC
  5
FD
  8
1
  6
CONTINUOUS
 62
     7
 10
671.9995408487597
 20
153.0206377271933
 30
0.0
 40
9.574282869608847
 50
270.7128695040537
 51
304.875863678046
  0
ARC
  5
FE
  8
1
  6
CONTINUOUS
 62
     7
 10
759.8076349247185
 20
64.90257335319792
 30
0.0
 40
14.44257266123464
 50
288.2889736906943
 51
350.9895275073584
  0
ARC
  5
FF
  8
1
  6
CONTINUOUS
 62
     7
 10
8659.034887526632
 20
140.5076383699997
 30
0.0
 40
7923.935233940783
 50
180.4248651796921
 51
180.4324183363966
  0
ARC
  5
100
  8
1
  6
CONTINUOUS
 62
     7
 10
752.2498472447804
 20
82.13705167288015
 30
0.0
 40
33.23367430308191
 50
286.9708118364786
 51
291.2918146126411
  0
ARC
  5
101
  8
1
  6
CONTINUOUS
 62
     7
 10
755.3524173653287
 20
71.97048128648784
 30
0.0
 40
22.60422959630683
 50
277.5271176533688
 51
286.9708118364789
  0
ARC
  5
102
  8
1
  6
CONTINUOUS
 62
     7
 10
754.5999999999999
 20
77.66483121121729
 30
0.0
 40
28.34807438502759
 50
270.0
 51
277.527117653369
  0
ARC
  5
103
  8
1
  6
CONTINUOUS
 62
     7
 10
669.9419967182992
 20
162.75
 30
0.0
 40
28.3480743850204
 50
172.472882346629
 51
180.0
  0
ARC
  5
104
  8
1
  6
CONTINUOUS
 62
     7
 10
664.2476467935683
 20
163.5024173653315
 30
0.0
 40
22.60422959629791
 50
163.029188163521
 51
172.4728823466348
  0
ARC
  5
105
  8
1
  6
CONTINUOUS
 62
     7
 10
674.4142171799565
 20
160.3998472447843
 30
0.0
 40
33.23367430306875
 50
158.6746744532569
 51
163.0291881635213
  0
ARC
  5
106
  8
1
  6
CONTINUOUS
 62
     7
 10
681.3480084522332
 20
162.0333166070276
 30
0.0
 40
21.530704512018
 50
188.0229097792883
 51
196.9708118364788
  0
ARC
  5
107
  8
1
  6
CONTINUOUS
 62
     7
 10
691.0317458234944
 20
164.9885387794455
 30
0.0
 40
31.65533327380034
 50
196.9708118364787
 51
202.9401171884962
  0
ARC
  5
108
  8
1
  6
CONTINUOUS
 62
     7
 10
673.2329480615939
 20
157.4553418653031
 30
0.0
 40
12.32798846091215
 50
202.9401171884988
 51
218.3069537368043
  0
ARC
  5
109
  8
1
  6
CONTINUOUS
 62
     7
 10
678.1509324930275
 20
161.3403011767475
 30
0.0
 40
18.59532280011912
 50
218.3069537368042
 51
235.1241363219533
  0
ARC
  5
10A
  8
1
  6
CONTINUOUS
 62
     7
 10
672.7066207054867
 20
153.5290528905296
 30
0.0
 40
9.073971497446848
 50
235.1241363219557
 51
270.0
  0
ARC
  5
10B
  8
1
  6
CONTINUOUS
 62
     7
 10
672.7066207054867
 20
153.5290528905296
 30
0.0
 40
9.073971497446848
 50
270.0
 51
304.8758636780443
  0
ARC
  5
10C
  8
1
  6
CONTINUOUS
 62
     7
 10
667.2623089179458
 20
161.3403011767475
 30
0.0
 40
18.59532280011912
 50
304.8758636780466
 51
321.6930462631958
  0
ARC
  5
10D
  8
1
  6
CONTINUOUS
 62
     7
 10
672.1802933493794
 20
157.4553418653031
 30
0.0
 40
12.32798846091215
 50
321.6930462631958
 51
337.0598828115013
  0
ARC
  5
10E
  8
1
  6
CONTINUOUS
 62
     7
 10
654.381495587479
 20
164.9885387794455
 30
0.0
 40
31.65533327380034
 50
337.0598828115038
 51
343.0291881635214
  0
ARC
  5
10F
  8
1
  6
CONTINUOUS
 62
     7
 10
664.0652329587402
 20
162.0333166070276
 30
0.0
 40
21.530704512018
 50
343.0291881635214
 51
351.9770902207117
  0
ARC
  5
110
  8
1
  6
CONTINUOUS
 62
     7
 10
671.9995408487597
 20
153.0206377271933
 30
0.0
 40
9.574282869608847
 50
270.0
 51
270.7128695040537
  0
ARC
  5
111
  8
1
  6
CONTINUOUS
 62
     7
 10
671.9995408487597
 20
153.0206377271932
 30
0.0
 40
9.574282869608764
 50
235.1241363219537
 51
270.0
  0
ARC
  5
112
  8
1
  6
CONTINUOUS
 62
     7
 10
677.7440355387552
 20
161.2625746429133
 30
0.0
 40
19.62061271518409
 50
218.3069537368042
 51
235.124136321955
  0
ARC
  5
113
  8
1
  6
CONTINUOUS
 62
     7
 10
672.5548883050319
 20
157.1634104131006
 30
0.0
 40
13.00771649671566
 50
202.9401171885006
 51
218.3069537368044
  0
ARC
  5
114
  8
1
  6
CONTINUOUS
 62
     7
 10
691.3350579980281
 20
165.1119650441984
 30
0.0
 40
33.40071270672063
 50
196.9708118364787
 51
202.9401171884949
  0
ARC
  5
115
  8
1
  6
CONTINUOUS
 62
     7
 10
681.117388606674
 20
161.9938008501365
 30
0.0
 40
22.7178425056865
 50
196.4087017174729
 51
196.9708118364785
  0
ARC
  5
116
  8
1
  6
CONTINUOUS
 62
     7
 10
674.4142171799591
 20
165.1001527552166
 30
0.0
 40
33.23367430307145
 50
196.9708118364788
 51
201.3724293857134
  0
ARC
  5
117
  8
1
  6
CONTINUOUS
 62
     7
 10
664.2476467935691
 20
161.9975826346687
 30
0.0
 40
22.6042295962987
 50
187.5271176533652
 51
196.9708118364785
  0
ARC
  5
118
  8
1
  6
CONTINUOUS
 62
     7
 10
669.9419967182992
 20
162.75
 30
0.0
 40
28.3480743850204
 50
180.0000000000001
 51
187.5271176533708
  0
ARC
  5
119
  8
1
  6
CONTINUOUS
 62
     7
 10
764.4283284281291
 20
63.8124458405138
 30
0.0
 40
9.671671571870876
 50
325.1241363219557
 51
0.0
  0
ARC
  5
11A
  8
1
  6
CONTINUOUS
 62
     7
 10
756.1025553075169
 20
69.615372988652
 30
0.0
 40
19.82019173702346
 50
308.3069537368042
 51
325.124136321953
  0
ARC
  5
11B
  8
1
  6
CONTINUOUS
 62
     7
 10
760.243415849227
 20
64.37344223872705
 30
0.0
 40
13.14002976197377
 50
292.9401171884986
 51
308.3069537368044
  0
ARC
  5
11C
  8
1
  6
CONTINUOUS
 62
     7
 10
752.2140092701683
 20
83.3446420463967
 30
0.0
 40
33.74046160585402
 50
286.9708118364787
 51
292.9401171884981
  0
ARC
  5
11D
  8
1
  6
CONTINUOUS
 62
     7
 10
755.3638911362893
 20
73.02303948578157
 30
0.0
 40
22.94892625680312
 50
277.527117653369
 51
286.9708118364786
  0
ARC
  5
11E
  8
1
  6
CONTINUOUS
 62
     7
 10
754.5999999999999
 20
78.80422375248249
 30
0.0
 40
28.78036014510639
 50
270.0
 51
277.5271176533688
  0
ARC
  5
11F
  8
1
  6
CONTINUOUS
 62
     7
 10
754.5999999999998
 20
78.80422375248249
 30
0.0
 40
28.78036014510639
 50
262.4728823466314
 51
270.0000000000002
  0
ARC
  5
120
  8
1
  6
CONTINUOUS
 62
     7
 10
753.8361088637106
 20
73.02303948578192
 30
0.0
 40
22.94892625680349
 50
253.0291881635214
 51
262.4728823466309
  0
ARC
  5
121
  8
1
  6
CONTINUOUS
 62
     7
 10
756.9859907298321
 20
83.34464204639791
 30
0.0
 40
33.74046160585531
 50
247.0598828115023
 51
253.0291881635214
  0
ARC
  5
122
  8
1
  6
CONTINUOUS
 62
     7
 10
748.9565841507728
 20
64.37344223872691
 30
0.0
 40
13.14002976197359
 50
231.6930462631956
 51
247.0598828115017
  0
ARC
  5
123
  8
1
  6
CONTINUOUS
 62
     7
 10
753.0974446924828
 20
69.61537298865191
 30
0.0
 40
19.82019173702333
 50
214.8758636780471
 51
231.693046263196
  0
ARC
  5
124
  8
1
  6
CONTINUOUS
 62
     7
 10
744.7716715718707
 20
63.8124458405138
 30
0.0
 40
9.671671571870876
 50
180.0
 51
214.8758636780442
  0
ARC
  5
125
  8
1
  6
CONTINUOUS
 62
     7
 10
744.7716715718707
 20
63.8124458405138
 30
0.0
 40
9.671671571870876
 50
179.2871304959458
 51
180.0
  0
ARC
  5
126
  8
1
  6
CONTINUOUS
 62
     7
 10
749.1824567714765
 20
64.7199280894372
 30
0.0
 40
14.20673338626678
 50
188.3779973474328
 51
252.4147752632559
  0
ARC
  5
127
  8
1
  6
CONTINUOUS
 62
     7
 10
657.3047398716703
 20
157.6723615390533
 30
0.0
 40
14.59912969573002
 50
198.8032170992424
 51
260.2233317650274
  0
ARC
  5
128
  8
1
  6
CONTINUOUS
 62
     7
 10
671.9995408487597
 20
172.4793622728068
 30
0.0
 40
9.574282869608764
 50
55.12413632195364
 51
89.28713049594616
  0
ARC
  5
129
  8
1
  6
CONTINUOUS
 62
     7
 10
666.2550461587641
 20
164.2374253570867
 30
0.0
 40
19.62061271518409
 50
38.30695373680419
 51
55.124136321955
  0
ARC
  5
12A
  8
1
  6
CONTINUOUS
 62
     7
 10
671.4441933924874
 20
168.3365895868995
 30
0.0
 40
13.00771649671566
 50
22.94011718850061
 51
38.30695373680442
  0
ARC
  5
12B
  8
1
  6
CONTINUOUS
 62
     7
 10
652.6640236994913
 20
160.3880349558016
 30
0.0
 40
33.40071270672063
 50
16.97081183647867
 51
22.94011718849492
  0
ARC
  5
12C
  8
1
  6
CONTINUOUS
 62
     7
 10
662.8816930908453
 20
163.5061991498635
 30
0.0
 40
22.7178425056865
 50
16.40870171747303
 51
16.97081183647861
  0
ARC
  5
12D
  8
1
  6
CONTINUOUS
 62
     7
 10
8659.034887526645
 20
-53.00763836999987
 30
0.0
 40
7923.935233940796
 50
179.5462108069452
 51
179.5751348203079
  0
LINE
  5
12E
  8
1
  6
CONTINUOUS
 62
     7
 10
623.0632198629125
 20
81.74999999999999
 30
0.0
 11
616.9911111512656
 21
81.74999999999999
 31
0.0
  0
LINE
  5
12F
  8
1
  6
CONTINUOUS
 62
     7
 10
639.5271655070891
 20
0.7500000000000007
 30
0.0
 11
600.5271655070891
 21
0.7500000000000007
 31
0.0
  0
LINE
  5
130
  8
1
  6
CONTINUOUS
 62
     7
 10
672.1186603109962
 20
182.25
 30
0.0
 11
655.6753977852298
 21
182.25
 31
0.0
  0
LINE
  5
131
  8
1
  6
CONTINUOUS
 62
     7
 10
636.5271655070891
 20
-10.25000000000001
 30
0.0
 11
603.5271655070891
 21
-10.25000000000001
 31
0.0
  0
LINE
  5
132
  8
1
  6
CONTINUOUS
 62
     7
 10
651.6743711872275
 20
86.97437014641366
 30
0.0
 11
641.8868155520922
 21
77.18681451127851
 31
0.0
  0
LINE
  5
133
  8
1
  6
CONTINUOUS
 62
     7
 10
639.5271655070891
 20
86.74999999999999
 30
0.0
 11
600.5271655070891
 21
86.74999999999999
 31
0.0
  0
LINE
  5
134
  8
1
  6
CONTINUOUS
 62
     7
 10
735.0999999999999
 20
79.8414948039072
 30
0.0
 11
735.0999999999999
 21
63.39823227814084
 31
0.0
  0
LINE
  5
135
  8
1
  6
CONTINUOUS
 62
     7
 10
600.5271655070891
 20
87.33578643762694
 30
0.0
 11
600.5271655070891
 21
71.16421356237309
 31
0.0
  0
LINE
  5
136
  8
1
  6
CONTINUOUS
 62
     7
 10
735.0999999999999
 20
5.750000000000005
 30
0.0
 11
735.0999999999999
 21
0.1642135623730542
 31
0.0
  0
LINE
  5
137
  8
1
  6
CONTINUOUS
 62
     7
 10
600.5271655070891
 20
16.33578643762691
 30
0.0
 11
600.5271655070891
 21
0.1642135623730542
 31
0.0
  0
LINE
  5
138
  8
1
  6
CONTINUOUS
 62
     7
 10
623.0632198629125
 20
5.750000000000005
 30
0.0
 11
616.9911111512656
 21
5.750000000000005
 31
0.0
  0
LINE
  5
139
  8
1
  6
CONTINUOUS
 62
     7
 10
669.4639800183676
 20
49.60965004500317
 30
0.0
 11
679.2515356535029
 21
59.39720568013838
 31
0.0
  0
LINE
  5
13A
  8
1
  6
CONTINUOUS
 62
     7
 10
639.5271655070891
 20
71.16421356237309
 30
0.0
 11
639.5271655070891
 21
87.33578643762694
 31
0.0
  0
LINE
  5
13B
  8
1
  6
CONTINUOUS
 62
     7
 10
669.8633835949967
 20
50.00905362163216
 30
0.0
 11
642.2862191287213
 21
77.58621808790754
 31
0.0
  0
LINE
  5
13C
  8
1
  6
CONTINUOUS
 62
     7
 10
604.5271655070891
 20
98.75
 30
0.0
 11
635.527165507089
 21
98.75
 31
0.0
  0
LINE
  5
13D
  8
1
  6
CONTINUOUS
 62
     7
 10
636.5271655070891
 20
97.75
 30
0.0
 11
603.5271655070891
 21
97.75
 31
0.0
  0
LINE
  5
13E
  8
1
  6
CONTINUOUS
 62
     7
 10
604.5271655070891
 20
-11.25000000000001
 30
0.0
 11
635.527165507089
 21
-11.25000000000001
 31
0.0
  0
LINE
  5
13F
  8
1
  6
CONTINUOUS
 62
     7
 10
771.1324752544505
 20
86.74330191301948
 30
0.0
 11
774.0999999999999
 21
86.76919910913966
 31
0.0
  0
LINE
  5
140
  8
1
  6
CONTINUOUS
 62
     7
 10
639.5271655070891
 20
0.1642135623730542
 30
0.0
 11
639.5271655070891
 21
16.33578643762691
 31
0.0
  0
LINE
  5
141
  8
1
  6
CONTINUOUS
 62
     7
 10
774.0999999999999
 20
0.1642135623730542
 30
0.0
 11
774.0999999999999
 21
5.750000000000005
 31
0.0
  0
LINE
  5
142
  8
1
  6
CONTINUOUS
 62
     7
 10
655.6753977852298
 20
143.25
 30
0.0
 11
672.1186603109962
 21
143.25
 31
0.0
  0
LINE
  5
143
  8
1
  6
CONTINUOUS
 62
     7
 10
774.0999999999999
 20
63.39823227814084
 30
0.0
 11
774.0999999999999
 21
79.8414948039072
 31
0.0
  0
LINE
  5
144
  8
1
  6
CONTINUOUS
 62
     7
 10
735.0999999999999
 20
86.76919910913966
 30
0.0
 11
738.0675247455493
 21
86.74330191301948
 31
0.0
  0
LINE
  5
145
  8
1
  6
CONTINUOUS
 62
     7
 10
740.0999999999999
 20
53.97079850804106
 30
0.0
 11
740.0999999999999
 21
22.1642135623731
 31
0.0
  0
LINE
  5
146
  8
1
  6
CONTINUOUS
 62
     7
 10
769.0999999999999
 20
22.1642135623731
 30
0.0
 11
769.0999999999999
 21
53.96931410130007
 31
0.0
  0
LINE
  5
147
  8
1
  6
CONTINUOUS
 62
     7
 10
735.0999999999999
 20
87.33578643762694
 30
0.0
 11
735.0999999999999
 21
81.74999999999999
 31
0.0
  0
LINE
  5
148
  8
1
  6
CONTINUOUS
 62
     7
 10
774.0999999999999
 20
81.74999999999999
 30
0.0
 11
774.0999999999999
 21
87.33578643762694
 31
0.0
  0
CIRCLE
  5
149
  8
1
  6
CONTINUOUS
 62
     7
 10
620.027165507089
 20
162.75
 30
0.0
 40
10.90000000000002
  0
LINE
  5
14A
  8
1
  6
CONTINUOUS
 62
     7
 10
660.0404069180626
 20
93.09566898582189
 30
0.0
 11
652.9076308322635
 21
86.08630944789
 31
0.0
  0
LINE
  5
14B
  8
1
  6
CONTINUOUS
 62
     7
 10
678.3634749549791
 20
60.63046532517438
 30
0.0
 11
685.372834492911
 21
67.76324141097342
 31
0.0
  0
LINE
  5
14C
  8
1
  6
CONTINUOUS
 62
     7
 10
633.0655703174943
 20
148.25
 30
0.0
 11
646.2428319292087
 21
148.25
 31
0.0
  0
LINE
  5
14D
  8
1
  6
CONTINUOUS
 62
     7
 10
646.2455055004208
 20
177.25
 30
0.0
 11
633.0655703174943
 21
177.25
 31
0.0
  0
ARC
  5
14E
  8
1
  6
CONTINUOUS
 62
     7
 10
656.4006919222834
 20
169.2316192901115
 30
0.0
 40
13.03853461562772
 50
93.1860971237063
 51
153.6109197977417
  0
ARC
  5
14F
  8
1
  6
CONTINUOUS
 62
     7
 10
662.9626547017721
 20
164.4308927878876
 30
0.0
 40
21.09591221957638
 50
149.8495534932698
 51
157.4884442629367
  0
CIRCLE
  5
150
  8
1
  6
CONTINUOUS
 62
     7
 10
620.027165507089
 20
162.75
 30
0.0
 40
16.49999999999996
  0
CIRCLE
  5
151
  8
1
  6
CONTINUOUS
 62
     7
 10
620.027165507089
 20
162.75
 30
0.0
 40
12.80000000000003
  0
CIRCLE
  5
152
  8
1
  6
CONTINUOUS
 62
     7
 10
620.027165507089
 20
162.75
 30
0.0
 40
10.50000000000006
  0
CIRCLE
  5
153
  8
1
  6
CONTINUOUS
 62
     7
 10
620.027165507089
 20
162.75
 30
0.0
 40
19.49999999999996
  0
CIRCLE
  5
154
  8
1
  6
CONTINUOUS
 62
     7
 10
620.027165507089
 20
162.75
 30
0.0
 40
15.49999999999996
  0
ARC
  5
155
  8
1
  6
CONTINUOUS
 62
     7
 10
755.3166833929725
 20
89.07084294514316
 30
0.0
 40
21.53070451201702
 50
278.0229097792881
 51
286.9708118364788
  0
ARC
  5
156
  8
1
  6
CONTINUOUS
 62
     7
 10
752.3614612205571
 20
98.75458031639585
 30
0.0
 40
31.65533327379054
 50
286.970811836479
 51
292.9401171884984
  0
ARC
  5
157
  8
1
  6
CONTINUOUS
 62
     7
 10
759.8946581346971
 20
80.95578255450452
 30
0.0
 40
12.32798846091167
 50
292.9401171884982
 51
308.3069537368043
  0
ARC
  5
158
  8
1
  6
CONTINUOUS
 62
     7
 10
756.0096988232538
 20
85.8737669859367
 30
0.0
 40
18.5953228001168
 50
308.3069537368045
 51
325.1241363219557
  0
ARC
  5
159
  8
1
  6
CONTINUOUS
 62
     7
 10
763.820947109471
 20
80.42945519839766
 30
0.0
 40
9.073971497446154
 50
325.124136321953
 51
359.9999999999998
  0
ARC
  5
15A
  8
1
  6
CONTINUOUS
 62
     7
 10
763.820947109471
 20
80.42945519839765
 30
0.0
 40
9.073971497446154
 50
0.0000000000000876
 51
34.87586367804705
  0
ARC
  5
15B
  8
1
  6
CONTINUOUS
 62
     7
 10
756.0096988232538
 20
74.98514341085857
 30
0.0
 40
18.59532280011684
 50
34.87586367804446
 51
51.69304626319564
  0
ARC
  5
15C
  8
1
  6
CONTINUOUS
 62
     7
 10
759.8946581346971
 20
79.90312784229079
 30
0.0
 40
12.32798846091167
 50
51.69304626319565
 51
67.0598828115018
  0
ARC
  5
15D
  8
1
  6
CONTINUOUS
 62
     7
 10
752.3614612205571
 20
62.10433008039946
 30
0.0
 40
31.65533327379054
 50
67.05988281150168
 51
73.02918816352116
  0
ARC
  5
15E
  8
1
  6
CONTINUOUS
 62
     7
 10
755.3166833929721
 20
71.78806745165078
 30
0.0
 40
21.53070451201846
 50
73.02918816352106
 51
81.97709022071123
  0
ARC
  5
15F
  8
1
  6
CONTINUOUS
 62
     7
 10
753.8438008501355
 20
88.84022309958166
 30
0.0
 40
22.71784250568307
 50
253.0291881635215
 51
253.5912982825272
  0
ARC
  5
160
  8
1
  6
CONTINUOUS
 62
     7
 10
756.9619650441911
 20
99.05789249091573
 30
0.0
 40
33.40071270669626
 50
247.0598828115008
 51
253.0291881635215
  0
ARC
  5
161
  8
1
  6
CONTINUOUS
 62
     7
 10
749.0134104130989
 20
80.27772279794107
 30
0.0
 40
13.00771649671324
 50
231.6930462631961
 51
247.0598828115028
  0
ARC
  5
162
  8
1
  6
CONTINUOUS
 62
     7
 10
753.1125746429141
 20
85.46687003166716
 30
0.0
 40
19.62061271518538
 50
214.8758636780462
 51
231.693046263196
  0
ARC
  5
163
  8
1
  6
CONTINUOUS
 62
     7
 10
744.8706377271936
 20
79.7223753416706
 30
0.0
 40
9.574282869609263
 50
179.9999999999999
 51
214.8758636780447
  0
ARC
  5
164
  8
1
  6
CONTINUOUS
 62
     7
 10
744.8706377271936
 20
79.72237534167063
 30
0.0
 40
9.574282869609263
 50
179.2871304959461
 51
180.0000000000001
  0
ARC
  5
165
  8
1
  6
CONTINUOUS
 62
     7
 10
755.3561991498647
 20
70.60452758376066
 30
0.0
 40
22.71784250568196
 50
73.0291881635211
 51
73.59129828252668
  0
ARC
  5
166
  8
1
  6
CONTINUOUS
 62
     7
 10
752.2380349558091
 20
60.38685819242666
 30
0.0
 40
33.40071270669505
 50
67.05988281150076
 51
73.02918816352144
  0
ARC
  5
167
  8
1
  6
CONTINUOUS
 62
     7
 10
760.1865895869012
 20
79.1670278854005
 30
0.0
 40
13.00771649671283
 50
51.6930462631958
 51
67.05988281150314
  0
ARC
  5
168
  8
1
  6
CONTINUOUS
 62
     7
 10
756.0874253570859
 20
73.97788065167408
 30
0.0
 40
19.62061271518538
 50
34.87586367804624
 51
51.69304626319592
  0
ARC
  5
169
  8
1
  6
CONTINUOUS
 62
     7
 10
764.3293622728062
 20
79.72237534167063
 30
0.0
 40
9.574282869609263
 50
0.7128695040541404
 51
34.87586367804465
  0
ARC
  5
16A
  8
1
  6
CONTINUOUS
 62
     7
 10
-695747.1659905944
 20
36443.77222147431
 30
0.0
 40
697322.900454641
 50
357.0046930108488
 51
357.005022120862
  0
ARC
  5
16B
  8
1
  6
CONTINUOUS
 62
     7
 10
-695747.1659955039
 20
-36356.27222173179
 30
0.0
 40
697322.9004595572
 50
2.994977879138049
 51
2.995306989151346
  0
ARC
  5
16C
  8
1
  6
CONTINUOUS
 62
     7
 10
753.8833166070274
 20
71.78806745165215
 30
0.0
 40
21.53070451201702
 50
98.02290977928816
 51
106.9708118364789
  0
ARC
  5
16D
  8
1
  6
CONTINUOUS
 62
     7
 10
756.8385387794427
 20
62.10433008039946
 30
0.0
 40
31.65533327379054
 50
106.970811836479
 51
112.9401171884985
  0
ARC
  5
16E
  8
1
  6
CONTINUOUS
 62
     7
 10
749.3053418653027
 20
79.90312784229079
 30
0.0
 40
12.32798846091167
 50
112.9401171884982
 51
128.3069537368044
  0
ARC
  5
16F
  8
1
  6
CONTINUOUS
 62
     7
 10
753.1903011767461
 20
74.98514341085861
 30
0.0
 40
18.5953228001168
 50
128.3069537368045
 51
145.1241363219557
  0
ARC
  5
170
  8
1
  6
CONTINUOUS
 62
     7
 10
745.3790528905289
 20
80.42945519839765
 30
0.0
 40
9.073971497446154
 50
145.124136321953
 51
179.9999999999999
  0
ARC
  5
171
  8
1
  6
CONTINUOUS
 62
     7
 10
745.3790528905289
 20
80.42945519839766
 30
0.0
 40
9.073971497446154
 50
180.0000000000001
 51
214.8758636780471
  0
ARC
  5
172
  8
1
  6
CONTINUOUS
 62
     7
 10
753.1903011767461
 20
85.87376698593674
 30
0.0
 40
18.59532280011684
 50
214.8758636780444
 51
231.6930462631956
  0
ARC
  5
173
  8
1
  6
CONTINUOUS
 62
     7
 10
749.3053418653027
 20
80.95578255450452
 30
0.0
 40
12.32798846091167
 50
231.6930462631957
 51
247.0598828115018
  0
ARC
  5
174
  8
1
  6
CONTINUOUS
 62
     7
 10
756.8385387794427
 20
98.75458031639585
 30
0.0
 40
31.65533327379054
 50
247.0598828115017
 51
253.0291881635211
  0
ARC
  5
175
  8
1
  6
CONTINUOUS
 62
     7
 10
753.8833166070277
 20
89.07084294514453
 30
0.0
 40
21.53070451201846
 50
253.029188163521
 51
261.9770902207112
  0
ARC
  5
176
  8
1
  6
CONTINUOUS
 62
     7
 10
696987.2203216071
 20
36443.77222147432
 30
0.0
 40
697322.9004546393
 50
182.9949778791381
 51
182.9953069891513
  0
ARC
  5
177
  8
1
  6
CONTINUOUS
 62
     7
 10
696987.2203265199
 20
-36356.27222173178
 30
0.0
 40
697322.900459559
 50
177.0046930108487
 51
177.0050221208619
  0
LINE
  5
178
  8
1
  6
CONTINUOUS
 62
     7
 10
685.3728344929109
 20
166.4699601363797
 30
0.0
 11
684.671925228611
 21
169.9230094132729
 31
0.0
  0
LINE
  5
179
  8
1
  6
CONTINUOUS
 62
     7
 10
659.3271564689082
 20
169.9230094132729
 30
0.0
 11
652.9076308322633
 21
169.9381279860631
 31
0.0
  0
ARC
  5
17A
  8
1
  6
CONTINUOUS
 62
     7
 10
629.7013892861116
 20
163.4965791337538
 30
0.0
 40
30.66603926045009
 50
345.033589084692
 51
351.6250210600538
  0
LINE
  5
17B
  8
1
  6
CONTINUOUS
 62
     7
 10
660.0404069180624
 20
166.4699601363797
 30
0.0
 11
660.0404069180624
 21
159.0300398636203
 31
0.0
  0
ARC
  5
17C
  8
1
  6
CONTINUOUS
 62
     7
 10
770.0999999999999
 20
22.1642135623731
 30
0.0
 40
0.9999999999999399
 50
180.0
 51
225.0
  0
LINE
  5
17D
  8
1
  6
CONTINUOUS
 62
     7
 10
685.3728344929109
 20
166.4699601363797
 30
0.0
 11
685.3728344929109
 21
159.0300398636203
 31
0.0
  0
LINE
  5
17E
  8
1
  6
CONTINUOUS
 62
     7
 10
652.9076308322633
 20
155.5618720139369
 30
0.0
 11
659.3271564689082
 21
155.5769905867271
 31
0.0
  0
LINE
  5
17F
  8
1
  6
CONTINUOUS
 62
     7
 10
652.9076308322633
 20
169.9381279860631
 30
0.0
 11
652.9076308322633
 21
155.5618720139369
 31
0.0
  0
LINE
  5
180
  8
1
  6
CONTINUOUS
 62
     7
 10
659.3271564689082
 20
169.9230094132729
 30
0.0
 11
660.0404069180624
 21
166.4699601363797
 31
0.0
  0
LINE
  5
181
  8
1
  6
CONTINUOUS
 62
     7
 10
684.671925228611
 20
155.5769905867271
 30
0.0
 11
685.3728344929109
 21
159.0300398636203
 31
0.0
  0
LINE
  5
182
  8
1
  6
CONTINUOUS
 62
     7
 10
771.0999999999999
 20
-10.25000000000001
 30
0.0
 11
738.0999999999999
 21
-10.25000000000001
 31
0.0
  0
LINE
  5
183
  8
1
  6
CONTINUOUS
 62
     7
 10
739.0999999999999
 20
-11.25000000000001
 30
0.0
 11
770.0999999999999
 21
-11.25000000000001
 31
0.0
  0
LINE
  5
184
  8
1
  6
CONTINUOUS
 62
     7
 10
774.0999999999999
 20
0.7308008908603266
 30
0.0
 11
735.0999999999999
 21
0.7308008908603266
 31
0.0
  0
LINE
  5
185
  8
1
  6
CONTINUOUS
 62
     7
 10
771.0999999999999
 20
97.75
 30
0.0
 11
738.0999999999999
 21
97.75
 31
0.0
  0
LINE
  5
186
  8
1
  6
CONTINUOUS
 62
     7
 10
773.8280832107932
 20
9.750000000000002
 30
0.0
 11
774.1
 21
9.750000000000002
 31
0.0
  0
LINE
  5
187
  8
1
  6
CONTINUOUS
 62
     7
 10
773.8622006517553
 20
81.74999999999999
 30
0.0
 11
774.1
 21
81.74999999999999
 31
0.0
  0
LINE
  5
188
  8
1
  6
CONTINUOUS
 62
     7
 10
735.3928932188134
 20
-0.5428932188134977
 30
0.0
 11
737.8071067811865
 21
-2.957106781186561
 31
0.0
  0
LINE
  5
189
  8
1
  6
CONTINUOUS
 62
     7
 10
771.3928932188135
 20
-2.957106781186561
 30
0.0
 11
773.8071067811865
 21
-0.5428932188134977
 31
0.0
  0
ARC
  5
18A
  8
1
  6
CONTINUOUS
 62
     7
 10
737.0999999999999
 20
-3.664213562373106
 30
0.0
 40
0.9999999999999399
 50
0.0
 51
45.0
  0
ARC
  5
18B
  8
1
  6
CONTINUOUS
 62
     7
 10
772.0999999999999
 20
-3.664213562373106
 30
0.0
 40
1.000000000000001
 50
135.0
 51
180.0
  0
LINE
  5
18C
  8
1
  6
CONTINUOUS
 62
     7
 10
738.0999999999999
 20
-3.664213562373106
 30
0.0
 11
738.0999999999999
 21
-10.25000000000001
 31
0.0
  0
LINE
  5
18D
  8
1
  6
CONTINUOUS
 62
     7
 10
771.0999999999999
 20
-10.25000000000001
 30
0.0
 11
771.0999999999999
 21
-3.664213562373106
 31
0.0
  0
LINE
  5
18E
  8
1
  6
CONTINUOUS
 62
     7
 10
738.0999999999999
 20
-10.25000000000001
 30
0.0
 11
739.0999999999999
 21
-11.25000000000001
 31
0.0
  0
LINE
  5
18F
  8
1
  6
CONTINUOUS
 62
     7
 10
770.0999999999999
 20
-11.25000000000001
 30
0.0
 11
771.0999999999999
 21
-10.25000000000001
 31
0.0
  0
LINE
  5
190
  8
1
  6
CONTINUOUS
 62
     7
 10
735.3377993482445
 20
81.74999999999999
 30
0.0
 11
735.0999999999998
 21
81.74999999999999
 31
0.0
  0
LINE
  5
191
  8
1
  6
CONTINUOUS
 62
     7
 10
773.8622006517553
 20
5.750000000000005
 30
0.0
 11
774.1
 21
5.750000000000005
 31
0.0
  0
LINE
  5
192
  8
1
  6
CONTINUOUS
 62
     7
 10
735.3719167892067
 20
9.750000000000002
 30
0.0
 11
735.0999999999998
 21
9.750000000000002
 31
0.0
  0
LINE
  5
193
  8
1
  6
CONTINUOUS
 62
     7
 10
735.3377993482445
 20
5.750000000000005
 30
0.0
 11
735.0999999999998
 21
5.750000000000005
 31
0.0
  0
ARC
  5
194
  8
1
  6
CONTINUOUS
 62
     7
 10
754.5999999999999
 20
83.1916340966839
 30
0.0
 40
61.44470026727239
 50
263.3187896171873
 51
276.6812103828129
  0
ARC
  5
195
  8
1
  6
CONTINUOUS
 62
     7
 10
773.0999999999999
 20
0.1642135623730542
 30
0.0
 40
1.000000000000021
 50
314.9999999999998
 51
0.0
  0
ARC
  5
196
  8
1
  6
CONTINUOUS
 62
     7
 10
736.0999999999999
 20
0.1642135623730542
 30
0.0
 40
1.000000000000001
 50
180.0
 51
225.0000000000003
  0
LINE
  5
197
  8
1
  6
CONTINUOUS
 62
     7
 10
739.0999999999999
 20
98.75
 30
0.0
 11
770.0999999999999
 21
98.75
 31
0.0
  0
ARC
  5
198
  8
1
  6
CONTINUOUS
 62
     7
 10
737.0999999999999
 20
91.16421356237309
 30
0.0
 40
1.000000000000001
 50
315.0000000000001
 51
0.0
  0
LINE
  5
199
  8
1
  6
CONTINUOUS
 62
     7
 10
773.8071067811865
 20
17.04289321881346
 30
0.0
 11
769.3928932188135
 21
21.45710678118655
 31
0.0
  0
ARC
  5
19A
  8
1
  6
CONTINUOUS
 62
     7
 10
772.0999999999999
 20
91.16421356237309
 30
0.0
 40
0.9999999999999376
 50
180.0
 51
224.9999999999999
  0
LINE
  5
19B
  8
1
  6
CONTINUOUS
 62
     7
 10
773.8071067811865
 20
88.04289321881349
 30
0.0
 11
771.3928932188135
 21
90.45710678118655
 31
0.0
  0
LINE
  5
19C
  8
1
  6
CONTINUOUS
 62
     7
 10
738.0999999999999
 20
97.75
 30
0.0
 11
738.0999999999999
 21
91.16421356237309
 31
0.0
  0
LINE
  5
19D
  8
1
  6
CONTINUOUS
 62
     7
 10
774.0999999999999
 20
9.750000000000009
 30
0.0
 11
774.0999999999999
 21
16.33578643762691
 31
0.0
  0
LINE
  5
19E
  8
1
  6
CONTINUOUS
 62
     7
 10
739.8071067811865
 20
21.45710678118655
 30
0.0
 11
735.3928932188134
 21
17.04289321881346
 31
0.0
  0
ARC
  5
19F
  8
1
  6
CONTINUOUS
 62
     7
 10
736.0999999999999
 20
87.33578643762694
 30
0.0
 40
1.000000000000026
 50
134.9999999999997
 51
180.0
  0
ARC
  5
1A0
  8
1
  6
CONTINUOUS
 62
     7
 10
736.0999999999999
 20
16.33578643762691
 30
0.0
 40
1.000000000000021
 50
134.9999999999998
 51
180.0
  0
ARC
  5
1A1
  8
1
  6
CONTINUOUS
 62
     7
 10
736.7999999999998
 20
86.25434439470251
 30
0.0
 40
0.5000000000000018
 50
82.4415590295772
 51
89.49999999999989
  0
LINE
  5
1A2
  8
1
  6
CONTINUOUS
 62
     7
 10
737.8071067811865
 20
90.45710678118655
 30
0.0
 11
735.3928932188134
 21
88.04289321881349
 31
0.0
  0
ARC
  5
1A3
  8
1
  6
CONTINUOUS
 62
     7
 10
773.0999999999999
 20
87.33578643762694
 30
0.0
 40
1.000000000000001
 50
0.0
 51
45.00000000000028
  0
ARC
  5
1A4
  8
1
  6
CONTINUOUS
 62
     7
 10
772.4
 20
86.25434439470251
 30
0.0
 40
0.5000000000000006
 50
90.50000000000016
 51
97.55844097042285
  0
LINE
  5
1A5
  8
1
  6
CONTINUOUS
 62
     7
 10
771.0999999999999
 20
97.75
 30
0.0
 11
770.0999999999999
 21
98.75
 31
0.0
  0
ARC
  5
1A6
  8
1
  6
CONTINUOUS
 62
     7
 10
773.0999999999999
 20
16.33578643762691
 30
0.0
 40
1.000000000000001
 50
0.0
 51
45.00000000000021
  0
LINE
  5
1A7
  8
1
  6
CONTINUOUS
 62
     7
 10
771.0999999999999
 20
91.16421356237309
 30
0.0
 11
771.0999999999999
 21
97.75
 31
0.0
  0
LINE
  5
1A8
  8
1
  6
CONTINUOUS
 62
     7
 10
739.0999999999999
 20
98.75
 30
0.0
 11
738.0999999999999
 21
97.75
 31
0.0
  0
LINE
  5
1A9
  8
1
  6
CONTINUOUS
 62
     7
 10
735.0999999999999
 20
16.33578643762691
 30
0.0
 11
735.0999999999999
 21
9.750000000000009
 31
0.0
  0
ARC
  5
1AA
  8
1
  6
CONTINUOUS
 62
     7
 10
739.0999999999999
 20
22.1642135623731
 30
0.0
 40
1.000000000000001
 50
314.9999999999999
 51
0.0
  0
ENDSEC
  0
EOF
