  0
SECTION
  2
HEADER
  9
$ACADVER
  1
AC1006
  9
$DWGCODEPAGE
  3
ansi_932
  9
$INSBASE
 10
0.0
 20
0.0
 30
0.0
  9
$EXTMIN
 10
902.95
 20
-27.57954545454546
  9
$EXTMAX
 10
1052.455853968821
 20
188.75
  9
$LIMMIN
 10
0.0
 20
0.0
  9
$LIMMAX
 10
12.0
 20
9.0
  9
$ORTHOMODE
 70
     0
  9
$REGENMODE
 70
     1
  9
$FILLMODE
 70
     1
  9
$QTEXTMODE
 70
     0
  9
$MIRRTEXT
 70
     1
  9
$DRAGMODE
 70
     2
  9
$LTSCALE
 40
1.0
  9
$OSMODE
 70
    37
  9
$ATTMODE
 70
     1
  9
$TEXTSIZE
 40
0.2
  9
$TRACEWID
 40
0.05
  9
$TEXTSTYLE
  7
STANDARD
  9
$CLAYER
  8
0
  9
$CELTYPE
  6
BYLAYER
  9
$CECOLOR
 62
   256
  9
$DIMSCALE
 40
1.0
  9
$DIMASZ
 40
3.0
  9
$DIMEXO
 40
0.0625
  9
$DIMDLI
 40
0.38
  9
$DIMRND
 40
0.0
  9
$DIMDLE
 40
0.0
  9
$DIMEXE
 40
1.5
  9
$DIMTP
 40
0.0
  9
$DIMTM
 40
0.0
  9
$DIMTXT
 40
3.0
  9
$DIMCEN
 40
0.09
  9
$DIMTSZ
 40
0.0
  9
$DIMTOL
 70
     0
  9
$DIMLIM
 70
     0
  9
$DIMTIH
 70
     1
  9
$DIMTOH
 70
     1
  9
$DIMSE1
 70
     0
  9
$DIMSE2
 70
     0
  9
$DIMTAD
 70
     1
  9
$DIMZIN
 70
     0
  9
$DIMBLK
  1

  9
$DIMASO
 70
     1
  9
$DIMSHO
 70
     1
  9
$DIMPOST
  1

  9
$DIMAPOST
  1

  9
$DIMALT
 70
     0
  9
$DIMALTD
 70
     2
  9
$DIMALTF
 40
25.4
  9
$DIMLFAC
 40
1.0
  9
$DIMTOFL
 70
     0
  9
$DIMTVP
 40
0.0
  9
$DIMTIX
 70
     0
  9
$DIMSOXD
 70
     0
  9
$DIMSAH
 70
     0
  9
$DIMBLK1
  1

  9
$DIMBLK2
  1

  9
$LUNITS
 70
     2
  9
$LUPREC
 70
     4
  9
$SKETCHINC
 40
0.1
  9
$FILLETRAD
 40
0.5
  9
$AUNITS
 70
     0
  9
$AUPREC
 70
     0
  9
$MENU
  1
.
  9
$ELEVATION
 40
0.0
  9
$THICKNESS
 40
0.0
  9
$LIMCHECK
 70
     0
  9
$CHAMFERA
 40
0.0
  9
$CHAMFERB
 40
0.0
  9
$SKPOLY
 70
     0
  9
$TDCREATE
 40
2459692.408039688
  9
$TDUPDATE
 40
2459692.408039861
  9
$TDINDWG
 40
0.0000000116
  9
$TDUSRTIMER
 40
0.0000000116
  9
$USRTIMER
 70
     1
  9
$ANGBASE
 50
0.0
  9
$ANGDIR
 70
     0
  9
$PDMODE
 70
     0
  9
$PDSIZE
 40
0.0
  9
$PLINEWID
 40
0.0
  9
$COORDS
 70
     1
  9
$SPLFRAME
 70
     0
  9
$SPLINETYPE
 70
     6
  9
$SPLINESEGS
 70
     8
  9
$ATTDIA
 70
     0
  9
$ATTREQ
 70
     1
  9
$HANDLING
 70
     1
  9
$HANDSEED
  5
195
  9
$SURFTAB1
 70
     6
  9
$SURFTAB2
 70
     6
  9
$SURFTYPE
 70
     6
  9
$SURFU
 70
     6
  9
$SURFV
 70
     6
  9
$UCSNAME
  2

  9
$UCSORG
 10
0.0
 20
0.0
 30
0.0
  9
$UCSXDIR
 10
1.0
 20
0.0
 30
0.0
  9
$UCSYDIR
 10
0.0
 20
1.0
 30
0.0
  9
$USERI1
 70
     0
  9
$USERI2
 70
     0
  9
$USERI3
 70
     0
  9
$USERI4
 70
     0
  9
$USERI5
 70
     0
  9
$USERR1
 40
0.0
  9
$USERR2
 40
0.0
  9
$USERR3
 40
0.0
  9
$USERR4
 40
0.0
  9
$USERR5
 40
0.0
  9
$WORLDVIEW
 70
     1
  0
ENDSEC
  0
SECTION
  2
TABLES
  0
TABLE
  2
VPORT
 70
     1
  0
VPORT
  2
*ACTIVE
 70
     0
 10
0.0
 20
0.0
 11
1.0
 21
1.0
 12
977.7029269844103
 22
80.58522727272727
 13
0.0
 23
0.0
 14
0.5
 24
0.5
 15
0.5
 25
0.5
 16
0.0
 26
0.0
 36
1.0
 17
0.0
 27
0.0
 37
0.0
 40
216.3295454545455
 41
1.6
 42
50.0
 43
0.0
 44
0.0
 50
0.0
 51
0.0
 71
     0
 72
   100
 73
     1
 74
     3
 75
     0
 76
     0
 77
     0
 78
     0
  0
ENDTAB
  0
TABLE
  2
LTYPE
 70
     2
  0
LTYPE
  2
CONTINUOUS
 70
     0
  3
Solid line
 72
    65
 73
     0
 40
0.0
  0
LTYPE
  2
CENTER
 70
     0
  3

 72
    65
 73
     0
 40
0.0
  0
ENDTAB
  0
TABLE
  2
LAYER
 70
     2
  0
LAYER
  2
0
 70
     0
 62
     7
  6
CONTINUOUS
  0
LAYER
  2
1
 70
     0
 62
     7
  6
CONTINUOUS
  0
ENDTAB
  0
TABLE
  2
STYLE
 70
     2
  0
STYLE
  2
STANDARD
 70
     0
 40
0.0
 41
1.0
 50
0.0
 71
     0
 42
0.2
  3
txt
  4

  0
STYLE
  2
ＭＳ_ゴシック
 70
     0
 40
0.0
 41
1.0
 50
0.0
 71
     0
 42
0.2
  3
ＭＳ ゴシック.shx
  4

  0
ENDTAB
  0
TABLE
  2
VIEW
 70
     0
  0
ENDTAB
  0
TABLE
  2
UCS
 70
     0
  0
ENDTAB
  0
ENDSEC
  0
SECTION
  2
BLOCKS
  0
BLOCK
  8
0
  2
D_FRAME_VIEW_4114
 70
     0
 10
0.0
 20
0.0
 30
0.0
  0
ENDBLK
  8
0
  0
BLOCK
  8
0
  2
D_FRAME_VIEW_3563
 70
     0
 10
0.0
 20
0.0
 30
0.0
  0
ENDBLK
  8
0
  0
BLOCK
  8
0
  2
D_FRAME_VIEW_3950
 70
     0
 10
0.0
 20
0.0
 30
0.0
  0
ENDBLK
  8
0
  0
ENDSEC
  0
SECTION
  2
ENTITIES
  0
LINE
  5
70
  8
1
  6
CENTER
 62
     1
 10
902.95
 20
163.75
 30
0.0
 11
992.95
 21
163.75
 31
0.0
  0
LINE
  5
72
  8
1
  6
CENTER
 62
     1
 10
1032.95
 20
128.75
 30
0.0
 11
1032.95
 21
-21.24999999999996
 31
0.0
  0
LINE
  5
73
  8
1
  6
CENTER
 62
     1
 10
925.0271655070892
 20
138.75
 30
0.0
 11
925.0271655070892
 21
188.75
 31
0.0
  0
LINE
  5
74
  8
1
  6
CENTER
 62
     1
 10
925.0271655070891
 20
37.75000000000019
 30
0.0
 11
981.9885827535447
 21
94.71141724645537
 31
0.0
  0
LINE
  5
75
  8
1
  6
CENTER
 62
     1
 10
925.0271655070891
 20
128.75
 30
0.0
 11
925.0271655070891
 21
-16.24999999999999
 31
0.0
  0
INSERT
  5
77
  8
1
  6
CONTINUOUS
 62
     7
  2
D_FRAME_VIEW_4114
 10
0.0
 20
0.0
 30
0.0
  0
INSERT
  5
7B
  8
1
  6
CONTINUOUS
 62
     7
  2
D_FRAME_VIEW_3563
 10
0.0
 20
0.0
 30
0.0
  0
INSERT
  5
7F
  8
1
  6
CONTINUOUS
 62
     7
  2
D_FRAME_VIEW_3950
 10
0.0
 20
0.0
 30
0.0
  0
ARC
  5
80
  8
1
  6
CONTINUOUS
 62
     7
 10
-6871.484887519973
 20
150.5076383699884
 30
0.0
 40
7923.935233934125
 50
359.5675816636031
 51
359.5751348203076
  0
ARC
  5
81
  8
1
  6
CONTINUOUS
 62
     7
 10
1032.193800850135
 20
98.84022309958043
 30
0.0
 40
22.71784250568176
 50
253.0291881635215
 51
253.5912982825273
  0
ARC
  5
82
  8
1
  6
CONTINUOUS
 62
     7
 10
1035.311965044189
 20
109.0578924909087
 30
0.0
 40
33.40071270668894
 50
247.0598828114996
 51
253.0291881635212
  0
ARC
  5
83
  8
1
  6
CONTINUOUS
 62
     7
 10
1027.363410413098
 20
90.2777227979401
 30
0.0
 40
13.00771649671214
 50
231.6930462631952
 51
247.0598828115035
  0
ARC
  5
84
  8
1
  6
CONTINUOUS
 62
     7
 10
1031.462574642913
 20
95.46687003166579
 30
0.0
 40
19.62061271518383
 50
214.8758636780444
 51
231.6930462631952
  0
ARC
  5
85
  8
1
  6
CONTINUOUS
 62
     7
 10
1023.220637727193
 20
89.72237534167058
 30
0.0
 40
9.574282869608597
 50
179.9999999999998
 51
214.8758636780472
  0
ARC
  5
86
  8
1
  6
CONTINUOUS
 62
     7
 10
1023.220637727193
 20
89.72237534167064
 30
0.0
 40
9.574282869608597
 50
179.2871304959459
 51
180.0000000000002
  0
ARC
  5
87
  8
1
  6
CONTINUOUS
 62
     7
 10
697292.2203265179
 20
36453.77222173177
 30
0.0
 40
697322.9004595571
 50
182.994977879138
 51
182.9953069891513
  0
ARC
  5
88
  8
1
  6
CONTINUOUS
 62
     7
 10
697292.2203216087
 20
-36346.27222147431
 30
0.0
 40
697322.9004546411
 50
177.0046930108488
 51
177.0050221208619
  0
ARC
  5
89
  8
1
  6
CONTINUOUS
 62
     7
 10
-6871.484887519988
 20
-43.00763836998855
 30
0.0
 40
7923.935233934139
 50
0.4248651796923399
 51
0.4537891930551715
  0
ARC
  5
8A
  8
1
  6
CONTINUOUS
 62
     7
 10
8937.384887519986
 20
-43.00763836998857
 30
0.0
 40
7923.935233934137
 50
179.5462108069448
 51
179.5751348203077
  0
ARC
  5
8B
  8
1
  6
CONTINUOUS
 62
     7
 10
-695442.1659905929
 20
-36346.27222147431
 30
0.0
 40
697322.9004546393
 50
2.994977879137991
 51
2.995306989151118
  0
ARC
  5
8C
  8
1
  6
CONTINUOUS
 62
     7
 10
8937.384887519975
 20
150.5076383699884
 30
0.0
 40
7923.935233934127
 50
180.4248651796923
 51
180.4324183363968
  0
ARC
  5
8D
  8
1
  6
CONTINUOUS
 62
     7
 10
-695442.1659955056
 20
36453.77222173178
 30
0.0
 40
697322.9004595589
 50
357.0046930108487
 51
357.0050221208618
  0
ARC
  5
8E
  8
1
  6
CONTINUOUS
 62
     7
 10
1032.233316607028
 20
81.78806745164965
 30
0.0
 40
21.53070451201957
 50
98.02290977928892
 51
106.9708118364785
  0
ARC
  5
8F
  8
1
  6
CONTINUOUS
 62
     7
 10
1035.188538779439
 20
72.10433008040994
 30
0.0
 40
31.65533327377938
 50
106.9708118364778
 51
112.9401171884994
  0
ARC
  5
90
  8
1
  6
CONTINUOUS
 62
     7
 10
1027.655341865301
 20
89.90312784229286
 30
0.0
 40
12.32798846090908
 50
112.9401171884944
 51
128.3069537368046
  0
ARC
  5
91
  8
1
  6
CONTINUOUS
 62
     7
 10
1031.540301176746
 20
84.98514341085857
 30
0.0
 40
18.59532280011685
 50
128.3069537368044
 51
145.1241363219556
  0
ARC
  5
92
  8
1
  6
CONTINUOUS
 62
     7
 10
1023.729052890529
 20
90.42945519839769
 30
0.0
 40
9.073971497446376
 50
145.1241363219545
 51
180.0000000000003
  0
ARC
  5
93
  8
1
  6
CONTINUOUS
 62
     7
 10
1023.729052890529
 20
90.4294551983976
 30
0.0
 40
9.073971497446376
 50
179.9999999999997
 51
214.8758636780455
  0
ARC
  5
94
  8
1
  6
CONTINUOUS
 62
     7
 10
1031.540301176746
 20
95.87376698593684
 30
0.0
 40
18.59532280011693
 50
214.8758636780447
 51
231.6930462631958
  0
ARC
  5
95
  8
1
  6
CONTINUOUS
 62
     7
 10
1027.655341865301
 20
90.95578255450282
 30
0.0
 40
12.3279884609095
 50
231.6930462631956
 51
247.0598828115053
  0
ARC
  5
96
  8
1
  6
CONTINUOUS
 62
     7
 10
1035.18853877944
 20
108.7545803163879
 30
0.0
 40
31.65533327378207
 50
247.059882811501
 51
253.0291881635219
  0
ARC
  5
97
  8
1
  6
CONTINUOUS
 62
     7
 10
1032.233316607029
 20
99.07084294514803
 30
0.0
 40
21.53070451202205
 50
253.0291881635218
 51
261.9770902207102
  0
ARC
  5
98
  8
1
  6
CONTINUOUS
 62
     7
 10
1030.599847244778
 20
92.13705167288856
 30
0.0
 40
33.23367430309074
 50
286.9708118364788
 51
291.2918146126398
  0
ARC
  5
99
  8
1
  6
CONTINUOUS
 62
     7
 10
1033.702417365329
 20
81.97048128648656
 30
0.0
 40
22.60422959630546
 50
277.5271176533678
 51
286.9708118364786
  0
ARC
  5
9A
  8
1
  6
CONTINUOUS
 62
     7
 10
1032.95
 20
87.66483121121561
 30
0.0
 40
28.34807438502591
 50
270.0
 51
277.5271176533695
  0
ARC
  5
9B
  8
1
  6
CONTINUOUS
 62
     7
 10
1032.95
 20
87.66483121121561
 30
0.0
 40
28.34807438502591
 50
262.4728823466305
 51
270.0
  0
ARC
  5
9C
  8
1
  6
CONTINUOUS
 62
     7
 10
1032.19758263467
 20
81.97048128648656
 30
0.0
 40
22.60422959630546
 50
253.0291881635215
 51
262.4728823466322
  0
ARC
  5
9D
  8
1
  6
CONTINUOUS
 62
     7
 10
1035.300152755223
 20
92.13705167289106
 30
0.0
 40
33.23367430309332
 50
248.7641672968379
 51
253.0291881635214
  0
ARC
  5
9E
  8
1
  6
CONTINUOUS
 62
     7
 10
986.3480084522333
 20
163.0333166070276
 30
0.0
 40
21.530704512018
 50
188.0229097792883
 51
196.9708118364788
  0
ARC
  5
9F
  8
1
  6
CONTINUOUS
 62
     7
 10
996.0317458234945
 20
165.9885387794455
 30
0.0
 40
31.65533327380034
 50
196.9708118364787
 51
202.9401171884962
  0
ARC
  5
A0
  8
1
  6
CONTINUOUS
 62
     7
 10
978.2329480615941
 20
158.4553418653031
 30
0.0
 40
12.32798846091215
 50
202.9401171884988
 51
218.3069537368043
  0
ARC
  5
A1
  8
1
  6
CONTINUOUS
 62
     7
 10
983.1509324930278
 20
162.3403011767475
 30
0.0
 40
18.59532280011912
 50
218.3069537368042
 51
235.1241363219533
  0
ARC
  5
A2
  8
1
  6
CONTINUOUS
 62
     7
 10
977.7066207054869
 20
154.5290528905296
 30
0.0
 40
9.073971497446848
 50
235.1241363219557
 51
270.0
  0
ARC
  5
A3
  8
1
  6
CONTINUOUS
 62
     7
 10
977.7066207054869
 20
154.5290528905296
 30
0.0
 40
9.073971497446848
 50
270.0
 51
304.8758636780443
  0
ARC
  5
A4
  8
1
  6
CONTINUOUS
 62
     7
 10
972.2623089179459
 20
162.3403011767475
 30
0.0
 40
18.59532280011912
 50
304.8758636780466
 51
321.6930462631958
  0
ARC
  5
A5
  8
1
  6
CONTINUOUS
 62
     7
 10
977.1802933493796
 20
158.4553418653031
 30
0.0
 40
12.32798846091215
 50
321.6930462631958
 51
337.0598828115013
  0
ARC
  5
A6
  8
1
  6
CONTINUOUS
 62
     7
 10
959.3814955874792
 20
165.9885387794455
 30
0.0
 40
31.65533327380034
 50
337.0598828115038
 51
343.0291881635214
  0
ARC
  5
A7
  8
1
  6
CONTINUOUS
 62
     7
 10
969.0652329587404
 20
163.0333166070276
 30
0.0
 40
21.530704512018
 50
343.0291881635214
 51
351.9770902207117
  0
ARC
  5
A8
  8
1
  6
CONTINUOUS
 62
     7
 10
967.8816930908455
 20
162.9938008501365
 30
0.0
 40
22.7178425056865
 50
343.0291881635214
 51
343.5912982825269
  0
ARC
  5
A9
  8
1
  6
CONTINUOUS
 62
     7
 10
957.6640236994914
 20
166.1119650441984
 30
0.0
 40
33.40071270672063
 50
337.0598828115051
 51
343.0291881635212
  0
ARC
  5
AA
  8
1
  6
CONTINUOUS
 62
     7
 10
976.4441933924876
 20
158.1634104131006
 30
0.0
 40
13.00771649671566
 50
321.6930462631956
 51
337.0598828114994
  0
ARC
  5
AB
  8
1
  6
CONTINUOUS
 62
     7
 10
971.2550461587639
 20
162.2625746429137
 30
0.0
 40
19.62061271518468
 50
304.8758636780456
 51
321.6930462631958
  0
ARC
  5
AC
  8
1
  6
CONTINUOUS
 62
     7
 10
976.9995408487598
 20
154.0206377271933
 30
0.0
 40
9.574282869608847
 50
270.7128695040537
 51
304.875863678046
  0
ARC
  5
AD
  8
1
  6
CONTINUOUS
 62
     7
 10
976.9995408487598
 20
173.4793622728068
 30
0.0
 40
9.574282869608764
 50
55.12413632195364
 51
89.28713049594616
  0
ARC
  5
AE
  8
1
  6
CONTINUOUS
 62
     7
 10
971.2550461587643
 20
165.2374253570867
 30
0.0
 40
19.62061271518409
 50
38.30695373680419
 51
55.124136321955
  0
ARC
  5
AF
  8
1
  6
CONTINUOUS
 62
     7
 10
976.4441933924876
 20
169.3365895868995
 30
0.0
 40
13.00771649671566
 50
22.94011718850061
 51
38.30695373680442
  0
ARC
  5
B0
  8
1
  6
CONTINUOUS
 62
     7
 10
957.6640236994914
 20
161.3880349558016
 30
0.0
 40
33.40071270672063
 50
16.97081183647867
 51
22.94011718849492
  0
ARC
  5
B1
  8
1
  6
CONTINUOUS
 62
     7
 10
967.8816930908455
 20
164.5061991498635
 30
0.0
 40
22.7178425056865
 50
16.40870171747303
 51
16.97081183647861
  0
ARC
  5
B2
  8
1
  6
CONTINUOUS
 62
     7
 10
961.089611347603
 20
153.9216715718706
 30
0.0
 40
9.671671571870654
 50
270.0
 51
270.7128695040544
  0
ARC
  5
B3
  8
1
  6
CONTINUOUS
 62
     7
 10
961.089611347603
 20
153.9216715718707
 30
0.0
 40
9.671671571870737
 50
235.1241363219549
 51
270.0
  0
ARC
  5
B4
  8
1
  6
CONTINUOUS
 62
     7
 10
966.8925384957399
 20
162.2474446924821
 30
0.0
 40
19.82019173702196
 50
218.3069537368042
 51
235.124136321954
  0
ARC
  5
B5
  8
1
  6
CONTINUOUS
 62
     7
 10
961.6506077458147
 20
158.1065841507717
 30
0.0
 40
13.14002976197175
 50
202.9401171884961
 51
218.306953736804
  0
ARC
  5
B6
  8
1
  6
CONTINUOUS
 62
     7
 10
980.6218075534815
 20
166.1359907298306
 30
0.0
 40
33.74046160584949
 50
196.9708118364789
 51
202.9401171884992
  0
ARC
  5
B7
  8
1
  6
CONTINUOUS
 62
     7
 10
970.3002049928699
 20
162.9861088637105
 30
0.0
 40
22.94892625680229
 50
187.5271176533687
 51
196.9708118364788
  0
ARC
  5
B8
  8
1
  6
CONTINUOUS
 62
     7
 10
976.0813892595635
 20
163.75
 30
0.0
 40
28.78036014509821
 50
180.0
 51
187.5271176533708
  0
ARC
  5
B9
  8
1
  6
CONTINUOUS
 62
     7
 10
976.0813892595635
 20
163.75
 30
0.0
 40
28.78036014509821
 50
172.4728823466293
 51
180.0
  0
ARC
  5
BA
  8
1
  6
CONTINUOUS
 62
     7
 10
970.3002049928695
 20
164.5138911362896
 30
0.0
 40
22.94892625680184
 50
163.0291881635212
 51
172.4728823466315
  0
ARC
  5
BB
  8
1
  6
CONTINUOUS
 62
     7
 10
980.6218075534803
 20
161.3640092701698
 30
0.0
 40
33.74046160584819
 50
157.0598828115009
 51
163.0291881635212
  0
ARC
  5
BC
  8
1
  6
CONTINUOUS
 62
     7
 10
961.6506077458146
 20
169.3934158492284
 30
0.0
 40
13.14002976197163
 50
141.693046263196
 51
157.0598828115041
  0
ARC
  5
BD
  8
1
  6
CONTINUOUS
 62
     7
 10
966.8925384957394
 20
165.2525553075184
 30
0.0
 40
19.82019173702119
 50
124.8758636780456
 51
141.693046263196
  0
ARC
  5
BE
  8
1
  6
CONTINUOUS
 62
     7
 10
961.089611347603
 20
173.5783284281294
 30
0.0
 40
9.671671571870654
 50
90.0
 51
124.8758636780455
  0
ARC
  5
BF
  8
1
  6
CONTINUOUS
 62
     7
 10
976.9995408487598
 20
154.0206377271933
 30
0.0
 40
9.574282869608847
 50
270.0
 51
270.7128695040537
  0
ARC
  5
C0
  8
1
  6
CONTINUOUS
 62
     7
 10
976.9995408487598
 20
154.0206377271932
 30
0.0
 40
9.574282869608764
 50
235.1241363219537
 51
270.0
  0
ARC
  5
C1
  8
1
  6
CONTINUOUS
 62
     7
 10
982.7440355387553
 20
162.2625746429134
 30
0.0
 40
19.62061271518409
 50
218.3069537368042
 51
235.124136321955
  0
ARC
  5
C2
  8
1
  6
CONTINUOUS
 62
     7
 10
977.5548883050321
 20
158.1634104131006
 30
0.0
 40
13.00771649671566
 50
202.9401171885006
 51
218.3069537368044
  0
ARC
  5
C3
  8
1
  6
CONTINUOUS
 62
     7
 10
996.3350579980282
 20
166.1119650441984
 30
0.0
 40
33.40071270672063
 50
196.9708118364787
 51
202.9401171884949
  0
ARC
  5
C4
  8
1
  6
CONTINUOUS
 62
     7
 10
986.1173886066741
 20
162.9938008501365
 30
0.0
 40
22.7178425056865
 50
196.4087017174729
 51
196.9708118364785
  0
ARC
  5
C5
  8
1
  6
CONTINUOUS
 62
     7
 10
1042.679362272807
 20
89.72237534167066
 30
0.0
 40
9.574282869608597
 50
359.9999999999998
 51
0.7128695040540265
  0
ARC
  5
C6
  8
1
  6
CONTINUOUS
 62
     7
 10
1042.679362272807
 20
89.72237534167058
 30
0.0
 40
9.574282869608597
 50
325.1241363219528
 51
0.0000000000001705
  0
ARC
  5
C7
  8
1
  6
CONTINUOUS
 62
     7
 10
1034.437425357087
 20
95.46687003166579
 30
0.0
 40
19.62061271518383
 50
308.3069537368048
 51
325.1241363219556
  0
ARC
  5
C8
  8
1
  6
CONTINUOUS
 62
     7
 10
1038.536589586901
 20
90.27772279794031
 30
0.0
 40
13.00771649671244
 50
292.940117188497
 51
308.3069537368049
  0
ARC
  5
C9
  8
1
  6
CONTINUOUS
 62
     7
 10
1030.58803495581
 20
109.0578924909126
 30
0.0
 40
33.40071270669308
 50
286.970811836479
 51
292.9401171884999
  0
ARC
  5
CA
  8
1
  6
CONTINUOUS
 62
     7
 10
1033.706199149865
 20
98.84022309958043
 30
0.0
 40
22.71784250568176
 50
286.4087017174727
 51
286.9708118364786
  0
ARC
  5
CB
  8
1
  6
CONTINUOUS
 62
     7
 10
1042.778328428129
 20
73.81244584051376
 30
0.0
 40
9.671671571870988
 50
0.0000000000002274
 51
0.7128695040544244
  0
ARC
  5
CC
  8
1
  6
CONTINUOUS
 62
     7
 10
979.4142171799592
 20
166.1001527552166
 30
0.0
 40
33.23367430307145
 50
196.9708118364788
 51
201.3724293857134
  0
ARC
  5
CD
  8
1
  6
CONTINUOUS
 62
     7
 10
969.2476467935692
 20
162.9975826346687
 30
0.0
 40
22.6042295962987
 50
187.5271176533652
 51
196.9708118364785
  0
ARC
  5
CE
  8
1
  6
CONTINUOUS
 62
     7
 10
974.9419967182993
 20
163.75
 30
0.0
 40
28.3480743850204
 50
180.0000000000001
 51
187.5271176533708
  0
ARC
  5
CF
  8
1
  6
CONTINUOUS
 62
     7
 10
1042.778328428129
 20
73.81244584051376
 30
0.0
 40
9.671671571870766
 50
325.1241363219557
 51
0.0000000000002274
  0
ARC
  5
D0
  8
1
  6
CONTINUOUS
 62
     7
 10
1034.452555307518
 20
79.61537298865085
 30
0.0
 40
19.82019173702221
 50
308.3069537368051
 51
325.1241363219547
  0
ARC
  5
D1
  8
1
  6
CONTINUOUS
 62
     7
 10
1038.593415849228
 20
74.37344223872589
 30
0.0
 40
13.1400297619723
 50
292.9401171884965
 51
308.3069537368046
  0
ARC
  5
D2
  8
1
  6
CONTINUOUS
 62
     7
 10
1030.564009270171
 20
93.3446420463894
 30
0.0
 40
33.74046160584639
 50
286.9708118364786
 51
292.9401171884992
  0
ARC
  5
D3
  8
1
  6
CONTINUOUS
 62
     7
 10
1033.71389113629
 20
83.02303948577872
 30
0.0
 40
22.94892625680015
 50
277.5271176533672
 51
286.9708118364786
  0
ARC
  5
D4
  8
1
  6
CONTINUOUS
 62
     7
 10
1032.95
 20
88.80422375247912
 30
0.0
 40
28.78036014510303
 50
270.0
 51
277.5271176533694
  0
ARC
  5
D5
  8
1
  6
CONTINUOUS
 62
     7
 10
1032.95
 20
88.80422375247912
 30
0.0
 40
28.78036014510303
 50
262.4728823466305
 51
270.0
  0
ARC
  5
D6
  8
1
  6
CONTINUOUS
 62
     7
 10
1032.18610886371
 20
83.02303948577902
 30
0.0
 40
22.94892625680049
 50
253.0291881635212
 51
262.4728823466323
  0
ARC
  5
D7
  8
1
  6
CONTINUOUS
 62
     7
 10
1035.335990729829
 20
93.34464204638681
 30
0.0
 40
33.74046160584373
 50
247.0598828115
 51
253.0291881635212
  0
ARC
  5
D8
  8
1
  6
CONTINUOUS
 62
     7
 10
1027.306584150772
 20
74.37344223872539
 30
0.0
 40
13.14002976197177
 50
231.6930462631949
 51
247.0598828115035
  0
ARC
  5
D9
  8
1
  6
CONTINUOUS
 62
     7
 10
1031.447444692482
 20
79.61537298865085
 30
0.0
 40
19.82019173702221
 50
214.8758636780453
 51
231.6930462631949
  0
ARC
  5
DA
  8
1
  6
CONTINUOUS
 62
     7
 10
1023.121671571871
 20
73.8124458405138
 30
0.0
 40
9.671671571870766
 50
180.0
 51
214.8758636780446
  0
ARC
  5
DB
  8
1
  6
CONTINUOUS
 62
     7
 10
1023.121671571871
 20
73.8124458405138
 30
0.0
 40
9.671671571870766
 50
179.2871304959458
 51
180.0
  0
ARC
  5
DC
  8
1
  6
CONTINUOUS
 62
     7
 10
1033.666683392972
 20
99.07084294514695
 30
0.0
 40
21.53070451202088
 50
278.022909779289
 51
286.9708118364779
  0
ARC
  5
DD
  8
1
  6
CONTINUOUS
 62
     7
 10
1030.711461220561
 20
108.7545803163842
 30
0.0
 40
31.65533327377819
 50
286.970811836478
 51
292.9401171884998
  0
ARC
  5
DE
  8
1
  6
CONTINUOUS
 62
     7
 10
1038.244658134699
 20
90.95578255450269
 30
0.0
 40
12.32798846090927
 50
292.9401171884939
 51
308.306953736804
  0
ARC
  5
DF
  8
1
  6
CONTINUOUS
 62
     7
 10
1034.359698823254
 20
95.87376698593683
 30
0.0
 40
18.59532280011691
 50
308.3069537368042
 51
325.1241363219553
  0
ARC
  5
E0
  8
1
  6
CONTINUOUS
 62
     7
 10
1042.170947109471
 20
90.4294551983976
 30
0.0
 40
9.073971497446376
 50
325.1241363219544
 51
0.0000000000002274
  0
ARC
  5
E1
  8
1
  6
CONTINUOUS
 62
     7
 10
1042.170947109471
 20
90.42945519839769
 30
0.0
 40
9.073971497446376
 50
359.9999999999997
 51
34.87586367804555
  0
ARC
  5
E2
  8
1
  6
CONTINUOUS
 62
     7
 10
1034.359698823254
 20
84.98514341085846
 30
0.0
 40
18.59532280011693
 50
34.87586367804475
 51
51.69304626319584
  0
ARC
  5
E3
  8
1
  6
CONTINUOUS
 62
     7
 10
1038.244658134699
 20
89.90312784229248
 30
0.0
 40
12.3279884609095
 50
51.69304626319558
 51
67.05988281150533
  0
ARC
  5
E4
  8
1
  6
CONTINUOUS
 62
     7
 10
1030.71146122056
 20
72.1043300804074
 30
0.0
 40
31.65533327378207
 50
67.05988281150108
 51
73.0291881635219
  0
ARC
  5
E5
  8
1
  6
CONTINUOUS
 62
     7
 10
1033.666683392971
 20
81.78806745164727
 30
0.0
 40
21.53070451202205
 50
73.02918816352181
 51
81.97709022071017
  0
ARC
  5
E6
  8
1
  6
CONTINUOUS
 62
     7
 10
1038.157634924718
 20
74.90257335319895
 30
0.0
 40
14.44257266123596
 50
288.2889736906972
 51
350.989527507355
  0
ARC
  5
E7
  8
1
  6
CONTINUOUS
 62
     7
 10
1027.532456771477
 20
74.71992808943743
 30
0.0
 40
14.20673338626714
 50
188.3779973474336
 51
252.414775263255
  0
ARC
  5
E8
  8
1
  6
CONTINUOUS
 62
     7
 10
961.089611347603
 20
173.5783284281293
 30
0.0
 40
9.671671571870737
 50
89.28713049594552
 51
90.0
  0
ARC
  5
E9
  8
1
  6
CONTINUOUS
 62
     7
 10
1032.95
 20
94.94662810498998
 30
0.0
 40
25.4676225078251
 50
253.5317349963595
 51
270.0
  0
ARC
  5
EA
  8
1
  6
CONTINUOUS
 62
     7
 10
1032.95
 20
94.94662810498919
 30
0.0
 40
25.46762250782431
 50
270.0
 51
286.468265003641
  0
ARC
  5
EB
  8
1
  6
CONTINUOUS
 62
     7
 10
982.2237936120781
 20
163.75
 30
0.0
 40
25.46762250782408
 50
163.5317349963588
 51
180.0
  0
ARC
  5
EC
  8
1
  6
CONTINUOUS
 62
     7
 10
982.2237936120781
 20
163.75
 30
0.0
 40
25.46762250782408
 50
180.0
 51
196.4682650036412
  0
ARC
  5
ED
  8
1
  6
CONTINUOUS
 62
     7
 10
986.1173886066741
 20
164.5061991498635
 30
0.0
 40
22.7178425056865
 50
163.0291881635213
 51
163.5912982825271
  0
ARC
  5
EE
  8
1
  6
CONTINUOUS
 62
     7
 10
996.3350579980282
 20
161.3880349558016
 30
0.0
 40
33.40071270672063
 50
157.059882811505
 51
163.0291881635212
  0
ARC
  5
EF
  8
1
  6
CONTINUOUS
 62
     7
 10
977.5548883050321
 20
169.3365895868995
 30
0.0
 40
13.00771649671566
 50
141.6930462631956
 51
157.0598828114994
  0
ARC
  5
F0
  8
1
  6
CONTINUOUS
 62
     7
 10
982.7440355387557
 20
165.2374253570863
 30
0.0
 40
19.62061271518468
 50
124.8758636780455
 51
141.6930462631958
  0
ARC
  5
F1
  8
1
  6
CONTINUOUS
 62
     7
 10
976.9995408487598
 20
173.4793622728067
 30
0.0
 40
9.574282869608847
 50
90.0
 51
124.875863678046
  0
ARC
  5
F2
  8
1
  6
CONTINUOUS
 62
     7
 10
976.9995408487598
 20
173.4793622728068
 30
0.0
 40
9.574282869608764
 50
89.28713049594616
 51
90.0
  0
ARC
  5
F3
  8
1
  6
CONTINUOUS
 62
     7
 10
1033.706199149865
 20
80.60452758376182
 30
0.0
 40
22.71784250568071
 50
73.0291881635212
 51
73.59129828252715
  0
ARC
  5
F4
  8
1
  6
CONTINUOUS
 62
     7
 10
1030.588034955811
 20
70.38685819243135
 30
0.0
 40
33.40071270669022
 50
67.0598828114996
 51
73.0291881635211
  0
ARC
  5
F5
  8
1
  6
CONTINUOUS
 62
     7
 10
1038.536589586902
 20
89.16702788540113
 30
0.0
 40
13.00771649671214
 50
51.69304626319524
 51
67.05988281150348
  0
ARC
  5
F6
  8
1
  6
CONTINUOUS
 62
     7
 10
1034.437425357087
 20
83.97788065167543
 30
0.0
 40
19.62061271518383
 50
34.87586367804448
 51
51.69304626319524
  0
ARC
  5
F7
  8
1
  6
CONTINUOUS
 62
     7
 10
1042.679362272807
 20
89.72237534167064
 30
0.0
 40
9.574282869608597
 50
0.712869504054197
 51
34.87586367804715
  0
ARC
  5
F8
  8
1
  6
CONTINUOUS
 62
     7
 10
974.9419967182993
 20
163.75
 30
0.0
 40
28.3480743850204
 50
172.472882346629
 51
180.0
  0
ARC
  5
F9
  8
1
  6
CONTINUOUS
 62
     7
 10
969.2476467935684
 20
164.5024173653315
 30
0.0
 40
22.60422959629791
 50
163.029188163521
 51
172.4728823466348
  0
ARC
  5
FA
  8
1
  6
CONTINUOUS
 62
     7
 10
979.4142171799567
 20
161.3998472447843
 30
0.0
 40
33.23367430306875
 50
158.6746744532569
 51
163.0291881635213
  0
ARC
  5
FB
  8
1
  6
CONTINUOUS
 62
     7
 10
969.0652329587404
 20
164.4666833929724
 30
0.0
 40
21.530704512018
 50
8.022909779288339
 51
16.97081183647875
  0
ARC
  5
FC
  8
1
  6
CONTINUOUS
 62
     7
 10
959.3814955874792
 20
161.5114612205545
 30
0.0
 40
31.65533327380034
 50
16.97081183647866
 51
22.94011718849624
  0
ARC
  5
FD
  8
1
  6
CONTINUOUS
 62
     7
 10
977.1802933493796
 20
169.0446581346969
 30
0.0
 40
12.32798846091215
 50
22.94011718849881
 51
38.3069537368043
  0
ARC
  5
FE
  8
1
  6
CONTINUOUS
 62
     7
 10
972.2623089179459
 20
165.1596988232525
 30
0.0
 40
18.59532280011912
 50
38.30695373680418
 51
55.12413632195337
  0
ARC
  5
FF
  8
1
  6
CONTINUOUS
 62
     7
 10
977.7066207054869
 20
172.9709471094704
 30
0.0
 40
9.073971497446848
 50
55.12413632195572
 51
90.00000000000001
  0
ARC
  5
100
  8
1
  6
CONTINUOUS
 62
     7
 10
977.7066207054869
 20
172.9709471094704
 30
0.0
 40
9.073971497446848
 50
90.0
 51
124.8758636780443
  0
ARC
  5
101
  8
1
  6
CONTINUOUS
 62
     7
 10
983.1509324930278
 20
165.1596988232525
 30
0.0
 40
18.59532280011912
 50
124.8758636780466
 51
141.6930462631958
  0
ARC
  5
102
  8
1
  6
CONTINUOUS
 62
     7
 10
978.2329480615941
 20
169.0446581346969
 30
0.0
 40
12.32798846091215
 50
141.6930462631958
 51
157.0598828115012
  0
ARC
  5
103
  8
1
  6
CONTINUOUS
 62
     7
 10
996.0317458234945
 20
161.5114612205545
 30
0.0
 40
31.65533327380034
 50
157.0598828115039
 51
163.0291881635214
  0
ARC
  5
104
  8
1
  6
CONTINUOUS
 62
     7
 10
986.3480084522333
 20
164.4666833929724
 30
0.0
 40
21.530704512018
 50
163.0291881635214
 51
171.9770902207117
  0
ARC
  5
105
  8
1
  6
CONTINUOUS
 62
     7
 10
1023.220637727193
 20
89.72237534167064
 30
0.0
 40
9.574282869608597
 50
145.1241363219528
 51
179.2871304959459
  0
ARC
  5
106
  8
1
  6
CONTINUOUS
 62
     7
 10
1031.462574642913
 20
83.97788065167563
 30
0.0
 40
19.62061271518354
 50
128.3069537368046
 51
145.1241363219556
  0
ARC
  5
107
  8
1
  6
CONTINUOUS
 62
     7
 10
1027.363410413099
 20
89.16702788540059
 30
0.0
 40
13.00771649671284
 50
112.9401171884974
 51
128.3069537368047
  0
ARC
  5
108
  8
1
  6
CONTINUOUS
 62
     7
 10
1035.311965044191
 20
70.38685819242751
 30
0.0
 40
33.40071270669429
 50
106.9708118364791
 51
112.9401171884999
  0
ARC
  5
109
  8
1
  6
CONTINUOUS
 62
     7
 10
1032.193800850135
 20
80.60452758376185
 30
0.0
 40
22.7178425056807
 50
106.4087017174729
 51
106.9708118364788
  0
ARC
  5
10A
  8
1
  6
CONTINUOUS
 62
     7
 10
962.3047398716706
 20
158.6723615390533
 30
0.0
 40
14.59912969573002
 50
198.8032170992424
 51
260.2233317650274
  0
LINE
  5
10B
  8
1
  6
CONTINUOUS
 62
     7
 10
1052.45
 20
-10.25
 30
0.0
 11
1052.45
 21
15.75
 31
0.0
  0
LINE
  5
10C
  8
1
  6
CONTINUOUS
 62
     7
 10
1013.45
 20
96.76919910913966
 30
0.0
 11
1016.417524745549
 21
96.74330191301945
 31
0.0
  0
LINE
  5
10D
  8
1
  6
CONTINUOUS
 62
     7
 10
1013.647089937221
 20
89.84149480390721
 30
0.0
 11
1013.44414603118
 21
73.39830452855445
 31
0.0
  0
LINE
  5
10E
  8
1
  6
CONTINUOUS
 62
     7
 10
960.6754700356437
 20
144.2441460311795
 30
0.0
 11
977.1186603109963
 21
144.447089937221
 31
0.0
  0
LINE
  5
10F
  8
1
  6
CONTINUOUS
 62
     7
 10
1018.45
 20
63.97079850804108
 30
0.0
 11
1018.45
 21
32.1642135623731
 31
0.0
  0
LINE
  5
110
  8
1
  6
CONTINUOUS
 62
     7
 10
1047.45
 20
32.1642135623731
 30
0.0
 11
1047.45
 21
63.96931410130008
 31
0.0
  0
LINE
  5
111
  8
1
  6
CONTINUOUS
 62
     7
 10
1052.45
 20
91.75
 30
0.0
 11
1052.45
 21
117.75
 31
0.0
  0
LINE
  5
112
  8
1
  6
CONTINUOUS
 62
     7
 10
1052.455853968821
 20
73.39830452855445
 30
0.0
 11
1052.252910062779
 21
89.84149480390721
 31
0.0
  0
LINE
  5
113
  8
1
  6
CONTINUOUS
 62
     7
 10
1049.482475254451
 20
96.74330191301945
 30
0.0
 11
1052.45
 21
96.76919910913966
 31
0.0
  0
LINE
  5
114
  8
1
  6
CONTINUOUS
 62
     7
 10
977.1186603109963
 20
183.0529100627791
 30
0.0
 11
960.6754700356437
 21
183.2558539688206
 31
0.0
  0
LINE
  5
115
  8
1
  6
CONTINUOUS
 62
     7
 10
1013.45
 20
15.75000000000001
 30
0.0
 11
1013.45
 21
-10.25
 31
0.0
  0
LINE
  5
116
  8
1
  6
CONTINUOUS
 62
     7
 10
1013.45
 20
117.75
 30
0.0
 11
1013.45
 21
91.75
 31
0.0
  0
LINE
  5
117
  8
1
  6
CONTINUOUS
 62
     7
 10
965.0404069180626
 20
103.0956689858219
 30
0.0
 11
957.9076308322636
 21
96.08630944789
 31
0.0
  0
LINE
  5
118
  8
1
  6
CONTINUOUS
 62
     7
 10
956.756171104254
 20
96.89257022938716
 30
0.0
 11
946.8832325837369
 21
87.19046056636557
 31
0.0
  0
LINE
  5
119
  8
1
  6
CONTINUOUS
 62
     7
 10
944.5271655070891
 20
81.1642135623731
 30
0.0
 11
944.5271655070891
 21
117.75
 31
0.0
  0
LINE
  5
11A
  8
1
  6
CONTINUOUS
 62
     7
 10
906.5271655070891
 20
118.75
 30
0.0
 11
943.5271655070891
 21
118.75
 31
0.0
  0
LINE
  5
11B
  8
1
  6
CONTINUOUS
 62
     7
 10
944.5271655070891
 20
10.75
 30
0.0
 11
905.5271655070891
 21
10.75
 31
0.0
  0
LINE
  5
11C
  8
1
  6
CONTINUOUS
 62
     7
 10
905.5271655070891
 20
26.33578643762691
 30
0.0
 11
905.5271655070891
 21
-10.25
 31
0.0
  0
LINE
  5
11D
  8
1
  6
CONTINUOUS
 62
     7
 10
944.5271655070891
 20
96.75
 30
0.0
 11
905.5271655070891
 21
96.75
 31
0.0
  0
LINE
  5
11E
  8
1
  6
CONTINUOUS
 62
     7
 10
944.5271655070891
 20
117.75
 30
0.0
 11
905.5271655070892
 21
117.75
 31
0.0
  0
LINE
  5
11F
  8
1
  6
CONTINUOUS
 62
     7
 10
974.8781935807407
 20
60.02386360737609
 30
0.0
 11
947.3010291144652
 21
87.60102807365146
 31
0.0
  0
LINE
  5
120
  8
1
  6
CONTINUOUS
 62
     7
 10
974.4676260734548
 20
59.60606707664787
 30
0.0
 11
984.1697357364764
 21
69.47900559716489
 31
0.0
  0
LINE
  5
121
  8
1
  6
CONTINUOUS
 62
     7
 10
905.5271655070891
 20
117.75
 30
0.0
 11
905.5271655070891
 21
81.1642135623731
 31
0.0
  0
LINE
  5
122
  8
1
  6
CONTINUOUS
 62
     7
 10
906.5271655070891
 20
-11.25
 30
0.0
 11
943.5271655070891
 21
-11.25
 31
0.0
  0
LINE
  5
123
  8
1
  6
CONTINUOUS
 62
     7
 10
944.5271655070891
 20
-10.25
 30
0.0
 11
944.5271655070891
 21
26.33578643762691
 31
0.0
  0
LINE
  5
124
  8
1
  6
CONTINUOUS
 62
     7
 10
944.5271655070891
 20
-10.25
 30
0.0
 11
905.5271655070892
 21
-10.25
 31
0.0
  0
LINE
  5
125
  8
1
  6
CONTINUOUS
 62
     7
 10
983.3634749549791
 20
70.63046532517438
 30
0.0
 11
990.372834492911
 21
77.76324141097344
 31
0.0
  0
LINE
  5
126
  8
1
  6
CONTINUOUS
 62
     7
 10
928.0632198629127
 20
15.75000000000001
 30
0.0
 11
921.9911111512656
 21
15.75000000000001
 31
0.0
  0
LINE
  5
127
  8
1
  6
CONTINUOUS
 62
     7
 10
928.1235499541879
 20
17.59999999999999
 30
0.0
 11
921.9307810599905
 21
17.59999999999999
 31
0.0
  0
LINE
  5
128
  8
1
  6
CONTINUOUS
 62
     7
 10
928.0632198629127
 20
91.75
 30
0.0
 11
921.9911111512656
 21
91.75
 31
0.0
  0
LINE
  5
129
  8
1
  6
CONTINUOUS
 62
     7
 10
983.3634749549792
 20
70.63046532517428
 30
0.0
 11
984.1697357364764
 21
69.47900559716483
 31
0.0
  0
LINE
  5
12A
  8
1
  6
CONTINUOUS
 62
     7
 10
939.618379220052
 20
31.74695167279457
 30
0.0
 11
937.642428728151
 21
32.1642135623731
 31
0.0
  0
LINE
  5
12B
  8
1
  6
CONTINUOUS
 62
     7
 10
928.1235499541879
 20
89.9
 30
0.0
 11
921.9307810599905
 21
89.9
 31
0.0
  0
LINE
  5
12C
  8
1
  6
CONTINUOUS
 62
     7
 10
989.6719252286111
 20
77.04999096181926
 30
0.0
 11
964.3271564689084
 21
102.394759721522
 31
0.0
  0
LINE
  5
12D
  8
1
  6
CONTINUOUS
 62
     7
 10
965.0404069180626
 20
103.0956689858218
 30
0.0
 11
990.372834492911
 21
77.76324141097346
 31
0.0
  0
LINE
  5
12E
  8
1
  6
CONTINUOUS
 62
     7
 10
956.7561711042539
 20
96.8925702293872
 30
0.0
 11
957.9076308322634
 21
96.08630944789009
 31
0.0
  0
LINE
  5
12F
  8
1
  6
CONTINUOUS
 62
     7
 10
928.2722873905956
 20
87.74999999999999
 30
0.0
 11
921.7820436235826
 21
87.74999999999999
 31
0.0
  0
LINE
  5
130
  8
1
  6
CONTINUOUS
 62
     7
 10
928.2722873905956
 20
19.75
 30
0.0
 11
921.7820436235826
 21
19.75
 31
0.0
  0
LINE
  5
131
  8
1
  6
CONTINUOUS
 62
     7
 10
944.5271655070889
 20
10.73080089086033
 30
0.0
 11
942.8228022392956
 21
10.74567464376578
 31
0.0
  0
ARC
  5
132
  8
1
  6
CONTINUOUS
 62
     7
 10
906.5271655070891
 20
81.1642135623731
 30
0.0
 40
1.000000000000001
 50
180.0
 51
224.9999999999998
  0
ARC
  5
133
  8
1
  6
CONTINUOUS
 62
     7
 10
943.5271655070891
 20
81.1642135623731
 30
0.0
 40
0.9999999999999989
 50
315.0000000000001
 51
0.0
  0
ARC
  5
134
  8
1
  6
CONTINUOUS
 62
     7
 10
906.5271655070891
 20
26.33578643762691
 30
0.0
 40
1.000000000000001
 50
134.9999999999998
 51
180.0
  0
ARC
  5
135
  8
1
  6
CONTINUOUS
 62
     7
 10
907.2271655070891
 20
96.25434439470251
 30
0.0
 40
0.5000000000000014
 50
82.4415590295772
 51
89.49999999999989
  0
LINE
  5
136
  8
1
  6
CONTINUOUS
 62
     7
 10
907.2315287748827
 20
10.74567464376578
 30
0.0
 11
905.5271655070893
 21
10.73080089086033
 31
0.0
  0
LINE
  5
137
  8
1
  6
CONTINUOUS
 62
     7
 10
906.5271655070891
 20
118.75
 30
0.0
 11
905.5271655070891
 21
117.75
 31
0.0
  0
LINE
  5
138
  8
1
  6
CONTINUOUS
 62
     7
 10
943.5271655070891
 20
-11.25
 30
0.0
 11
944.5271655070891
 21
-10.25
 31
0.0
  0
LINE
  5
139
  8
1
  6
CONTINUOUS
 62
     7
 10
942.8228022392956
 20
96.7543253562342
 30
0.0
 11
944.5271655070889
 21
96.76919910913966
 31
0.0
  0
ARC
  5
13A
  8
1
  6
CONTINUOUS
 62
     7
 10
943.5271655070891
 20
26.33578643762691
 30
0.0
 40
1.000000000000001
 50
0.0
 51
45.00000000000021
  0
LINE
  5
13B
  8
1
  6
CONTINUOUS
 62
     7
 10
905.5271655070891
 20
-10.25
 30
0.0
 11
906.5271655070891
 21
-11.25
 31
0.0
  0
LINE
  5
13C
  8
1
  6
CONTINUOUS
 62
     7
 10
944.5271655070891
 20
117.75
 30
0.0
 11
943.5271655070891
 21
118.75
 31
0.0
  0
ARC
  5
13D
  8
1
  6
CONTINUOUS
 62
     7
 10
907.2271655070891
 20
11.24565560529748
 30
0.0
 40
0.4999999999999997
 50
270.5000000000002
 51
277.5584409704229
  0
ARC
  5
13E
  8
1
  6
CONTINUOUS
 62
     7
 10
942.8271655070891
 20
11.24565560529748
 30
0.0
 40
0.5000000000000014
 50
262.4415590295772
 51
269.4999999999999
  0
LINE
  5
13F
  8
1
  6
CONTINUOUS
 62
     7
 10
905.5271655070893
 20
96.76919910913966
 30
0.0
 11
907.2315287748827
 21
96.7543253562342
 31
0.0
  0
ARC
  5
140
  8
1
  6
CONTINUOUS
 62
     7
 10
942.8271655070891
 20
96.25434439470251
 30
0.0
 40
0.5000000000000001
 50
90.50000000000016
 51
97.55844097042285
  0
TEXT
  5
141
  8
1
  6
CONTINUOUS
 62
     7
 10
1026.883168688258
 20
-27.92157996748781
 30
0.0
 40
3.0
  1
DPSY-25
  0
ARC
  5
142
  8
1
  6
CONTINUOUS
 62
     7
 10
961.4006919222835
 20
170.2316192901116
 30
0.0
 40
13.03853461562755
 50
93.18609712370586
 51
153.6109197977421
  0
ARC
  5
143
  8
1
  6
CONTINUOUS
 62
     7
 10
967.9626547017722
 20
165.4308927878876
 30
0.0
 40
21.09591221957638
 50
149.8495534932698
 51
157.4884442629367
  0
LINE
  5
144
  8
1
  6
CONTINUOUS
 62
     7
 10
938.0655703174945
 20
149.25
 30
0.0
 11
951.2428319292088
 21
149.25
 31
0.0
  0
LINE
  5
145
  8
1
  6
CONTINUOUS
 62
     7
 10
951.2455055004209
 20
178.25
 30
0.0
 11
938.0655703174945
 21
178.25
 31
0.0
  0
LINE
  5
146
  8
1
  6
CONTINUOUS
 62
     7
 10
1052.45
 20
-10.25
 30
0.0
 11
1013.45
 21
-10.25
 31
0.0
  0
LINE
  5
147
  8
1
  6
CONTINUOUS
 62
     7
 10
905.8200587259025
 20
80.45710678118654
 30
0.0
 11
910.2342722882756
 21
76.04289321881346
 31
0.0
  0
LINE
  5
148
  8
1
  6
CONTINUOUS
 62
     7
 10
939.5271655070891
 20
73.96320343559645
 30
0.0
 11
939.5271655070891
 21
75.33578643762692
 31
0.0
  0
LINE
  5
149
  8
1
  6
CONTINUOUS
 62
     7
 10
946.5939223332789
 20
86.47970773009196
 30
0.0
 11
946.5939223332789
 21
80.23706704297267
 31
0.0
  0
ARC
  5
14A
  8
1
  6
CONTINUOUS
 62
     7
 10
945.5939223332788
 20
80.23706704297267
 30
0.0
 40
1.000000000000001
 50
315.0000000000001
 51
0.0
  0
LINE
  5
14B
  8
1
  6
CONTINUOUS
 62
     7
 10
1013.687799348245
 20
15.75000000000001
 30
0.0
 11
1013.45
 21
15.75000000000001
 31
0.0
  0
ARC
  5
14C
  8
1
  6
CONTINUOUS
 62
     7
 10
947.5939223332789
 20
86.47970773009195
 30
0.0
 40
0.9999999999999987
 50
135.0000000000013
 51
179.9999999999992
  0
LINE
  5
14D
  8
1
  6
CONTINUOUS
 62
     7
 10
967.5142325500618
 20
59.31675682618969
 30
0.0
 11
973.7568732371811
 21
59.3167568261897
 31
0.0
  0
LINE
  5
14E
  8
1
  6
CONTINUOUS
 62
     7
 10
1052.212200651755
 20
15.75000000000001
 30
0.0
 11
1052.45
 21
15.75000000000001
 31
0.0
  0
ARC
  5
14F
  8
1
  6
CONTINUOUS
 62
     7
 10
940.5271655070891
 20
75.33578643762692
 30
0.0
 40
1.000000000000001
 50
134.9999999999997
 51
180.0
  0
ARC
  5
150
  8
1
  6
CONTINUOUS
 62
     7
 10
940.5271655070891
 20
31.32968978321701
 30
0.0
 40
0.9999999999999998
 50
135.0000000000009
 51
155.3862149096527
  0
LINE
  5
151
  8
1
  6
CONTINUOUS
 62
     7
 10
944.2342722882757
 20
27.04289321881346
 30
0.0
 11
939.8200587259025
 21
31.45710678118654
 31
0.0
  0
LINE
  5
152
  8
1
  6
CONTINUOUS
 62
     7
 10
910.2342722882756
 20
31.45710678118655
 30
0.0
 11
905.8200587259026
 21
27.04289321881346
 31
0.0
  0
LINE
  5
153
  8
1
  6
CONTINUOUS
 62
     7
 10
939.8200587259025
 20
76.04289321881346
 30
0.0
 11
944.2342722882757
 21
80.45710678118655
 31
0.0
  0
LINE
  5
154
  8
1
  6
CONTINUOUS
 62
     7
 10
1013.687799348245
 20
91.75
 30
0.0
 11
1013.45
 21
91.75
 31
0.0
  0
LINE
  5
155
  8
1
  6
CONTINUOUS
 62
     7
 10
1052.178083210793
 20
19.75
 30
0.0
 11
1052.45
 21
19.75
 31
0.0
  0
LINE
  5
156
  8
1
  6
CONTINUOUS
 62
     7
 10
939.8200587259025
 20
32.03679656440357
 30
0.0
 11
966.8071257688753
 21
59.02386360737626
 31
0.0
  0
LINE
  5
157
  8
1
  6
CONTINUOUS
 62
     7
 10
910.5271655070891
 20
75.33578643762692
 30
0.0
 11
910.5271655070891
 21
32.1642135623731
 31
0.0
  0
ARC
  5
158
  8
1
  6
CONTINUOUS
 62
     7
 10
909.5271655070891
 20
32.1642135623731
 30
0.0
 40
1.000000000000001
 50
314.9999999999999
 51
0.0
  0
ARC
  5
159
  8
1
  6
CONTINUOUS
 62
     7
 10
909.5271655070891
 20
75.33578643762692
 30
0.0
 40
1.000000000000001
 50
0.0
 51
45.00000000000028
  0
LINE
  5
15A
  8
1
  6
CONTINUOUS
 62
     7
 10
1013.721916789207
 20
19.75
 30
0.0
 11
1013.45
 21
19.75
 31
0.0
  0
ARC
  5
15B
  8
1
  6
CONTINUOUS
 62
     7
 10
973.756873237181
 20
60.3167568261897
 30
0.0
 40
1.000000000000001
 50
270.0000000000007
 51
314.9999999999987
  0
LINE
  5
15C
  8
1
  6
CONTINUOUS
 62
     7
 10
946.3010291144653
 20
79.52996026178616
 30
0.0
 11
940.3807188976824
 21
73.60965004500319
 31
0.0
  0
ARC
  5
15D
  8
1
  6
CONTINUOUS
 62
     7
 10
940.5271655070891
 20
32.1642135623731
 30
0.0
 40
1.0
 50
204.5452650821198
 51
225.0
  0
LINE
  5
15E
  8
1
  6
CONTINUOUS
 62
     7
 10
1052.45
 20
10.73080089086033
 30
0.0
 11
1013.45
 21
10.73080089086033
 31
0.0
  0
LINE
  5
15F
  8
1
  6
CONTINUOUS
 62
     7
 10
1052.45
 20
117.75
 30
0.0
 11
1013.45
 21
117.75
 31
0.0
  0
ARC
  5
160
  8
1
  6
CONTINUOUS
 62
     7
 10
1032.95
 20
93.18824950680165
 30
0.0
 40
61.44133866388518
 50
263.3184224060454
 51
276.6815775939547
  0
LINE
  5
161
  8
1
  6
CONTINUOUS
 62
     7
 10
1014.45
 20
118.75
 30
0.0
 11
1051.45
 21
118.75
 31
0.0
  0
LINE
  5
162
  8
1
  6
CONTINUOUS
 62
     7
 10
1014.45
 20
-11.25
 30
0.0
 11
1051.45
 21
-11.25
 31
0.0
  0
ARC
  5
163
  8
1
  6
CONTINUOUS
 62
     7
 10
940.0271655070891
 20
73.96320343559643
 30
0.0
 40
0.4999999999999994
 50
180.0
 51
315.0
  0
ARC
  5
164
  8
1
  6
CONTINUOUS
 62
     7
 10
967.5142325500618
 20
58.31675682618968
 30
0.0
 40
0.9999999999999989
 50
90.0
 51
134.9999999999999
  0
LINE
  5
165
  8
1
  6
CONTINUOUS
 62
     7
 10
1052.212200651755
 20
91.75
 30
0.0
 11
1052.45
 21
91.75
 31
0.0
  0
ARC
  5
166
  8
1
  6
CONTINUOUS
 62
     7
 10
1032.203420866236
 20
47.42422377897494
 30
0.0
 40
30.66603926049876
 50
75.03358908469664
 51
81.62502106004793
  0
LINE
  5
167
  8
1
  6
CONTINUOUS
 62
     7
 10
1029.23003986362
 20
103.0956689858219
 30
0.0
 11
1025.776990586727
 21
102.394759721522
 31
0.0
  0
LINE
  5
168
  8
1
  6
CONTINUOUS
 62
     7
 10
1036.66996013638
 20
103.0956689858219
 30
0.0
 11
1029.23003986362
 21
103.0956689858219
 31
0.0
  0
LINE
  5
169
  8
1
  6
CONTINUOUS
 62
     7
 10
1040.123009413273
 20
102.394759721522
 30
0.0
 11
1036.66996013638
 21
103.0956689858219
 31
0.0
  0
LINE
  5
16A
  8
1
  6
CONTINUOUS
 62
     7
 10
1040.138127986063
 20
70.63046532517431
 30
0.0
 11
1025.761872013937
 21
70.63046532517431
 31
0.0
  0
LINE
  5
16B
  8
1
  6
CONTINUOUS
 62
     7
 10
1025.776990586727
 20
77.04999096181922
 30
0.0
 11
1029.23003986362
 21
77.76324141097344
 31
0.0
  0
LINE
  5
16C
  8
1
  6
CONTINUOUS
 62
     7
 10
1036.66996013638
 20
77.76324141097344
 30
0.0
 11
1029.23003986362
 21
77.76324141097344
 31
0.0
  0
LINE
  5
16D
  8
1
  6
CONTINUOUS
 62
     7
 10
1040.138127986063
 20
70.63046532517431
 30
0.0
 11
1040.123009413273
 21
77.04999096181922
 31
0.0
  0
LINE
  5
16E
  8
1
  6
CONTINUOUS
 62
     7
 10
1025.776990586727
 20
77.04999096181922
 30
0.0
 11
1025.761872013937
 21
70.63046532517431
 31
0.0
  0
LINE
  5
16F
  8
1
  6
CONTINUOUS
 62
     7
 10
1013.45
 20
-10.25
 30
0.0
 11
1014.45
 21
-11.25
 31
0.0
  0
ARC
  5
170
  8
1
  6
CONTINUOUS
 62
     7
 10
1050.75
 20
96.25434439470251
 30
0.0
 40
0.500000000000029
 50
90.50000000000016
 51
97.55844097042285
  0
ARC
  5
171
  8
1
  6
CONTINUOUS
 62
     7
 10
1015.15
 20
96.25434439470251
 30
0.0
 40
0.5000000000000027
 50
82.4415590295772
 51
89.49999999999989
  0
ARC
  5
172
  8
1
  6
CONTINUOUS
 62
     7
 10
1015.15
 20
11.24565560529748
 30
0.0
 40
0.5000000000000152
 50
270.5000000000002
 51
277.5584409704229
  0
LINE
  5
173
  8
1
  6
CONTINUOUS
 62
     7
 10
1051.45
 20
-11.25
 30
0.0
 11
1052.45
 21
-10.25
 31
0.0
  0
LINE
  5
174
  8
1
  6
CONTINUOUS
 62
     7
 10
1052.45
 20
19.75000000000001
 30
0.0
 11
1052.45
 21
26.33578643762691
 31
0.0
  0
LINE
  5
175
  8
1
  6
CONTINUOUS
 62
     7
 10
1013.45
 20
26.33578643762691
 30
0.0
 11
1013.45
 21
19.75000000000001
 31
0.0
  0
ARC
  5
176
  8
1
  6
CONTINUOUS
 62
     7
 10
1014.45
 20
26.33578643762691
 30
0.0
 40
1.000000000000021
 50
134.9999999999998
 51
180.0
  0
LINE
  5
177
  8
1
  6
CONTINUOUS
 62
     7
 10
1014.45
 20
118.75
 30
0.0
 11
1013.45
 21
117.75
 31
0.0
  0
ARC
  5
178
  8
1
  6
CONTINUOUS
 62
     7
 10
1051.45
 20
26.33578643762691
 30
0.0
 40
1.000000000000112
 50
0.0
 51
45.00000000000021
  0
LINE
  5
179
  8
1
  6
CONTINUOUS
 62
     7
 10
1052.157106781186
 20
27.04289321881346
 30
0.0
 11
1047.742893218814
 21
31.45710678118655
 31
0.0
  0
LINE
  5
17A
  8
1
  6
CONTINUOUS
 62
     7
 10
1052.45
 20
117.75
 30
0.0
 11
1051.45
 21
118.75
 31
0.0
  0
LINE
  5
17B
  8
1
  6
CONTINUOUS
 62
     7
 10
957.9076308322635
 20
170.9381279860631
 30
0.0
 11
957.9076308322635
 21
156.5618720139369
 31
0.0
  0
LINE
  5
17C
  8
1
  6
CONTINUOUS
 62
     7
 10
964.3271564689084
 20
170.9230094132729
 30
0.0
 11
957.9076308322635
 21
170.9381279860631
 31
0.0
  0
LINE
  5
17D
  8
1
  6
CONTINUOUS
 62
     7
 10
990.372834492911
 20
167.4699601363797
 30
0.0
 11
990.372834492911
 21
160.0300398636203
 31
0.0
  0
CIRCLE
  5
17E
  8
1
  6
CONTINUOUS
 62
     7
 10
925.0271655070892
 20
163.75
 30
0.0
 40
19.49999999999996
  0
CIRCLE
  5
17F
  8
1
  6
CONTINUOUS
 62
     7
 10
925.0271655070892
 20
163.75
 30
0.0
 40
12.49999999999996
  0
LINE
  5
180
  8
1
  6
CONTINUOUS
 62
     7
 10
990.372834492911
 20
167.4699601363797
 30
0.0
 11
989.6719252286113
 21
170.9230094132729
 31
0.0
  0
LINE
  5
181
  8
1
  6
CONTINUOUS
 62
     7
 10
965.0404069180626
 20
167.4699601363797
 30
0.0
 11
965.0404069180626
 21
160.0300398636203
 31
0.0
  0
ARC
  5
182
  8
1
  6
CONTINUOUS
 62
     7
 10
1017.45
 20
32.1642135623731
 30
0.0
 40
1.000000000000112
 50
314.9999999999999
 51
0.0
  0
ARC
  5
183
  8
1
  6
CONTINUOUS
 62
     7
 10
934.701389286113
 20
164.4965791337535
 30
0.0
 40
30.66603926044883
 50
345.033589084692
 51
351.625021060054
  0
LINE
  5
184
  8
1
  6
CONTINUOUS
 62
     7
 10
957.9076308322635
 20
156.5618720139369
 30
0.0
 11
964.3271564689084
 21
156.5769905867271
 31
0.0
  0
CIRCLE
  5
185
  8
1
  6
CONTINUOUS
 62
     7
 10
925.0271655070892
 20
163.75
 30
0.0
 40
18.49999999999996
  0
LINE
  5
186
  8
1
  6
CONTINUOUS
 62
     7
 10
1018.157106781186
 20
31.45710678118655
 30
0.0
 11
1013.742893218813
 21
27.04289321881346
 31
0.0
  0
CIRCLE
  5
187
  8
1
  6
CONTINUOUS
 62
     7
 10
925.0271655070892
 20
163.75
 30
0.0
 40
15.80000000000004
  0
ARC
  5
188
  8
1
  6
CONTINUOUS
 62
     7
 10
1048.45
 20
32.1642135623731
 30
0.0
 40
1.000000000000021
 50
180.0
 51
225.0
  0
CIRCLE
  5
189
  8
1
  6
CONTINUOUS
 62
     7
 10
925.0271655070892
 20
163.75
 30
0.0
 40
11.75000000000004
  0
LINE
  5
18A
  8
1
  6
CONTINUOUS
 62
     7
 10
964.3271564689084
 20
170.9230094132729
 30
0.0
 11
965.0404069180626
 21
167.4699601363797
 31
0.0
  0
LINE
  5
18B
  8
1
  6
CONTINUOUS
 62
     7
 10
989.6719252286113
 20
156.5769905867271
 30
0.0
 11
990.372834492911
 21
160.0300398636203
 31
0.0
  0
ENDSEC
  0
EOF
