  0
SECTION
  2
HEADER
  9
$ACADVER
  1
AC1006
  9
$DWGCODEPAGE
  3
ansi_932
  9
$INSBASE
 10
0.0
 20
0.0
 30
0.0
  9
$EXTMIN
 10
294.0775436710421
 20
121.8539992002399
  9
$EXTMAX
 10
398.35
 20
250.0
  9
$LIMMIN
 10
0.0
 20
0.0
  9
$LIMMAX
 10
12.0
 20
9.0
  9
$ORTHOMODE
 70
     0
  9
$REGENMODE
 70
     1
  9
$FILLMODE
 70
     1
  9
$QTEXTMODE
 70
     0
  9
$MIRRTEXT
 70
     1
  9
$DRAGMODE
 70
     2
  9
$LTSCALE
 40
1.0
  9
$OSMODE
 70
    37
  9
$ATTMODE
 70
     1
  9
$TEXTSIZE
 40
0.2
  9
$TRACEWID
 40
0.05
  9
$TEXTSTYLE
  7
STANDARD
  9
$CLAYER
  8
0
  9
$CELTYPE
  6
BYLAYER
  9
$CECOLOR
 62
   256
  9
$DIMSCALE
 40
1.0
  9
$DIMASZ
 40
3.0
  9
$DIMEXO
 40
0.0625
  9
$DIMDLI
 40
0.38
  9
$DIMRND
 40
0.0
  9
$DIMDLE
 40
0.0
  9
$DIMEXE
 40
0.18
  9
$DIMTP
 40
0.0
  9
$DIMTM
 40
0.0
  9
$DIMTXT
 40
3.0
  9
$DIMCEN
 40
0.09
  9
$DIMTSZ
 40
0.0
  9
$DIMTOL
 70
     0
  9
$DIMLIM
 70
     0
  9
$DIMTIH
 70
     1
  9
$DIMTOH
 70
     1
  9
$DIMSE1
 70
     0
  9
$DIMSE2
 70
     0
  9
$DIMTAD
 70
     1
  9
$DIMZIN
 70
     0
  9
$DIMBLK
  1

  9
$DIMASO
 70
     1
  9
$DIMSHO
 70
     1
  9
$DIMPOST
  1

  9
$DIMAPOST
  1

  9
$DIMALT
 70
     0
  9
$DIMALTD
 70
     2
  9
$DIMALTF
 40
25.4
  9
$DIMLFAC
 40
1.0
  9
$DIMTOFL
 70
     0
  9
$DIMTVP
 40
0.0
  9
$DIMTIX
 70
     0
  9
$DIMSOXD
 70
     0
  9
$DIMSAH
 70
     0
  9
$DIMBLK1
  1

  9
$DIMBLK2
  1

  9
$LUNITS
 70
     2
  9
$LUPREC
 70
     4
  9
$SKETCHINC
 40
0.1
  9
$FILLETRAD
 40
0.5
  9
$AUNITS
 70
     0
  9
$AUPREC
 70
     0
  9
$MENU
  1
.
  9
$ELEVATION
 40
0.0
  9
$THICKNESS
 40
0.0
  9
$LIMCHECK
 70
     0
  9
$CHAMFERA
 40
0.5
  9
$CHAMFERB
 40
0.5
  9
$SKPOLY
 70
     0
  9
$TDCREATE
 40
2460339.420689445
  9
$TDUPDATE
 40
2460339.420689456
  9
$TDINDWG
 40
0.0000000116
  9
$TDUSRTIMER
 40
0.0000000116
  9
$USRTIMER
 70
     1
  9
$ANGBASE
 50
0.0
  9
$ANGDIR
 70
     0
  9
$PDMODE
 70
     0
  9
$PDSIZE
 40
0.0
  9
$PLINEWID
 40
0.0
  9
$COORDS
 70
     1
  9
$SPLFRAME
 70
     0
  9
$SPLINETYPE
 70
     6
  9
$SPLINESEGS
 70
     8
  9
$ATTDIA
 70
     0
  9
$ATTREQ
 70
     1
  9
$HANDLING
 70
     1
  9
$HANDSEED
  5
1EB
  9
$SURFTAB1
 70
     6
  9
$SURFTAB2
 70
     6
  9
$SURFTYPE
 70
     6
  9
$SURFU
 70
     6
  9
$SURFV
 70
     6
  9
$UCSNAME
  2

  9
$UCSORG
 10
0.0
 20
0.0
 30
0.0
  9
$UCSXDIR
 10
1.0
 20
0.0
 30
0.0
  9
$UCSYDIR
 10
0.0
 20
1.0
 30
0.0
  9
$USERI1
 70
     0
  9
$USERI2
 70
     0
  9
$USERI3
 70
     0
  9
$USERI4
 70
     0
  9
$USERI5
 70
     0
  9
$USERR1
 40
0.0
  9
$USERR2
 40
0.0
  9
$USERR3
 40
0.0
  9
$USERR4
 40
0.0
  9
$USERR5
 40
0.0
  9
$WORLDVIEW
 70
     1
  0
ENDSEC
  0
SECTION
  2
TABLES
  0
TABLE
  2
VPORT
 70
     1
  0
VPORT
  2
*ACTIVE
 70
     0
 10
0.0
 20
0.0
 11
1.0
 21
1.0
 12
346.213771835521
 22
185.92699960012
 13
0.0
 23
0.0
 14
0.5
 24
0.5
 15
0.5
 25
0.5
 16
0.0
 26
0.0
 36
1.0
 17
0.0
 27
0.0
 37
0.0
 40
128.1460007997601
 41
1.6
 42
50.0
 43
0.0
 44
0.0
 50
0.0
 51
0.0
 71
     0
 72
   100
 73
     1
 74
     3
 75
     0
 76
     0
 77
     0
 78
     0
  0
ENDTAB
  0
TABLE
  2
LTYPE
 70
     3
  0
LTYPE
  2
CONTINUOUS
 70
     0
  3
Solid line
 72
    65
 73
     0
 40
0.0
  0
LTYPE
  2
________________
 70
     0
  3

 72
    65
 73
     0
 40
0.0
  0
LTYPE
  2
________________0
 70
     0
  3

 72
    65
 73
     4
 40
7.2
 49
2.7
 49
-1.8
 49
0.8999999999999999
 49
-1.8
  0
ENDTAB
  0
TABLE
  2
LAYER
 70
     1
  0
LAYER
  2
0
 70
     0
 62
     7
  6
CONTINUOUS
  0
ENDTAB
  0
TABLE
  2
STYLE
 70
     2
  0
STYLE
  2
STANDARD
 70
     0
 40
0.0
 41
1.0
 50
0.0
 71
     0
 42
0.2
  3
txt
  4

  0
STYLE
  2
EXPLODED0
 70
     0
 40
0.2
 41
1.0
 50
0.0
 71
     0
 42
0.2
  3
ＭＳ ゴシック
  4

  0
ENDTAB
  0
TABLE
  2
VIEW
 70
     0
  0
ENDTAB
  0
TABLE
  2
UCS
 70
     0
  0
ENDTAB
  0
ENDSEC
  0
SECTION
  2
BLOCKS
  0
BLOCK
  8
0
  2
_1481
 70
     0
 10
0.0
 20
0.0
 30
0.0
  0
ENDBLK
  8
0
  0
BLOCK
  8
0
  2
_1956
 70
     0
 10
0.0
 20
0.0
 30
0.0
  0
ENDBLK
  8
0
  0
BLOCK
  8
0
  2
_2069
 70
     0
 10
0.0
 20
0.0
 30
0.0
  0
ENDBLK
  8
0
  0
ENDSEC
  0
SECTION
  2
ENTITIES
  0
INSERT
  5
3C
  8
0
  6
________________
 62
     7
  2
_1481
 10
0.0
 20
0.0
 30
0.0
  0
LINE
  5
3E
  8
0
  6
________________
 62
     7
 10
308.4503393900453
 20
218.0248711305964
 30
0.0
 11
307.4235444708021
 21
216.2464101615138
 31
0.0
  0
POLYLINE
  5
3F
  8
0
  6
________________
 62
     7
 10
0.0
 20
0.0
 30
0.0
 66
     1
 70
     8
  0
VERTEX
  5
40
  8
0
  6
________________
 62
     7
 10
308.7235444708022
 20
218.0980762113533
 30
0.0
 70
    32
  0
VERTEX
  5
41
  8
0
  6
________________
 62
     7
 10
308.6216364724691
 20
218.1248427345671
 30
0.0
 70
    32
  0
VERTEX
  5
42
  8
0
  6
________________
 62
     7
 10
308.5202272811341
 20
218.0961124434369
 30
0.0
 70
    32
  0
VERTEX
  5
43
  8
0
  6
________________
 62
     7
 10
308.4503393900447
 20
218.0248711305969
 30
0.0
 70
    32
  0
SEQEND
  5
44
  8
0
  6
________________
 62
     7
  0
POLYLINE
  5
45
  8
0
  6
________________
 62
     7
 10
0.0
 20
0.0
 30
0.0
 66
     1
 70
     8
  0
VERTEX
  5
46
  8
0
  6
________________
 62
     7
 10
308.796749551559
 20
217.8248711305964
 30
0.0
 70
    32
  0
VERTEX
  5
47
  8
0
  6
________________
 62
     7
 10
308.823523840477
 20
217.9255456413218
 30
0.0
 70
    32
  0
VERTEX
  5
48
  8
0
  6
________________
 62
     7
 10
308.7961628683991
 20
218.0258712235551
 30
0.0
 70
    32
  0
VERTEX
  5
49
  8
0
  6
________________
 62
     7
 10
308.7235444708033
 20
218.0980762113545
 30
0.0
 70
    32
  0
SEQEND
  5
4A
  8
0
  6
________________
 62
     7
  0
LINE
  5
4B
  8
0
  6
________________
 62
     7
 10
307.396749551559
 20
215.4
 30
0.0
 11
308.7967495515591
 21
217.8248711305964
 31
0.0
  0
LINE
  5
4C
  8
0
  6
________________
 62
     7
 10
305.6503393900452
 20
217.8248711305964
 30
0.0
 11
307.0503393900453
 21
215.4
 31
0.0
  0
POLYLINE
  5
4D
  8
0
  6
________________
 62
     7
 10
0.0
 20
0.0
 30
0.0
 66
     1
 70
     8
  0
VERTEX
  5
4E
  8
0
  6
________________
 62
     7
 10
305.7235444708022
 20
218.0980762113533
 30
0.0
 70
    32
  0
VERTEX
  5
4F
  8
0
  6
________________
 62
     7
 10
305.649660829982
 20
218.0236466033531
 30
0.0
 70
    32
  0
VERTEX
  5
50
  8
0
  6
________________
 62
     7
 10
305.6235664477135
 20
217.9222519964179
 30
0.0
 70
    32
  0
VERTEX
  5
51
  8
0
  6
________________
 62
     7
 10
305.6503393900442
 20
217.8248711305961
 30
0.0
 70
    32
  0
SEQEND
  5
52
  8
0
  6
________________
 62
     7
  0
POLYLINE
  5
53
  8
0
  6
________________
 62
     7
 10
0.0
 20
0.0
 30
0.0
 66
     1
 70
     8
  0
VERTEX
  5
54
  8
0
  6
________________
 62
     7
 10
305.996749551559
 20
218.0248711305964
 30
0.0
 70
    32
  0
VERTEX
  5
55
  8
0
  6
________________
 62
     7
 10
305.9224431022523
 20
218.0986854732466
 30
0.0
 70
    32
  0
VERTEX
  5
56
  8
0
  6
________________
 62
     7
 10
305.8210524785756
 20
218.1248508347129
 30
0.0
 70
    32
  0
VERTEX
  5
57
  8
0
  6
________________
 62
     7
 10
305.7235444708019
 20
218.0980762113542
 30
0.0
 70
    32
  0
SEQEND
  5
58
  8
0
  6
________________
 62
     7
  0
LINE
  5
59
  8
0
  6
________________
 62
     7
 10
307.0235444708022
 20
216.2464101615138
 30
0.0
 11
305.996749551559
 21
218.0248711305964
 31
0.0
  0
LINE
  5
5A
  8
0
  6
________________
 62
     7
 10
307.0235444708022
 20
224.3
 30
0.0
 11
307.0235444708022
 21
216.2464101615138
 31
0.0
  0
POLYLINE
  5
5B
  8
0
  6
________________
 62
     7
 10
0.0
 20
0.0
 30
0.0
 66
     1
 70
     8
  0
VERTEX
  5
5C
  8
0
  6
________________
 62
     7
 10
307.2235444708022
 20
224.5
 30
0.0
 70
    32
  0
VERTEX
  5
5D
  8
0
  6
________________
 62
     7
 10
307.1224186254429
 20
224.4725277830398
 30
0.0
 70
    32
  0
VERTEX
  5
5E
  8
0
  6
________________
 62
     7
 10
307.049067790193
 20
224.3977545975782
 30
0.0
 70
    32
  0
VERTEX
  5
5F
  8
0
  6
________________
 62
     7
 10
307.0235444708012
 20
224.3000000000002
 30
0.0
 70
    32
  0
SEQEND
  5
60
  8
0
  6
________________
 62
     7
  0
LINE
  5
61
  8
0
  6
________________
 62
     7
 10
307.4235444708021
 20
216.2464101615138
 30
0.0
 11
307.4235444708021
 21
224.3
 31
0.0
  0
POLYLINE
  5
62
  8
0
  6
________________
 62
     7
 10
0.0
 20
0.0
 30
0.0
 66
     1
 70
     8
  0
VERTEX
  5
63
  8
0
  6
________________
 62
     7
 10
307.4235444708021
 20
224.3
 30
0.0
 70
    32
  0
VERTEX
  5
64
  8
0
  6
________________
 62
     7
 10
307.3960722543807
 20
224.4011258444455
 30
0.0
 70
    32
  0
VERTEX
  5
65
  8
0
  6
________________
 62
     7
 10
307.3212990689416
 20
224.4744766802944
 30
0.0
 70
    32
  0
VERTEX
  5
66
  8
0
  6
________________
 62
     7
 10
307.2235444708023
 20
224.5000000000009
 30
0.0
 70
    32
  0
SEQEND
  5
67
  8
0
  6
________________
 62
     7
  0
POLYLINE
  5
68
  8
0
  6
________________
 62
     7
 10
0.0
 20
0.0
 30
0.0
 66
     1
 70
     8
  0
VERTEX
  5
69
  8
0
  6
________________
 62
     7
 10
307.0503393900453
 20
215.4
 30
0.0
 70
    32
  0
VERTEX
  5
6A
  8
0
  6
________________
 62
     7
 10
307.0553470722015
 20
215.3917978307611
 30
0.0
 70
    32
  0
VERTEX
  5
6B
  8
0
  6
________________
 62
     7
 10
307.0607622100401
 20
215.3838252431773
 30
0.0
 70
    32
  0
VERTEX
  5
6C
  8
0
  6
________________
 62
     7
 10
307.0665635194399
 20
215.3761079037728
 30
0.0
 70
    32
  0
VERTEX
  5
6D
  8
0
  6
________________
 62
     7
 10
307.0727297162798
 20
215.3686714790723
 30
0.0
 70
    32
  0
VERTEX
  5
6E
  8
0
  6
________________
 62
     7
 10
307.079239516439
 20
215.3615416356002
 30
0.0
 70
    32
  0
VERTEX
  5
6F
  8
0
  6
________________
 62
     7
 10
307.0860716357965
 20
215.3547440398809
 30
0.0
 70
    32
  0
VERTEX
  5
70
  8
0
  6
________________
 62
     7
 10
307.0932047902313
 20
215.3483043584387
 30
0.0
 70
    32
  0
VERTEX
  5
71
  8
0
  6
________________
 62
     7
 10
307.1006451564054
 20
215.3422222053084
 30
0.0
 70
    32
  0
VERTEX
  5
72
  8
0
  6
________________
 62
     7
 10
307.1083940430848
 20
215.3364915397023
 30
0.0
 70
    32
  0
VERTEX
  5
73
  8
0
  6
________________
 62
     7
 10
307.116422869726
 20
215.331129541254
 30
0.0
 70
    32
  0
VERTEX
  5
74
  8
0
  6
________________
 62
     7
 10
307.1247030557851
 20
215.3261533895967
 30
0.0
 70
    32
  0
VERTEX
  5
75
  8
0
  6
________________
 62
     7
 10
307.1332060207186
 20
215.3215802643639
 30
0.0
 70
    32
  0
VERTEX
  5
76
  8
0
  6
________________
 62
     7
 10
307.1419031839827
 20
215.317427345189
 30
0.0
 70
    32
  0
VERTEX
  5
77
  8
0
  6
________________
 62
     7
 10
307.1507659650338
 20
215.3137118117053
 30
0.0
 70
    32
  0
VERTEX
  5
78
  8
0
  6
________________
 62
     7
 10
307.1598000645033
 20
215.3104354364445
 30
0.0
 70
    32
  0
VERTEX
  5
79
  8
0
  6
________________
 62
     7
 10
307.1690089587323
 20
215.3075928456474
 30
0.0
 70
    32
  0
VERTEX
  5
7A
  8
0
  6
________________
 62
     7
 10
307.178359984465
 20
215.3051907910635
 30
0.0
 70
    32
  0
VERTEX
  5
7B
  8
0
  6
________________
 62
     7
 10
307.1878204784456
 20
215.3032360244427
 30
0.0
 70
    32
  0
VERTEX
  5
7C
  8
0
  6
________________
 62
     7
 10
307.1973577774185
 20
215.3017352975347
 30
0.0
 70
    32
  0
VERTEX
  5
7D
  8
0
  6
________________
 62
     7
 10
307.2069392181278
 20
215.3006953620893
 30
0.0
 70
    32
  0
VERTEX
  5
7E
  8
0
  6
________________
 62
     7
 10
307.2165321373178
 20
215.3001229698562
 30
0.0
 70
    32
  0
VERTEX
  5
7F
  8
0
  6
________________
 62
     7
 10
307.2261405571905
 20
215.3000216658834
 30
0.0
 70
    32
  0
VERTEX
  5
80
  8
0
  6
________________
 62
     7
 10
307.2357702961003
 20
215.3003874597499
 30
0.0
 70
    32
  0
VERTEX
  5
81
  8
0
  6
________________
 62
     7
 10
307.2453883070054
 20
215.3012159079885
 30
0.0
 70
    32
  0
VERTEX
  5
82
  8
0
  6
________________
 62
     7
 10
307.2549615428642
 20
215.302502567132
 30
0.0
 70
    32
  0
VERTEX
  5
83
  8
0
  6
________________
 62
     7
 10
307.2644569566349
 20
215.304242993713
 30
0.0
 70
    32
  0
VERTEX
  5
84
  8
0
  6
________________
 62
     7
 10
307.273841501276
 20
215.3064327442645
 30
0.0
 70
    32
  0
VERTEX
  5
85
  8
0
  6
________________
 62
     7
 10
307.2830821297456
 20
215.3090673753191
 30
0.0
 70
    32
  0
VERTEX
  5
86
  8
0
  6
________________
 62
     7
 10
307.2921822646337
 20
215.3121518479652
 30
0.0
 70
    32
  0
VERTEX
  5
87
  8
0
  6
________________
 62
     7
 10
307.3011478979701
 20
215.315684106998
 30
0.0
 70
    32
  0
VERTEX
  5
88
  8
0
  6
________________
 62
     7
 10
307.3099493267309
 20
215.3196490254356
 30
0.0
 70
    32
  0
VERTEX
  5
89
  8
0
  6
________________
 62
     7
 10
307.3185568478924
 20
215.3240314762963
 30
0.0
 70
    32
  0
VERTEX
  5
8A
  8
0
  6
________________
 62
     7
 10
307.3269407584305
 20
215.3288163325979
 30
0.0
 70
    32
  0
VERTEX
  5
8B
  8
0
  6
________________
 62
     7
 10
307.3350713553216
 20
215.3339884673588
 30
0.0
 70
    32
  0
VERTEX
  5
8C
  8
0
  6
________________
 62
     7
 10
307.3429189355417
 20
215.339532753597
 30
0.0
 70
    32
  0
VERTEX
  5
8D
  8
0
  6
________________
 62
     7
 10
307.3504859651127
 20
215.3454557286147
 30
0.0
 70
    32
  0
VERTEX
  5
8E
  8
0
  6
________________
 62
     7
 10
307.3577778385468
 20
215.3517568118021
 30
0.0
 70
    32
  0
VERTEX
  5
8F
  8
0
  6
________________
 62
     7
 10
307.3647715278847
 20
215.3584118971751
 30
0.0
 70
    32
  0
VERTEX
  5
90
  8
0
  6
________________
 62
     7
 10
307.3714440051667
 20
215.3653968787494
 30
0.0
 70
    32
  0
VERTEX
  5
91
  8
0
  6
________________
 62
     7
 10
307.3777722424334
 20
215.372687650541
 30
0.0
 70
    32
  0
VERTEX
  5
92
  8
0
  6
________________
 62
     7
 10
307.3837332117251
 20
215.3802601065656
 30
0.0
 70
    32
  0
VERTEX
  5
93
  8
0
  6
________________
 62
     7
 10
307.3893038850825
 20
215.388090140839
 30
0.0
 70
    32
  0
VERTEX
  5
94
  8
0
  6
________________
 62
     7
 10
307.3931312669551
 20
215.393979703071
 30
0.0
 70
    32
  0
VERTEX
  5
95
  8
0
  6
________________
 62
     7
 10
307.396749551559
 20
215.4
 30
0.0
 70
    32
  0
SEQEND
  5
96
  8
0
  6
________________
 62
     7
  0
LINE
  5
97
  8
0
  6
________________
 62
     7
 10
333.2615000461993
 20
232.9178531948826
 30
0.0
 11
333.3286415354746
 21
232.9125039545754
 31
0.0
  0
LINE
  5
98
  8
0
  6
________________
 62
     7
 10
335.2209100529693
 20
220.4189918268626
 30
0.0
 11
335.3955711933007
 21
212.0807560723662
 31
0.0
  0
LINE
  5
99
  8
0
  6
________________
 62
     7
 10
335.4005300551936
 20
211.844022478056
 30
0.0
 11
335.4728770683384
 21
208.3902121422793
 31
0.0
  0
LINE
  5
9A
  8
0
  6
________________
 62
     7
 10
335.4728770683384
 20
208.3902121422793
 30
0.0
 11
334.2210651142231
 21
208.2376212732448
 31
0.0
  0
LINE
  5
9B
  8
0
  6
________________
 62
     7
 10
334.2210651142225
 20
208.2376212732447
 30
0.0
 11
333.7796038933481
 21
208.183834280471
 31
0.0
  0
LINE
  5
9C
  8
0
  6
________________
 62
     7
 10
333.7048264031166
 20
232.882599948181
 30
0.0
 11
334.9619301478572
 21
232.7825633711887
 31
0.0
  0
LINE
  5
9D
  8
0
  6
________________
 62
     7
 10
334.9619301478572
 20
232.7825633711887
 30
0.0
 11
335.034277161002
 21
229.328753035412
 31
0.0
  0
LINE
  5
9E
  8
0
  6
________________
 62
     7
 10
335.0392360228949
 20
229.0920194411018
 30
0.0
 11
335.2138971632264
 21
220.7537836866054
 31
0.0
  0
LINE
  5
9F
  8
0
  6
________________
 62
     7
 10
294.8540826846437
 20
246.3053610938181
 30
0.0
 11
294.898352014949
 21
246.7452669668503
 31
0.0
  0
LINE
  5
A0
  8
0
  6
________________
 62
     7
 10
307.3909771214207
 20
248.0
 30
0.0
 11
315.7310419899637
 21
248.0
 31
0.0
  0
LINE
  5
A1
  8
0
  6
________________
 62
     7
 10
315.9678275152525
 20
248.0
 30
0.0
 11
319.4223954948743
 21
248.0
 31
0.0
  0
LINE
  5
A2
  8
0
  6
________________
 62
     7
 10
319.4223954948743
 20
248.0
 30
0.0
 11
319.5487369266515
 21
246.7452669668834
 31
0.0
  0
LINE
  5
A3
  8
0
  6
________________
 62
     7
 10
319.5487369266515
 20
246.7452669668833
 30
0.0
 11
319.593030462126
 21
246.3051209941858
 31
0.0
  0
LINE
  5
A4
  8
0
  6
________________
 62
     7
 10
294.8983520149528
 20
246.7452669668836
 30
0.0
 11
295.02469344673
 21
248.0
 31
0.0
  0
LINE
  5
A5
  8
0
  6
________________
 62
     7
 10
295.0246934467299
 20
248.0
 30
0.0
 11
298.4792614263519
 21
248.0
 31
0.0
  0
LINE
  5
A6
  8
0
  6
________________
 62
     7
 10
298.7160469516406
 20
248.0
 30
0.0
 11
307.0561118201836
 21
248.0
 31
0.0
  0
LINE
  5
A7
  8
0
  6
________________
 62
     7
 10
319.5930062569605
 20
193.6946389061821
 30
0.0
 11
319.5487369266552
 21
193.2547330331497
 31
0.0
  0
LINE
  5
A8
  8
0
  6
________________
 62
     7
 10
319.5487369266515
 20
193.2547330331165
 30
0.0
 11
319.4223954948743
 21
192.0
 31
0.0
  0
LINE
  5
A9
  8
0
  6
________________
 62
     7
 10
319.4223954948743
 20
192.0
 30
0.0
 11
315.9678275152525
 21
192.0
 31
0.0
  0
LINE
  5
AA
  8
0
  6
________________
 62
     7
 10
315.7310419899637
 20
192.0
 30
0.0
 11
307.3909771214207
 21
192.0
 31
0.0
  0
LINE
  5
AB
  8
0
  6
________________
 62
     7
 10
307.0561118201836
 20
192.0
 30
0.0
 11
298.7160469516406
 21
192.0
 31
0.0
  0
LINE
  5
AC
  8
0
  6
________________
 62
     7
 10
298.4792614263519
 20
192.0
 30
0.0
 11
295.02469344673
 21
192.0
 31
0.0
  0
LINE
  5
AD
  8
0
  6
________________
 62
     7
 10
295.02469344673
 20
192.0
 30
0.0
 11
294.8983520149528
 21
193.2547330331165
 31
0.0
  0
LINE
  5
AE
  8
0
  6
________________
 62
     7
 10
294.8983520149528
 20
193.2547330331166
 30
0.0
 11
294.8540584794783
 21
193.6948790058142
 31
0.0
  0
LINE
  5
AF
  8
0
  6
________________
 62
     7
 10
335.215661093435
 20
220.6695745379298
 30
0.0
 11
335.2191461227607
 21
220.5032009755381
 31
0.0
  0
LINE
  5
B0
  8
0
  6
________________
 62
     7
 10
307.1403394413684
 20
248.0
 30
0.0
 11
307.3067495002359
 21
248.0
 31
0.0
  0
LINE
  5
B1
  8
0
  6
________________
 62
     7
 10
307.3067495002359
 20
192.0
 30
0.0
 11
307.1403394413684
 21
192.0
 31
0.0
  0
LINE
  5
B2
  8
0
  6
________________
 62
     7
 10
335.2138971632264
 20
220.7537836866054
 30
0.0
 11
335.215661093435
 21
220.6695745379298
 31
0.0
  0
LINE
  5
B3
  8
0
  6
________________
 62
     7
 10
307.3909771214207
 20
192.0
 30
0.0
 11
307.3067495002359
 21
192.0
 31
0.0
  0
LINE
  5
B4
  8
0
  6
________________
 62
     7
 10
307.0561118201836
 20
248.0
 30
0.0
 11
307.1403394413684
 21
248.0
 31
0.0
  0
LINE
  5
B5
  8
0
  6
________________
 62
     7
 10
307.1403394413684
 20
192.0
 30
0.0
 11
307.0561118201836
 21
192.0
 31
0.0
  0
LINE
  5
B6
  8
0
  6
________________
 62
     7
 10
307.3067495002359
 20
248.0
 30
0.0
 11
307.3909771214207
 21
248.0
 31
0.0
  0
LINE
  5
B7
  8
0
  6
________________
 62
     7
 10
335.2191461227606
 20
220.5032009755381
 30
0.0
 11
335.2209100529692
 21
220.4189918268626
 31
0.0
  0
LINE
  5
B8
  8
0
  6
________________
 62
     7
 10
335.3986894108309
 20
211.9318939222001
 30
0.0
 11
335.401194367464
 21
211.8123085414897
 31
0.0
  0
LINE
  5
B9
  8
0
  6
________________
 62
     7
 10
335.0336128487316
 20
229.3604669719783
 30
0.0
 11
335.0361178053647
 21
229.2408815912679
 31
0.0
  0
LINE
  5
BA
  8
0
  6
________________
 62
     7
 10
315.9995484087348
 20
192.0
 30
0.0
 11
315.879936795221
 21
192.0
 31
0.0
  0
LINE
  5
BB
  8
0
  6
________________
 62
     7
 10
298.5671521463833
 20
192.0
 30
0.0
 11
298.4475405328694
 21
192.0
 31
0.0
  0
LINE
  5
BC
  8
0
  6
________________
 62
     7
 10
315.879936795221
 20
248.0
 30
0.0
 11
315.9995484087348
 21
248.0
 31
0.0
  0
LINE
  5
BD
  8
0
  6
________________
 62
     7
 10
298.4475405328694
 20
248.0
 30
0.0
 11
298.5671521463833
 21
248.0
 31
0.0
  0
LINE
  5
BE
  8
0
  6
________________
 62
     7
 10
315.7310419899636
 20
248.0
 30
0.0
 11
315.8799367952209
 21
248.0
 31
0.0
  0
LINE
  5
BF
  8
0
  6
________________
 62
     7
 10
298.5671521463833
 20
248.0
 30
0.0
 11
298.7160469516406
 21
248.0
 31
0.0
  0
LINE
  5
C0
  8
0
  6
________________
 62
     7
 10
298.7160469516406
 20
192.0
 30
0.0
 11
298.5671521463833
 21
192.0
 31
0.0
  0
LINE
  5
C1
  8
0
  6
________________
 62
     7
 10
335.0361178053648
 20
229.2408815912679
 30
0.0
 11
335.0392360228949
 21
229.0920194411018
 31
0.0
  0
LINE
  5
C2
  8
0
  6
________________
 62
     7
 10
335.3955711933007
 20
212.0807560723662
 30
0.0
 11
335.3986894108309
 21
211.9318939222001
 31
0.0
  0
LINE
  5
C3
  8
0
  6
________________
 62
     7
 10
315.879936795221
 20
192.0
 30
0.0
 11
315.7310419899637
 21
192.0
 31
0.0
  0
LINE
  5
C4
  8
0
  6
________________
 62
     7
 10
333.3286415354746
 20
232.9125039545754
 30
0.0
 11
333.7048264031162
 21
232.882599948181
 31
0.0
  0
LINE
  5
C5
  8
0
  6
________________
 62
     7
 10
319.9235444708021
 20
207.5632411457825
 30
0.0
 11
330.4844689232422
 21
207.7844609771867
 31
0.0
  0
LINE
  5
C6
  8
0
  6
________________
 62
     7
 10
329.952531458205
 20
233.1788903374477
 30
0.0
 11
319.9235444708022
 21
232.9688130075228
 31
0.0
  0
LINE
  5
C7
  8
0
  6
________________
 62
     7
 10
319.9235444708021
 20
232.9688130075228
 30
0.0
 11
319.9235444708021
 21
243.0
 31
0.0
  0
LINE
  5
C8
  8
0
  6
________________
 62
     7
 10
319.9235444708021
 20
197.0
 30
0.0
 11
319.9235444708021
 21
207.5632411457826
 31
0.0
  0
LINE
  5
C9
  8
0
  6
________________
 62
     7
 10
294.5235444708022
 20
243.0
 30
0.0
 11
294.5235444708022
 21
197.0
 31
0.0
  0
LINE
  5
CA
  8
0
  6
________________
 62
     7
 10
330.4844689232422
 20
207.7844609771867
 30
0.0
 11
333.7796033962794
 21
208.1838342198182
 31
0.0
  0
LINE
  5
CB
  8
0
  6
________________
 62
     7
 10
333.7796033962794
 20
208.1838342198182
 30
0.0
 11
333.779798207744
 21
208.1838578311417
 31
0.0
  0
LINE
  5
CC
  8
0
  6
________________
 62
     7
 10
333.2771330474183
 20
232.9166200322329
 30
0.0
 11
333.2614995540794
 21
232.9178533231881
 31
0.0
  0
LINE
  5
CD
  8
0
  6
________________
 62
     7
 10
333.2614995540794
 20
232.9178533231881
 30
0.0
 11
329.952531458205
 21
233.1788903374477
 31
0.0
  0
LINE
  5
CE
  8
0
  6
________________
 62
     7
 10
319.9235444708021
 20
243.0
 30
0.0
 11
319.5932669070289
 21
246.302775637732
 31
0.0
  0
LINE
  5
CF
  8
0
  6
________________
 62
     7
 10
319.5932669070289
 20
246.302775637732
 30
0.0
 11
319.5931396939564
 21
246.3040477684569
 31
0.0
  0
LINE
  5
D0
  8
0
  6
________________
 62
     7
 10
294.8539674009021
 20
246.3042293009999
 30
0.0
 11
294.8538220345753
 21
246.302775637732
 31
0.0
  0
LINE
  5
D1
  8
0
  6
________________
 62
     7
 10
294.8538220345753
 20
246.302775637732
 30
0.0
 11
294.5235444708022
 21
243.0
 31
0.0
  0
LINE
  5
D2
  8
0
  6
________________
 62
     7
 10
294.5235444708022
 20
197.0
 30
0.0
 11
294.8538220345753
 21
193.697224362268
 31
0.0
  0
LINE
  5
D3
  8
0
  6
________________
 62
     7
 10
294.8538220345753
 20
193.6972243622679
 30
0.0
 11
294.8539492476478
 21
193.6959522315427
 31
0.0
  0
LINE
  5
D4
  8
0
  6
________________
 62
     7
 10
319.5931215407022
 20
193.6957706990005
 30
0.0
 11
319.5932669070289
 21
193.697224362268
 31
0.0
  0
LINE
  5
D5
  8
0
  6
________________
 62
     7
 10
319.5932669070289
 20
193.697224362268
 30
0.0
 11
319.9235444708021
 21
197.0
 31
0.0
  0
LINE
  5
D6
  8
0
  6
________________
 62
     7
 10
333.3182594912876
 20
232.9190422743823
 30
0.0
 11
333.2614995540794
 21
232.9178533231881
 31
0.0
  0
POLYLINE
  5
D7
  8
0
  6
________________
 62
     7
 66
     1
 10
0.0
 20
0.0
 30
0.0
  0
VERTEX
  5
13A
  8
0
  6
________________
 62
     7
 10
385.1674326506185
 20
208.3902121422793
 30
0.0
  0
VERTEX
  5
13B
  8
0
  6
________________
 62
     7
 10
387.5727787242482
 20
208.6633665905492
 30
0.0
  0
VERTEX
  5
13C
  8
0
  6
________________
 62
     7
 10
389.8768257698746
 20
209.4059708378292
 30
0.0
  0
VERTEX
  5
13D
  8
0
  6
________________
 62
     7
 10
391.9888556375087
 20
210.5887860351923
 30
0.0
  0
VERTEX
  5
13E
  8
0
  6
________________
 62
     7
 10
393.8257105449872
 20
212.1652407349387
 30
0.0
  0
SEQEND
  5
13F
  8
0
  6
________________
 62
     7
  0
POLYLINE
  5
D8
  8
0
  6
________________
 62
     7
 66
     1
 10
0.0
 20
0.0
 30
0.0
  0
VERTEX
  5
140
  8
0
  6
________________
 62
     7
 10
376.4925024808385
 20
211.844022478056
 30
0.0
  0
VERTEX
  5
141
  8
0
  6
________________
 62
     7
 10
378.4552074948114
 20
210.2927392993963
 30
0.0
  0
VERTEX
  5
142
  8
0
  6
________________
 62
     7
 10
380.6931660777119
 20
209.1743748836953
 30
0.0
  0
VERTEX
  5
143
  8
0
  6
________________
 62
     7
 10
383.1122566685329
 20
208.5359641516995
 30
0.0
  0
VERTEX
  5
144
  8
0
  6
________________
 62
     7
 10
385.6107398587058
 20
208.4043566685072
 30
0.0
  0
SEQEND
  5
145
  8
0
  6
________________
 62
     7
  0
POLYLINE
  5
D9
  8
0
  6
________________
 62
     7
 66
     1
 10
0.0
 20
0.0
 30
0.0
  0
VERTEX
  5
146
  8
0
  6
________________
 62
     7
 10
372.8011489759278
 20
220.4189918268626
 30
0.0
  0
VERTEX
  5
147
  8
0
  6
________________
 62
     7
 10
373.074760837127
 20
218.0123318768086
 30
0.0
  0
VERTEX
  5
148
  8
0
  6
________________
 62
     7
 10
373.8186374195766
 20
215.7071782910567
 30
0.0
  0
VERTEX
  5
149
  8
0
  6
________________
 62
     7
 10
375.0034443922069
 20
213.5944334317011
 30
0.0
  0
VERTEX
  5
14A
  8
0
  6
________________
 62
     7
 10
376.582459595981
 20
211.7574121370262
 30
0.0
  0
SEQEND
  5
14B
  8
0
  6
________________
 62
     7
  0
POLYLINE
  5
DA
  8
0
  6
________________
 62
     7
 66
     1
 10
0.0
 20
0.0
 30
0.0
  0
VERTEX
  5
14C
  8
0
  6
________________
 62
     7
 10
376.2557169555497
 20
229.0920194411019
 30
0.0
  0
VERTEX
  5
14D
  8
0
  6
________________
 62
     7
 10
374.7366405422276
 20
227.1806559254489
 30
0.0
  0
VERTEX
  5
14E
  8
0
  6
________________
 62
     7
 10
373.6287126696064
 20
225.0051270801384
 30
0.0
  0
VERTEX
  5
14F
  8
0
  6
________________
 62
     7
 10
372.9763167513146
 20
222.652584243256
 30
0.0
  0
VERTEX
  5
150
  8
0
  6
________________
 62
     7
 10
372.8055876636436
 20
220.2172699051191
 30
0.0
  0
SEQEND
  5
151
  8
0
  6
________________
 62
     7
  0
POLYLINE
  5
DB
  8
0
  6
________________
 62
     7
 66
     1
 10
0.0
 20
0.0
 30
0.0
  0
VERTEX
  5
152
  8
0
  6
________________
 62
     7
 10
384.8325673493815
 20
232.7825633711887
 30
0.0
  0
VERTEX
  5
153
  8
0
  6
________________
 62
     7
 10
382.4373302210783
 20
232.5115848171079
 30
0.0
  0
VERTEX
  5
154
  8
0
  6
________________
 62
     7
 10
380.1421381523631
 20
231.7750538690681
 30
0.0
  0
VERTEX
  5
155
  8
0
  6
________________
 62
     7
 10
378.0365940367375
 20
230.6017242444583
 30
0.0
  0
VERTEX
  5
156
  8
0
  6
________________
 62
     7
 10
376.2028970276958
 20
229.0374020136416
 30
0.0
  0
SEQEND
  5
157
  8
0
  6
________________
 62
     7
  0
POLYLINE
  5
DC
  8
0
  6
________________
 62
     7
 66
     1
 10
0.0
 20
0.0
 30
0.0
  0
VERTEX
  5
158
  8
0
  6
________________
 62
     7
 10
393.5074975191615
 20
229.328753035412
 30
0.0
  0
VERTEX
  5
159
  8
0
  6
________________
 62
     7
 10
391.7081880372664
 20
230.7743547031801
 30
0.0
  0
VERTEX
  5
15A
  8
0
  6
________________
 62
     7
 10
389.6687378748541
 20
231.8552460643772
 30
0.0
  0
VERTEX
  5
15B
  8
0
  6
________________
 62
     7
 10
387.4621555622701
 20
232.532733214539
 30
0.0
  0
VERTEX
  5
15C
  8
0
  6
________________
 62
     7
 10
385.1674326506185
 20
232.7825633711887
 30
0.0
  0
SEQEND
  5
15D
  8
0
  6
________________
 62
     7
  0
POLYLINE
  5
DD
  8
0
  6
________________
 62
     7
 66
     1
 10
0.0
 20
0.0
 30
0.0
  0
VERTEX
  5
15E
  8
0
  6
________________
 62
     7
 10
397.1988510240722
 20
220.7537836866054
 30
0.0
  0
VERTEX
  5
15F
  8
0
  6
________________
 62
     7
 10
396.9285216575585
 20
223.1451957157237
 30
0.0
  0
VERTEX
  5
160
  8
0
  6
________________
 62
     7
 10
396.1938071239678
 20
225.4369916737424
 30
0.0
  0
VERTEX
  5
161
  8
0
  6
________________
 62
     7
 10
395.0233103416858
 20
227.5399504417813
 30
0.0
  0
VERTEX
  5
162
  8
0
  6
________________
 62
     7
 10
393.4625995176884
 20
229.3722024565464
 30
0.0
  0
SEQEND
  5
163
  8
0
  6
________________
 62
     7
  0
POLYLINE
  5
DE
  8
0
  6
________________
 62
     7
 66
     1
 10
0.0
 20
0.0
 30
0.0
  0
VERTEX
  5
164
  8
0
  6
________________
 62
     7
 10
393.7442830444503
 20
212.0807560723662
 30
0.0
  0
VERTEX
  5
165
  8
0
  6
________________
 62
     7
 10
395.2427679782321
 20
213.9601943554424
 30
0.0
  0
VERTEX
  5
166
  8
0
  6
________________
 62
     7
 10
396.3435373767336
 20
216.0969205182271
 30
0.0
  0
VERTEX
  5
167
  8
0
  6
________________
 62
     7
 10
397.003849561975
 20
218.4079678088244
 30
0.0
  0
VERTEX
  5
168
  8
0
  6
________________
 62
     7
 10
397.1980653302993
 20
220.8036007756265
 30
0.0
  0
SEQEND
  5
169
  8
0
  6
________________
 62
     7
  0
POLYLINE
  5
DF
  8
0
  6
________________
 62
     7
 66
     1
 10
0.0
 20
0.0
 30
0.0
 70
     1
  0
VERTEX
  5
16A
  8
0
  6
________________
 62
     7
 10
396.35
 20
220.586387756734
 30
0.0
  0
VERTEX
  5
16B
  8
0
  6
________________
 62
     7
 10
396.1319129325767
 20
218.3725982289836
 30
0.0
  0
VERTEX
  5
16C
  8
0
  6
________________
 62
     7
 10
395.4860326940031
 20
216.2438833912773
 30
0.0
  0
VERTEX
  5
16D
  8
0
  6
________________
 62
     7
 10
394.4371800996339
 20
214.2820485610309
 30
0.0
  0
VERTEX
  5
16E
  8
0
  6
________________
 62
     7
 10
393.0256619664673
 20
212.5624859505612
 30
0.0
  0
VERTEX
  5
16F
  8
0
  6
________________
 62
     7
 10
391.3057221447725
 20
211.1512773866468
 30
0.0
  0
VERTEX
  5
170
  8
0
  6
________________
 62
     7
 10
389.3434569573437
 20
210.102654822984
 30
0.0
  0
VERTEX
  5
171
  8
0
  6
________________
 62
     7
 10
387.214275154883
 20
209.45691623662
 30
0.0
  0
VERTEX
  5
172
  8
0
  6
________________
 62
     7
 10
384.9999999999999
 20
209.2388769992945
 30
0.0
  0
VERTEX
  5
173
  8
0
  6
________________
 62
     7
 10
382.7857248451169
 20
209.45691623662
 30
0.0
  0
VERTEX
  5
174
  8
0
  6
________________
 62
     7
 10
380.6565430426562
 20
210.102654822984
 30
0.0
  0
VERTEX
  5
175
  8
0
  6
________________
 62
     7
 10
378.6942778552275
 20
211.1512773866468
 30
0.0
  0
VERTEX
  5
176
  8
0
  6
________________
 62
     7
 10
376.9743380335327
 20
212.5624859505613
 30
0.0
  0
VERTEX
  5
177
  8
0
  6
________________
 62
     7
 10
375.5628199003661
 20
214.2820485610309
 30
0.0
  0
VERTEX
  5
178
  8
0
  6
________________
 62
     7
 10
374.5139673059969
 20
216.2438833912773
 30
0.0
  0
VERTEX
  5
179
  8
0
  6
________________
 62
     7
 10
373.8680870674233
 20
218.3725982289837
 30
0.0
  0
VERTEX
  5
17A
  8
0
  6
________________
 62
     7
 10
373.65
 20
220.586387756734
 30
0.0
  0
VERTEX
  5
17B
  8
0
  6
________________
 62
     7
 10
373.8680870674233
 20
222.8001772844844
 30
0.0
  0
VERTEX
  5
17C
  8
0
  6
________________
 62
     7
 10
374.5139673059969
 20
224.9288921221908
 30
0.0
  0
VERTEX
  5
17D
  8
0
  6
________________
 62
     7
 10
375.5628199003661
 20
226.8907269524372
 30
0.0
  0
VERTEX
  5
17E
  8
0
  6
________________
 62
     7
 10
376.9743380335327
 20
228.6102895629068
 30
0.0
  0
VERTEX
  5
17F
  8
0
  6
________________
 62
     7
 10
378.6942778552275
 20
230.0214981268213
 30
0.0
  0
VERTEX
  5
180
  8
0
  6
________________
 62
     7
 10
380.6565430426563
 20
231.070120690484
 30
0.0
  0
VERTEX
  5
181
  8
0
  6
________________
 62
     7
 10
382.785724845117
 20
231.715859276848
 30
0.0
  0
VERTEX
  5
182
  8
0
  6
________________
 62
     7
 10
385.0000000000001
 20
231.9338985141735
 30
0.0
  0
VERTEX
  5
183
  8
0
  6
________________
 62
     7
 10
387.2142751548831
 20
231.715859276848
 30
0.0
  0
VERTEX
  5
184
  8
0
  6
________________
 62
     7
 10
389.3434569573438
 20
231.070120690484
 30
0.0
  0
VERTEX
  5
185
  8
0
  6
________________
 62
     7
 10
391.3057221447725
 20
230.0214981268212
 30
0.0
  0
VERTEX
  5
186
  8
0
  6
________________
 62
     7
 10
393.0256619664673
 20
228.6102895629067
 30
0.0
  0
VERTEX
  5
187
  8
0
  6
________________
 62
     7
 10
394.4371800996339
 20
226.8907269524371
 30
0.0
  0
VERTEX
  5
188
  8
0
  6
________________
 62
     7
 10
395.4860326940031
 20
224.9288921221907
 30
0.0
  0
VERTEX
  5
189
  8
0
  6
________________
 62
     7
 10
396.1319129325767
 20
222.8001772844843
 30
0.0
  0
SEQEND
  5
18A
  8
0
  6
________________
 62
     7
  0
LINE
  5
E0
  8
0
  6
________________
 62
     7
 10
372.3015749007997
 20
219.8041455298548
 30
0.0
 11
372.3
 21
220.0041894027819
 31
0.0
  0
LINE
  5
E1
  8
0
  6
________________
 62
     7
 10
397.7
 20
215.3
 30
0.0
 11
397.6988188427113
 21
215.3999999999957
 31
0.0
  0
LINE
  5
E2
  8
0
  6
________________
 62
     7
 10
397.6984250992003
 20
218.1248711305964
 30
0.0
 11
397.6984250992003
 21
220.6816317940125
 31
0.0
  0
LINE
  5
E3
  8
0
  6
________________
 62
     7
 10
397.6984250992003
 20
224.3
 30
0.0
 11
397.7
 21
224.5000000000009
 31
0.0
  0
LINE
  5
E4
  8
0
  6
________________
 62
     7
 10
397.6984250992003
 20
220.6816317940125
 30
0.0
 11
397.6984250992003
 21
224.3
 31
0.0
  0
LINE
  5
E5
  8
0
  6
________________
 62
     7
 10
372.3015749007997
 20
224.3
 30
0.0
 11
372.3015749007997
 21
220.6816317940123
 31
0.0
  0
LINE
  5
E6
  8
0
  6
________________
 62
     7
 10
372.3
 20
224.5
 30
0.0
 11
372.3015749007994
 21
224.3000000000002
 31
0.0
  0
LINE
  5
E7
  8
0
  6
________________
 62
     7
 10
372.3011811572887
 20
215.4
 30
0.0
 11
372.3
 21
215.3
 31
0.0
  0
LINE
  5
E8
  8
0
  6
________________
 62
     7
 10
372.3015749007997
 20
219.8041455298548
 30
0.0
 11
372.3015749007997
 21
218.1248711305964
 31
0.0
  0
LINE
  5
E9
  8
0
  6
________________
 62
     7
 10
372.6302775637725
 20
246.302775637725
 30
0.0
 11
372.6748075441469
 21
246.7452669668502
 31
0.0
  0
LINE
  5
EA
  8
0
  6
________________
 62
     7
 10
372.6748075441507
 20
246.7452669668835
 30
0.0
 11
372.8011489759278
 21
248.0
 31
0.0
  0
LINE
  5
EB
  8
0
  6
________________
 62
     7
 10
372.8011489759278
 20
248.0
 30
0.0
 11
376.2557169555497
 21
248.0
 31
0.0
  0
LINE
  5
EC
  8
0
  6
________________
 62
     7
 10
376.4925024808385
 20
248.0
 30
0.0
 11
384.8325673493815
 21
248.0
 31
0.0
  0
LINE
  5
ED
  8
0
  6
________________
 62
     7
 10
385.1674326506185
 20
248.0
 30
0.0
 11
393.5074975191615
 21
248.0
 31
0.0
  0
LINE
  5
EE
  8
0
  6
________________
 62
     7
 10
393.7442830444503
 20
248.0
 30
0.0
 11
397.1988510240722
 21
248.0
 31
0.0
  0
LINE
  5
EF
  8
0
  6
________________
 62
     7
 10
397.1988510240722
 20
248.0
 30
0.0
 11
397.3251924558493
 21
246.7452669668834
 31
0.0
  0
LINE
  5
F0
  8
0
  6
________________
 62
     7
 10
397.3251924558493
 20
246.7452669668833
 30
0.0
 11
397.3696170338817
 21
246.3038211446065
 31
0.0
  0
LINE
  5
F1
  8
0
  6
________________
 62
     7
 10
397.3697224362275
 20
193.697224362275
 30
0.0
 11
397.3251924558531
 21
193.2547330331497
 31
0.0
  0
LINE
  5
F2
  8
0
  6
________________
 62
     7
 10
397.3251924558493
 20
193.2547330331165
 30
0.0
 11
397.1988510240722
 21
192.0
 31
0.0
  0
LINE
  5
F3
  8
0
  6
________________
 62
     7
 10
397.1988510240722
 20
192.0
 30
0.0
 11
393.7442830444503
 21
192.0
 31
0.0
  0
LINE
  5
F4
  8
0
  6
________________
 62
     7
 10
393.5074975191615
 20
192.0
 30
0.0
 11
385.1674326506185
 21
192.0
 31
0.0
  0
LINE
  5
F5
  8
0
  6
________________
 62
     7
 10
384.8325673493815
 20
192.0
 30
0.0
 11
376.4925024808385
 21
192.0
 31
0.0
  0
LINE
  5
F6
  8
0
  6
________________
 62
     7
 10
376.2557169555497
 20
192.0
 30
0.0
 11
372.8011489759278
 21
192.0
 31
0.0
  0
LINE
  5
F7
  8
0
  6
________________
 62
     7
 10
372.8011489759278
 20
192.0
 30
0.0
 11
372.6748075441507
 21
193.2547330331166
 31
0.0
  0
LINE
  5
F8
  8
0
  6
________________
 62
     7
 10
372.6748075441507
 20
193.2547330331167
 30
0.0
 11
372.6303829661183
 21
193.6961788553935
 31
0.0
  0
LINE
  5
F9
  8
0
  6
________________
 62
     7
 10
385.0832050294338
 20
192.0
 30
0.0
 11
384.9167949705662
 21
192.0
 31
0.0
  0
LINE
  5
FA
  8
0
  6
________________
 62
     7
 10
384.9167949705662
 20
248.0
 30
0.0
 11
385.0832050294338
 21
248.0
 31
0.0
  0
LINE
  5
FB
  8
0
  6
________________
 62
     7
 10
384.8325673493815
 20
248.0
 30
0.0
 11
384.9167949705662
 21
248.0
 31
0.0
  0
LINE
  5
FC
  8
0
  6
________________
 62
     7
 10
385.1674326506185
 20
192.0
 30
0.0
 11
385.0832050294338
 21
192.0
 31
0.0
  0
LINE
  5
FD
  8
0
  6
________________
 62
     7
 10
384.9167949705662
 20
192.0
 30
0.0
 11
384.8325673493815
 21
192.0
 31
0.0
  0
LINE
  5
FE
  8
0
  6
________________
 62
     7
 10
385.0832050294338
 20
248.0
 30
0.0
 11
385.1674326506185
 21
248.0
 31
0.0
  0
LINE
  5
FF
  8
0
  6
________________
 62
     7
 10
376.3436076755811
 20
192.0
 30
0.0
 11
376.2239960620673
 21
192.0
 31
0.0
  0
LINE
  5
100
  8
0
  6
________________
 62
     7
 10
376.2239960620673
 20
248.0
 30
0.0
 11
376.3436076755811
 21
248.0
 31
0.0
  0
LINE
  5
101
  8
0
  6
________________
 62
     7
 10
393.7760039379327
 20
192.0
 30
0.0
 11
393.6563923244189
 21
192.0
 31
0.0
  0
LINE
  5
102
  8
0
  6
________________
 62
     7
 10
393.6563923244189
 20
248.0
 30
0.0
 11
393.7760039379327
 21
248.0
 31
0.0
  0
LINE
  5
103
  8
0
  6
________________
 62
     7
 10
393.6563923244189
 20
192.0
 30
0.0
 11
393.5074975191615
 21
192.0
 31
0.0
  0
LINE
  5
104
  8
0
  6
________________
 62
     7
 10
376.4925024808385
 20
192.0
 30
0.0
 11
376.3436076755811
 21
192.0
 31
0.0
  0
LINE
  5
105
  8
0
  6
________________
 62
     7
 10
393.5074975191615
 20
248.0
 30
0.0
 11
393.6563923244189
 21
248.0
 31
0.0
  0
LINE
  5
106
  8
0
  6
________________
 62
     7
 10
376.3436076755811
 20
248.0
 30
0.0
 11
376.4925024808385
 21
248.0
 31
0.0
  0
LINE
  5
107
  8
0
  6
________________
 62
     7
 10
372.3
 20
220.6816317940123
 30
0.0
 11
372.3
 21
220.0037665093173
 31
0.0
  0
LINE
  5
108
  8
0
  6
________________
 62
     7
 10
397.7
 20
224.5000000000009
 30
0.0
 11
397.7
 21
243.0
 31
0.0
  0
LINE
  5
109
  8
0
  6
________________
 62
     7
 10
397.7
 20
197.0
 30
0.0
 11
397.7
 21
218.1248711305964
 31
0.0
  0
LINE
  5
10A
  8
0
  6
________________
 62
     7
 10
372.3
 20
218.1248711305964
 30
0.0
 11
372.3
 21
197.0
 31
0.0
  0
LINE
  5
10B
  8
0
  6
________________
 62
     7
 10
372.3
 20
232.9101713384842
 30
0.0
 11
372.3
 21
224.5
 31
0.0
  0
LINE
  5
10C
  8
0
  6
________________
 62
     7
 10
372.3
 20
243.0
 30
0.0
 11
372.3
 21
232.9101713384842
 31
0.0
  0
LINE
  5
10D
  8
0
  6
________________
 62
     7
 10
397.7
 20
243.0
 30
0.0
 11
397.3697994183875
 21
246.3020058161252
 31
0.0
  0
LINE
  5
10E
  8
0
  6
________________
 62
     7
 10
372.6302777805263
 20
246.302777805263
 30
0.0
 11
372.3
 21
243.0
 31
0.0
  0
LINE
  5
10F
  8
0
  6
________________
 62
     7
 10
372.3
 20
197.0
 30
0.0
 11
372.6302005816125
 21
193.6979941838748
 31
0.0
  0
LINE
  5
110
  8
0
  6
________________
 62
     7
 10
397.3697222194737
 20
193.697222194737
 30
0.0
 11
397.7
 21
197.0
 31
0.0
  0
INSERT
  5
114
  8
0
  6
________________
 62
     7
  2
_1956
 10
0.0
 20
0.0
 30
0.0
  0
ARC
  5
115
  8
0
  6
________________
 62
     7
 10
-307.2235444708022
 20
135.0
 30
0.0
 40
12.69999999999999
 50
270.0
 51
90.0
210
0.0
220
0.0
230
-1.0
  0
CIRCLE
  5
116
  8
0
  6
________________
 62
     7
 10
307.2235444708022
 20
135.0
 30
0.0
 40
11.14600079976008
  0
LINE
  5
117
  8
0
  6
________________
 62
     7
 10
333.5549582428982
 20
147.3663081350034
 30
0.0
 11
333.964688273333
 21
147.3251924558493
 31
0.0
  0
LINE
  5
118
  8
0
  6
________________
 62
     7
 10
333.964688273333
 20
147.3251924558493
 30
0.0
 11
335.2209100529692
 21
147.1988510240722
 31
0.0
  0
POLYLINE
  5
119
  8
0
  6
________________
 62
     7
 66
     1
 10
0.0
 20
0.0
 30
0.0
  0
VERTEX
  5
18B
  8
0
  6
________________
 62
     7
 10
335.2209100529692
 20
147.1988510240722
 30
0.0
  0
VERTEX
  5
18C
  8
0
  6
________________
 62
     7
 10
335.268967103701
 20
146.9489660635215
 30
0.0
  0
VERTEX
  5
18D
  8
0
  6
________________
 62
     7
 10
335.3151782769983
 20
146.271330296638
 30
0.0
  0
VERTEX
  5
18E
  8
0
  6
________________
 62
     7
 10
335.3578892986308
 20
145.1902018261014
 30
0.0
  0
VERTEX
  5
18F
  8
0
  6
________________
 62
     7
 10
335.3955711933007
 20
143.7442830444504
 30
0.0
  0
SEQEND
  5
190
  8
0
  6
________________
 62
     7
  0
POLYLINE
  5
11A
  8
0
  6
________________
 62
     7
 66
     1
 10
0.0
 20
0.0
 30
0.0
  0
VERTEX
  5
191
  8
0
  6
________________
 62
     7
 10
335.4005300551936
 20
143.5074975191618
 30
0.0
  0
VERTEX
  5
192
  8
0
  6
________________
 62
     7
 10
335.4308110934361
 20
141.7081880372667
 30
0.0
  0
VERTEX
  5
193
  8
0
  6
________________
 62
     7
 10
335.453452539814
 20
139.6687378748543
 30
0.0
  0
VERTEX
  5
194
  8
0
  6
________________
 62
     7
 10
335.4676438725721
 20
137.4621555622703
 30
0.0
  0
VERTEX
  5
195
  8
0
  6
________________
 62
     7
 10
335.4728770683384
 20
135.1674326506186
 30
0.0
  0
SEQEND
  5
196
  8
0
  6
________________
 62
     7
  0
POLYLINE
  5
11B
  8
0
  6
________________
 62
     7
 66
     1
 10
0.0
 20
0.0
 30
0.0
  0
VERTEX
  5
197
  8
0
  6
________________
 62
     7
 10
335.4728770683384
 20
134.8325673493814
 30
0.0
  0
VERTEX
  5
198
  8
0
  6
________________
 62
     7
 10
335.4676438725721
 20
132.5378444377298
 30
0.0
  0
VERTEX
  5
199
  8
0
  6
________________
 62
     7
 10
335.453452539814
 20
130.3312621251457
 30
0.0
  0
VERTEX
  5
19A
  8
0
  6
________________
 62
     7
 10
335.4308110934361
 20
128.2918119627333
 30
0.0
  0
VERTEX
  5
19B
  8
0
  6
________________
 62
     7
 10
335.4005300551936
 20
126.4925024808382
 30
0.0
  0
SEQEND
  5
19C
  8
0
  6
________________
 62
     7
  0
POLYLINE
  5
11C
  8
0
  6
________________
 62
     7
 66
     1
 10
0.0
 20
0.0
 30
0.0
  0
VERTEX
  5
19D
  8
0
  6
________________
 62
     7
 10
335.3955711933007
 20
126.2557169555496
 30
0.0
  0
VERTEX
  5
19E
  8
0
  6
________________
 62
     7
 10
335.3578892986308
 20
124.8097981738986
 30
0.0
  0
VERTEX
  5
19F
  8
0
  6
________________
 62
     7
 10
335.3151782769983
 20
123.7286697033621
 30
0.0
  0
VERTEX
  5
1A0
  8
0
  6
________________
 62
     7
 10
335.268967103701
 20
123.0510339364786
 30
0.0
  0
VERTEX
  5
1A1
  8
0
  6
________________
 62
     7
 10
335.2209100529692
 20
122.8011489759278
 30
0.0
  0
SEQEND
  5
1A2
  8
0
  6
________________
 62
     7
  0
LINE
  5
11D
  8
0
  6
________________
 62
     7
 10
335.2209100529692
 20
122.8011489759278
 30
0.0
 11
333.9646882733329
 21
122.6748075441507
 31
0.0
  0
LINE
  5
11E
  8
0
  6
________________
 62
     7
 10
333.9646882733327
 20
122.6748075441507
 30
0.0
 11
333.5550199154465
 21
122.6336980336463
 31
0.0
  0
POLYLINE
  5
11F
  8
0
  6
________________
 62
     7
 66
     1
 10
0.0
 20
0.0
 30
0.0
  0
VERTEX
  5
1A3
  8
0
  6
________________
 62
     7
 10
335.4755229636514
 20
135.0832050294338
 30
0.0
  0
VERTEX
  5
1A4
  8
0
  6
________________
 62
     7
 10
335.4758409002025
 20
135.0707698251241
 30
0.0
  0
VERTEX
  5
1A5
  8
0
  6
________________
 62
     7
 10
335.4761018552158
 20
135.0556091963375
 30
0.0
  0
VERTEX
  5
1A6
  8
0
  6
________________
 62
     7
 10
335.4762957790242
 20
135.0383069957075
 30
0.0
  0
VERTEX
  5
1A7
  8
0
  6
________________
 62
     7
 10
335.4764152034067
 20
135.0195295501753
 30
0.0
  0
VERTEX
  5
1A8
  8
0
  6
________________
 62
     7
 10
335.4764555291979
 20
135.0000000000001
 30
0.0
  0
VERTEX
  5
1A9
  8
0
  6
________________
 62
     7
 10
335.4764152034067
 20
134.9804704498247
 30
0.0
  0
VERTEX
  5
1AA
  8
0
  6
________________
 62
     7
 10
335.4762957790242
 20
134.9616930042926
 30
0.0
  0
VERTEX
  5
1AB
  8
0
  6
________________
 62
     7
 10
335.4761018552159
 20
134.9443908036626
 30
0.0
  0
VERTEX
  5
1AC
  8
0
  6
________________
 62
     7
 10
335.4758409002025
 20
134.929230174876
 30
0.0
  0
VERTEX
  5
1AD
  8
0
  6
________________
 62
     7
 10
335.4755229636514
 20
134.9167949705663
 30
0.0
  0
SEQEND
  5
1AE
  8
0
  6
________________
 62
     7
  0
LINE
  5
120
  8
0
  6
________________
 62
     7
 10
335.4728770683384
 20
135.1674326506186
 30
0.0
 11
335.4755229636514
 21
135.0832050294338
 31
0.0
  0
LINE
  5
121
  8
0
  6
________________
 62
     7
 10
335.4755229636514
 20
134.9167949705662
 30
0.0
 11
335.4728770683384
 21
134.8325673493815
 31
0.0
  0
POLYLINE
  5
122
  8
0
  6
________________
 62
     7
 66
     1
 10
0.0
 20
0.0
 30
0.0
  0
VERTEX
  5
1AF
  8
0
  6
________________
 62
     7
 10
335.3991001254756
 20
143.7760039379327
 30
0.0
  0
VERTEX
  5
1B0
  8
0
  6
________________
 62
     7
 10
335.3995089305417
 20
143.7740801978863
 30
0.0
  0
VERTEX
  5
1B1
  8
0
  6
________________
 62
     7
 10
335.3999020069143
 20
143.7683829932626
 30
0.0
  0
VERTEX
  5
1B2
  8
0
  6
________________
 62
     7
 10
335.4002642310581
 20
143.7591315228752
 30
0.0
  0
VERTEX
  5
1B3
  8
0
  6
________________
 62
     7
 10
335.4005816664715
 20
143.7466817352056
 30
0.0
  0
VERTEX
  5
1B4
  8
0
  6
________________
 62
     7
 10
335.4008420998899
 20
143.731512633356
 30
0.0
  0
VERTEX
  5
1B5
  8
0
  6
________________
 62
     7
 10
335.4010355111895
 20
143.7142078455002
 30
0.0
  0
VERTEX
  5
1B6
  8
0
  6
________________
 62
     7
 10
335.401154458909
 20
143.6954331699062
 30
0.0
  0
VERTEX
  5
1B7
  8
0
  6
________________
 62
     7
 10
335.4011943665587
 20
143.6759109584797
 30
0.0
  0
VERTEX
  5
1B8
  8
0
  6
________________
 62
     7
 10
335.4011536986996
 20
143.6563923244193
 30
0.0
  0
SEQEND
  5
1B9
  8
0
  6
________________
 62
     7
  0
POLYLINE
  5
123
  8
0
  6
________________
 62
     7
 66
     1
 10
0.0
 20
0.0
 30
0.0
  0
VERTEX
  5
1BA
  8
0
  6
________________
 62
     7
 10
335.4011536986996
 20
126.3436076755808
 30
0.0
  0
VERTEX
  5
1BB
  8
0
  6
________________
 62
     7
 10
335.4011943665587
 20
126.3240890415203
 30
0.0
  0
VERTEX
  5
1BC
  8
0
  6
________________
 62
     7
 10
335.401154458909
 20
126.3045668300939
 30
0.0
  0
VERTEX
  5
1BD
  8
0
  6
________________
 62
     7
 10
335.4010355111895
 20
126.2857921544998
 30
0.0
  0
VERTEX
  5
1BE
  8
0
  6
________________
 62
     7
 10
335.4008420998899
 20
126.268487366644
 30
0.0
  0
VERTEX
  5
1BF
  8
0
  6
________________
 62
     7
 10
335.4005816664715
 20
126.2533182647944
 30
0.0
  0
VERTEX
  5
1C0
  8
0
  6
________________
 62
     7
 10
335.4002642310581
 20
126.2408684771248
 30
0.0
  0
VERTEX
  5
1C1
  8
0
  6
________________
 62
     7
 10
335.3999020069143
 20
126.2316170067374
 30
0.0
  0
VERTEX
  5
1C2
  8
0
  6
________________
 62
     7
 10
335.3995089305417
 20
126.2259198021137
 30
0.0
  0
VERTEX
  5
1C3
  8
0
  6
________________
 62
     7
 10
335.3991001254756
 20
126.2239960620673
 30
0.0
  0
SEQEND
  5
1C4
  8
0
  6
________________
 62
     7
  0
LINE
  5
124
  8
0
  6
________________
 62
     7
 10
335.4005300551936
 20
126.4925024808385
 30
0.0
 11
335.4011536986997
 21
126.3436076755811
 31
0.0
  0
LINE
  5
125
  8
0
  6
________________
 62
     7
 10
335.4011536986997
 20
143.6563923244189
 30
0.0
 11
335.4005300551936
 21
143.5074975191615
 31
0.0
  0
LINE
  5
126
  8
0
  6
________________
 62
     7
 10
307.2235444708022
 20
122.3
 30
0.0
 11
330.2185001907235
 21
122.3
 31
0.0
  0
LINE
  5
127
  8
0
  6
________________
 62
     7
 10
330.2185001907235
 20
147.7
 30
0.0
 11
307.2235444708022
 21
147.7
 31
0.0
  0
LINE
  5
128
  8
0
  6
________________
 62
     7
 10
330.2190573157976
 20
122.3000278623949
 30
0.0
 11
333.5550293187438
 21
122.6336989741553
 31
0.0
  0
LINE
  5
129
  8
0
  6
________________
 62
     7
 10
333.5549595782045
 20
147.3663080014438
 30
0.0
 11
330.2190573157976
 21
147.6999721376051
 31
0.0
  0
INSERT
  5
12D
  8
0
  6
________________
 62
     7
  2
_2069
 10
0.0
 20
0.0
 30
0.0
  0
CIRCLE
  5
12E
  8
0
  6
________________
 62
     7
 10
307.2235444708022
 20
135.0
 30
0.0
 40
12.19340989995094
  0
TEXT
  5
12F
  8
0
 62
     7
 10
371.2258994578931
 20
148.6411189915657
 30
0.0
 40
3.0
  1
DPTS-16
  7
EXPLODED0
  0
LINE
  5
130
  8
0
  6
________________0
 62
     1
 10
371.65
 20
220.586387756734
 30
0.0
 11
398.35
 21
220.586387756734
 31
0.0
  0
LINE
  5
132
  8
0
  6
________________0
 62
     1
 10
385.0000000000001
 20
250.0
 30
0.0
 11
384.9999999999999
 21
190.0
 31
0.0
  0
LINE
  5
133
  8
0
  6
________________0
 62
     1
 10
294.0775436710421
 20
135.0
 30
0.0
 11
337.2829116378273
 21
135.0
 31
0.0
  0
LINE
  5
134
  8
0
  6
________________0
 62
     1
 10
307.2235444708022
 20
121.8539992002399
 30
0.0
 11
307.2235444708022
 21
148.1460007997601
 31
0.0
  0
LINE
  5
135
  8
0
  6
________________0
 62
     1
 10
340.0903138741949
 20
220.6884606758584
 30
0.0
 11
307.2235444708022
 21
220.0
 31
0.0
  0
LINE
  5
136
  8
0
  6
________________0
 62
     1
 10
307.2235444708022
 20
190.0
 30
0.0
 11
307.2235444708022
 21
250.0
 31
0.0
  0
ENDSEC
  0
EOF
