  0
SECTION
  2
HEADER
  9
$ACADVER
  1
AC1006
  9
$DWGCODEPAGE
  3
ansi_932
  9
$INSBASE
 10
0.0
 20
0.0
 30
0.0
  9
$EXTMIN
 10
326.3067351958319
 20
120.4629430210596
  9
$EXTMAX
 10
450.9139875191638
 20
265.0
  9
$LIMMIN
 10
0.0
 20
0.0
  9
$LIMMAX
 10
12.0
 20
9.0
  9
$ORTHOMODE
 70
     0
  9
$REGENMODE
 70
     1
  9
$FILLMODE
 70
     1
  9
$QTEXTMODE
 70
     0
  9
$MIRRTEXT
 70
     1
  9
$DRAGMODE
 70
     2
  9
$LTSCALE
 40
1.0
  9
$OSMODE
 70
    37
  9
$ATTMODE
 70
     1
  9
$TEXTSIZE
 40
0.2
  9
$TRACEWID
 40
0.05
  9
$TEXTSTYLE
  7
STANDARD
  9
$CLAYER
  8
0
  9
$CELTYPE
  6
BYLAYER
  9
$CECOLOR
 62
   256
  9
$DIMSCALE
 40
1.0
  9
$DIMASZ
 40
3.0
  9
$DIMEXO
 40
0.0625
  9
$DIMDLI
 40
0.38
  9
$DIMRND
 40
0.0
  9
$DIMDLE
 40
0.0
  9
$DIMEXE
 40
0.18
  9
$DIMTP
 40
0.0
  9
$DIMTM
 40
0.0
  9
$DIMTXT
 40
3.0
  9
$DIMCEN
 40
0.09
  9
$DIMTSZ
 40
0.0
  9
$DIMTOL
 70
     0
  9
$DIMLIM
 70
     0
  9
$DIMTIH
 70
     1
  9
$DIMTOH
 70
     1
  9
$DIMSE1
 70
     0
  9
$DIMSE2
 70
     0
  9
$DIMTAD
 70
     1
  9
$DIMZIN
 70
     0
  9
$DIMBLK
  1

  9
$DIMASO
 70
     1
  9
$DIMSHO
 70
     1
  9
$DIMPOST
  1

  9
$DIMAPOST
  1

  9
$DIMALT
 70
     0
  9
$DIMALTD
 70
     2
  9
$DIMALTF
 40
25.4
  9
$DIMLFAC
 40
1.0
  9
$DIMTOFL
 70
     0
  9
$DIMTVP
 40
0.0
  9
$DIMTIX
 70
     0
  9
$DIMSOXD
 70
     0
  9
$DIMSAH
 70
     0
  9
$DIMBLK1
  1

  9
$DIMBLK2
  1

  9
$LUNITS
 70
     2
  9
$LUPREC
 70
     4
  9
$SKETCHINC
 40
0.1
  9
$FILLETRAD
 40
0.5
  9
$AUNITS
 70
     0
  9
$AUPREC
 70
     0
  9
$MENU
  1
.
  9
$ELEVATION
 40
0.0
  9
$THICKNESS
 40
0.0
  9
$LIMCHECK
 70
     0
  9
$CHAMFERA
 40
0.5
  9
$CHAMFERB
 40
0.5
  9
$SKPOLY
 70
     0
  9
$TDCREATE
 40
2460339.421130174
  9
$TDUPDATE
 40
2460339.421130185
  9
$TDINDWG
 40
0.0000000116
  9
$TDUSRTIMER
 40
0.0000000116
  9
$USRTIMER
 70
     1
  9
$ANGBASE
 50
0.0
  9
$ANGDIR
 70
     0
  9
$PDMODE
 70
     0
  9
$PDSIZE
 40
0.0
  9
$PLINEWID
 40
0.0
  9
$COORDS
 70
     1
  9
$SPLFRAME
 70
     0
  9
$SPLINETYPE
 70
     6
  9
$SPLINESEGS
 70
     8
  9
$ATTDIA
 70
     0
  9
$ATTREQ
 70
     1
  9
$HANDLING
 70
     1
  9
$HANDSEED
  5
3C0
  9
$SURFTAB1
 70
     6
  9
$SURFTAB2
 70
     6
  9
$SURFTYPE
 70
     6
  9
$SURFU
 70
     6
  9
$SURFV
 70
     6
  9
$UCSNAME
  2

  9
$UCSORG
 10
0.0
 20
0.0
 30
0.0
  9
$UCSXDIR
 10
1.0
 20
0.0
 30
0.0
  9
$UCSYDIR
 10
0.0
 20
1.0
 30
0.0
  9
$USERI1
 70
     0
  9
$USERI2
 70
     0
  9
$USERI3
 70
     0
  9
$USERI4
 70
     0
  9
$USERI5
 70
     0
  9
$USERR1
 40
0.0
  9
$USERR2
 40
0.0
  9
$USERR3
 40
0.0
  9
$USERR4
 40
0.0
  9
$USERR5
 40
0.0
  9
$WORLDVIEW
 70
     1
  0
ENDSEC
  0
SECTION
  2
TABLES
  0
TABLE
  2
VPORT
 70
     1
  0
VPORT
  2
*ACTIVE
 70
     0
 10
0.0
 20
0.0
 11
1.0
 21
1.0
 12
388.6103613574978
 22
192.7314715105298
 13
0.0
 23
0.0
 14
0.5
 24
0.5
 15
0.5
 25
0.5
 16
0.0
 26
0.0
 36
1.0
 17
0.0
 27
0.0
 37
0.0
 40
144.5370569789404
 41
1.6
 42
50.0
 43
0.0
 44
0.0
 50
0.0
 51
0.0
 71
     0
 72
   100
 73
     1
 74
     3
 75
     0
 76
     0
 77
     0
 78
     0
  0
ENDTAB
  0
TABLE
  2
LTYPE
 70
     3
  0
LTYPE
  2
CONTINUOUS
 70
     0
  3
Solid line
 72
    65
 73
     0
 40
0.0
  0
LTYPE
  2
________________
 70
     0
  3

 72
    65
 73
     0
 40
0.0
  0
LTYPE
  2
________________0
 70
     0
  3

 72
    65
 73
     4
 40
7.2
 49
2.7
 49
-1.8
 49
0.8999999999999999
 49
-1.8
  0
ENDTAB
  0
TABLE
  2
LAYER
 70
     1
  0
LAYER
  2
0
 70
     0
 62
     7
  6
CONTINUOUS
  0
ENDTAB
  0
TABLE
  2
STYLE
 70
     2
  0
STYLE
  2
STANDARD
 70
     0
 40
0.0
 41
1.0
 50
0.0
 71
     0
 42
0.2
  3
txt
  4

  0
STYLE
  2
EXPLODED0
 70
     0
 40
0.2
 41
1.0
 50
0.0
 71
     0
 42
0.2
  3
ＭＳ ゴシック
  4

  0
ENDTAB
  0
TABLE
  2
VIEW
 70
     0
  0
ENDTAB
  0
TABLE
  2
UCS
 70
     0
  0
ENDTAB
  0
ENDSEC
  0
SECTION
  2
BLOCKS
  0
BLOCK
  8
0
  2
_1481
 70
     0
 10
0.0
 20
0.0
 30
0.0
  0
ENDBLK
  8
0
  0
BLOCK
  8
0
  2
_1942
 70
     0
 10
0.0
 20
0.0
 30
0.0
  0
ENDBLK
  8
0
  0
BLOCK
  8
0
  2
_2058
 70
     0
 10
0.0
 20
0.0
 30
0.0
  0
ENDBLK
  8
0
  0
ENDSEC
  0
SECTION
  2
ENTITIES
  0
INSERT
  5
3C
  8
0
  6
________________
 62
     7
  2
_1481
 10
0.0
 20
0.0
 30
0.0
  0
LINE
  5
3E
  8
0
  6
________________
 62
     7
 10
342.6797807740809
 20
228.0248711305965
 30
0.0
 11
341.6529858548378
 21
226.2464101615138
 31
0.0
  0
POLYLINE
  5
3F
  8
0
  6
________________
 62
     7
 10
0.0
 20
0.0
 30
0.0
 66
     1
 70
     8
  0
VERTEX
  5
40
  8
0
  6
________________
 62
     7
 10
342.9529858548378
 20
228.0980762113533
 30
0.0
 70
    32
  0
VERTEX
  5
41
  8
0
  6
________________
 62
     7
 10
342.8512257469856
 20
228.1248440820851
 30
0.0
 70
    32
  0
VERTEX
  5
42
  8
0
  6
________________
 62
     7
 10
342.7499415471622
 20
228.0962768217764
 30
0.0
 70
    32
  0
VERTEX
  5
43
  8
0
  6
________________
 62
     7
 10
342.6797807740803
 20
228.024871130597
 30
0.0
 70
    32
  0
SEQEND
  5
44
  8
0
  6
________________
 62
     7
  0
POLYLINE
  5
45
  8
0
  6
________________
 62
     7
 10
0.0
 20
0.0
 30
0.0
 66
     1
 70
     8
  0
VERTEX
  5
46
  8
0
  6
________________
 62
     7
 10
343.0261909355947
 20
227.8248711305964
 30
0.0
 70
    32
  0
VERTEX
  5
47
  8
0
  6
________________
 62
     7
 10
343.0529646509132
 20
227.9257081967274
 30
0.0
 70
    32
  0
VERTEX
  5
48
  8
0
  6
________________
 62
     7
 10
343.0254223470669
 20
228.0261814073586
 30
0.0
 70
    32
  0
VERTEX
  5
49
  8
0
  6
________________
 62
     7
 10
342.9529858548389
 20
228.0980762113544
 30
0.0
 70
    32
  0
SEQEND
  5
4A
  8
0
  6
________________
 62
     7
  0
LINE
  5
4B
  8
0
  6
________________
 62
     7
 10
341.6261909355947
 20
225.4
 30
0.0
 11
343.0261909355947
 21
227.8248711305964
 31
0.0
  0
LINE
  5
4C
  8
0
  6
________________
 62
     7
 10
339.8797807740809
 20
227.8248711305964
 30
0.0
 11
341.279780774081
 21
225.4
 31
0.0
  0
POLYLINE
  5
4D
  8
0
  6
________________
 62
     7
 10
0.0
 20
0.0
 30
0.0
 66
     1
 70
     8
  0
VERTEX
  5
4E
  8
0
  6
________________
 62
     7
 10
339.9529858548378
 20
228.0980762113533
 30
0.0
 70
    32
  0
VERTEX
  5
4F
  8
0
  6
________________
 62
     7
 10
339.8791123064395
 20
228.0236645651626
 30
0.0
 70
    32
  0
VERTEX
  5
50
  8
0
  6
________________
 62
     7
 10
339.8530077197876
 20
227.9222603658448
 30
0.0
 70
    32
  0
VERTEX
  5
51
  8
0
  6
________________
 62
     7
 10
339.8797807740799
 20
227.8248711305961
 30
0.0
 70
    32
  0
SEQEND
  5
52
  8
0
  6
________________
 62
     7
  0
POLYLINE
  5
53
  8
0
  6
________________
 62
     7
 10
0.0
 20
0.0
 30
0.0
 66
     1
 70
     8
  0
VERTEX
  5
54
  8
0
  6
________________
 62
     7
 10
340.2261909355947
 20
228.0248711305964
 30
0.0
 70
    32
  0
VERTEX
  5
55
  8
0
  6
________________
 62
     7
 10
340.1518705931147
 20
228.0986933078075
 30
0.0
 70
    32
  0
VERTEX
  5
56
  8
0
  6
________________
 62
     7
 10
340.0504686571322
 20
228.1248505074202
 30
0.0
 70
    32
  0
VERTEX
  5
57
  8
0
  6
________________
 62
     7
 10
339.9529858548376
 20
228.0980762113543
 30
0.0
 70
    32
  0
SEQEND
  5
58
  8
0
  6
________________
 62
     7
  0
LINE
  5
59
  8
0
  6
________________
 62
     7
 10
341.2529858548378
 20
226.2464101615138
 30
0.0
 11
340.2261909355947
 21
228.0248711305964
 31
0.0
  0
LINE
  5
5A
  8
0
  6
________________
 62
     7
 10
341.2529858548378
 20
235.3
 30
0.0
 11
341.2529858548378
 21
226.2464101615138
 31
0.0
  0
LINE
  5
5B
  8
0
  6
________________
 62
     7
 10
341.6529858548378
 20
226.2464101615138
 30
0.0
 11
341.6529858548378
 21
235.3
 31
0.0
  0
POLYLINE
  5
5C
  8
0
  6
________________
 62
     7
 10
0.0
 20
0.0
 30
0.0
 66
     1
 70
     8
  0
VERTEX
  5
5D
  8
0
  6
________________
 62
     7
 10
341.4529858548378
 20
235.5
 30
0.0
 70
    32
  0
VERTEX
  5
5E
  8
0
  6
________________
 62
     7
 10
341.3518582440231
 20
235.4725267455214
 30
0.0
 70
    32
  0
VERTEX
  5
5F
  8
0
  6
________________
 62
     7
 10
341.278507677787
 20
235.39775192719
 30
0.0
 70
    32
  0
VERTEX
  5
60
  8
0
  6
________________
 62
     7
 10
341.2529858548369
 20
235.3000000000002
 30
0.0
 70
    32
  0
SEQEND
  5
61
  8
0
  6
________________
 62
     7
  0
POLYLINE
  5
62
  8
0
  6
________________
 62
     7
 10
0.0
 20
0.0
 30
0.0
 66
     1
 70
     8
  0
VERTEX
  5
63
  8
0
  6
________________
 62
     7
 10
341.6529858548378
 20
235.3
 30
0.0
 70
    32
  0
VERTEX
  5
64
  8
0
  6
________________
 62
     7
 10
341.6255126006619
 20
235.4011276103014
 30
0.0
 70
    32
  0
VERTEX
  5
65
  8
0
  6
________________
 62
     7
 10
341.5507377823431
 20
235.474478176874
 30
0.0
 70
    32
  0
VERTEX
  5
66
  8
0
  6
________________
 62
     7
 10
341.4529858548381
 20
235.500000000001
 30
0.0
 70
    32
  0
SEQEND
  5
67
  8
0
  6
________________
 62
     7
  0
POLYLINE
  5
68
  8
0
  6
________________
 62
     7
 10
0.0
 20
0.0
 30
0.0
 66
     1
 70
     8
  0
VERTEX
  5
69
  8
0
  6
________________
 62
     7
 10
341.279780774081
 20
225.4
 30
0.0
 70
    32
  0
VERTEX
  5
6A
  8
0
  6
________________
 62
     7
 10
341.2847884240418
 20
225.3917978813309
 30
0.0
 70
    32
  0
VERTEX
  5
6B
  8
0
  6
________________
 62
     7
 10
341.2902035281226
 20
225.3838253369391
 30
0.0
 70
    32
  0
VERTEX
  5
6C
  8
0
  6
________________
 62
     7
 10
341.2960048019819
 20
225.3761080341893
 30
0.0
 70
    32
  0
VERTEX
  5
6D
  8
0
  6
________________
 62
     7
 10
341.3021709612783
 20
225.3686716404458
 30
0.0
 70
    32
  0
VERTEX
  5
6E
  8
0
  6
________________
 62
     7
 10
341.3086807216703
 20
225.3615418230731
 30
0.0
 70
    32
  0
VERTEX
  5
6F
  8
0
  6
________________
 62
     7
 10
341.3155127988163
 20
225.3547442494358
 30
0.0
 70
    32
  0
VERTEX
  5
70
  8
0
  6
________________
 62
     7
 10
341.3226459083751
 20
225.3483045868983
 30
0.0
 70
    32
  0
VERTEX
  5
71
  8
0
  6
________________
 62
     7
 10
341.3300862251141
 20
225.3422224510124
 30
0.0
 70
    32
  0
VERTEX
  5
72
  8
0
  6
________________
 62
     7
 10
341.3378350567125
 20
225.3364918007932
 30
0.0
 70
    32
  0
VERTEX
  5
73
  8
0
  6
________________
 62
     7
 10
341.3458638222592
 20
225.3311298153101
 30
0.0
 70
    32
  0
VERTEX
  5
74
  8
0
  6
________________
 62
     7
 10
341.3541439408423
 20
225.3261536736325
 30
0.0
 70
    32
  0
VERTEX
  5
75
  8
0
  6
________________
 62
     7
 10
341.3626468315506
 20
225.3215805548297
 30
0.0
 70
    32
  0
VERTEX
  5
76
  8
0
  6
________________
 62
     7
 10
341.3713439134725
 20
225.3174276379709
 30
0.0
 70
    32
  0
VERTEX
  5
77
  8
0
  6
________________
 62
     7
 10
341.3802066056965
 20
225.3137121021257
 30
0.0
 70
    32
  0
VERTEX
  5
78
  8
0
  6
________________
 62
     7
 10
341.3892406705984
 20
225.3104356975258
 30
0.0
 70
    32
  0
VERTEX
  5
79
  8
0
  6
________________
 62
     7
 10
341.3984495229785
 20
225.3075930765982
 30
0.0
 70
    32
  0
VERTEX
  5
7A
  8
0
  6
________________
 62
     7
 10
341.4078005012428
 20
225.3051909902203
 30
0.0
 70
    32
  0
VERTEX
  5
7B
  8
0
  6
________________
 62
     7
 10
341.4172609437976
 20
225.3032361892693
 30
0.0
 70
    32
  0
VERTEX
  5
7C
  8
0
  6
________________
 62
     7
 10
341.4267981890492
 20
225.3017354246227
 30
0.0
 70
    32
  0
VERTEX
  5
7D
  8
0
  6
________________
 62
     7
 10
341.4363795754037
 20
225.3006954471578
 30
0.0
 70
    32
  0
VERTEX
  5
7E
  8
0
  6
________________
 62
     7
 10
341.4459724412674
 20
225.300123007752
 30
0.0
 70
    32
  0
VERTEX
  5
7F
  8
0
  6
________________
 62
     7
 10
341.4555810673731
 20
225.3000216544837
 30
0.0
 70
    32
  0
VERTEX
  5
80
  8
0
  6
________________
 62
     7
 10
341.4652110152355
 20
225.3003874188639
 30
0.0
 70
    32
  0
VERTEX
  5
81
  8
0
  6
________________
 62
     7
 10
341.4748292372118
 20
225.3012158578768
 30
0.0
 70
    32
  0
VERTEX
  5
82
  8
0
  6
________________
 62
     7
 10
341.4844026856597
 20
225.3025025285062
 30
0.0
 70
    32
  0
VERTEX
  5
83
  8
0
  6
________________
 62
     7
 10
341.4938983129366
 20
225.3042429877361
 30
0.0
 70
    32
  0
VERTEX
  5
84
  8
0
  6
________________
 62
     7
 10
341.5032830714001
 20
225.3064327925505
 30
0.0
 70
    32
  0
VERTEX
  5
85
  8
0
  6
________________
 62
     7
 10
341.5125239134075
 20
225.3090674999332
 30
0.0
 70
    32
  0
VERTEX
  5
86
  8
0
  6
________________
 62
     7
 10
341.5216243040154
 20
225.3121520881512
 30
0.0
 70
    32
  0
VERTEX
  5
87
  8
0
  6
________________
 62
     7
 10
341.5305901907868
 20
225.3156844916878
 30
0.0
 70
    32
  0
VERTEX
  5
88
  8
0
  6
________________
 62
     7
 10
341.5393918674021
 20
225.319649582597
 30
0.0
 70
    32
  0
VERTEX
  5
89
  8
0
  6
________________
 62
     7
 10
341.5479996275416
 20
225.3240322329327
 30
0.0
 70
    32
  0
VERTEX
  5
8A
  8
0
  6
________________
 62
     7
 10
341.5563837648854
 20
225.3288173147492
 30
0.0
 70
    32
  0
VERTEX
  5
8B
  8
0
  6
________________
 62
     7
 10
341.564514573114
 20
225.3339897001004
 30
0.0
 70
    32
  0
VERTEX
  5
8C
  8
0
  6
________________
 62
     7
 10
341.5723623459077
 20
225.3395342610404
 30
0.0
 70
    32
  0
VERTEX
  5
8D
  8
0
  6
________________
 62
     7
 10
341.5799293637128
 20
225.3454573841329
 30
0.0
 70
    32
  0
VERTEX
  5
8E
  8
0
  6
________________
 62
     7
 10
341.5872212178555
 20
225.3517586207085
 30
0.0
 70
    32
  0
VERTEX
  5
8F
  8
0
  6
________________
 62
     7
 10
341.5942148791985
 20
225.3584138627471
 30
0.0
 70
    32
  0
VERTEX
  5
90
  8
0
  6
________________
 62
     7
 10
341.6008873186047
 20
225.3653990022284
 30
0.0
 70
    32
  0
VERTEX
  5
91
  8
0
  6
________________
 62
     7
 10
341.6072155069369
 20
225.3726899311325
 30
0.0
 70
    32
  0
VERTEX
  5
92
  8
0
  6
________________
 62
     7
 10
341.6131764150581
 20
225.3802625414392
 30
0.0
 70
    32
  0
VERTEX
  5
93
  8
0
  6
________________
 62
     7
 10
341.6187470138311
 20
225.3880927251283
 30
0.0
 70
    32
  0
VERTEX
  5
94
  8
0
  6
________________
 62
     7
 10
341.6225734782412
 20
225.3939810262667
 30
0.0
 70
    32
  0
VERTEX
  5
95
  8
0
  6
________________
 62
     7
 10
341.6261909355947
 20
225.4
 30
0.0
 70
    32
  0
SEQEND
  5
96
  8
0
  6
________________
 62
     7
  0
LINE
  5
97
  8
0
  6
________________
 62
     7
 10
370.948289633577
 20
244.9907129993928
 30
0.0
 11
371.0161060206855
 21
244.9853174434182
 31
0.0
  0
LINE
  5
98
  8
0
  6
________________
 62
     7
 10
371.3920073492859
 20
244.9554679961559
 30
0.0
 11
372.6487156681252
 21
244.8555862936444
 31
0.0
  0
LINE
  5
99
  8
0
  6
________________
 62
     7
 10
372.6487156681252
 20
244.8555862936445
 30
0.0
 11
372.7333330777744
 21
240.8159933466912
 31
0.0
  0
LINE
  5
9A
  8
0
  6
________________
 62
     7
 10
372.738288718878
 20
240.5794135112556
 30
0.0
 11
372.942573216866
 21
230.8269734322543
 31
0.0
  0
LINE
  5
9B
  8
0
  6
________________
 62
     7
 10
372.949581551725
 20
230.4923990203972
 30
0.0
 11
373.153866049713
 21
220.7399589413959
 31
0.0
  0
LINE
  5
9C
  8
0
  6
________________
 62
     7
 10
373.1588216908165
 20
220.5033791059603
 30
0.0
 11
373.2434391004658
 21
216.463786159007
 31
0.0
  0
LINE
  5
9D
  8
0
  6
________________
 62
     7
 10
373.2434391004658
 20
216.463786159007
 30
0.0
 11
371.992015739926
 21
216.3113665873203
 31
0.0
  0
LINE
  5
9E
  8
0
  6
________________
 62
     7
 10
371.9920157399254
 20
216.3113665873202
 30
0.0
 11
371.5501631559594
 21
216.2575714618854
 31
0.0
  0
LINE
  5
9F
  8
0
  6
________________
 62
     7
 10
355.8227078859415
 20
200.1972234840397
 30
0.0
 11
355.7781783106872
 21
199.7543409373854
 31
0.0
  0
LINE
  5
A0
  8
0
  6
________________
 62
     7
 10
341.2856619520124
 20
198.5
 30
0.0
 11
331.5310825325485
 21
198.5
 31
0.0
  0
LINE
  5
A1
  8
0
  6
________________
 62
     7
 10
331.2944507998635
 20
198.5
 30
0.0
 11
327.253971709076
 21
198.5
 31
0.0
  0
LINE
  5
A2
  8
0
  6
________________
 62
     7
 10
327.253971709076
 20
198.5
 30
0.0
 11
327.1277933989885
 21
199.7543409373851
 31
0.0
  0
LINE
  5
A3
  8
0
  6
________________
 62
     7
 10
327.1277933989885
 20
199.7543409373852
 30
0.0
 11
327.0832635102241
 21
200.1972234525178
 31
0.0
  0
LINE
  5
A4
  8
0
  6
________________
 62
     7
 10
355.7781783106871
 20
199.754340937385
 30
0.0
 11
355.6520000005996
 21
198.5
 31
0.0
  0
LINE
  5
A5
  8
0
  6
________________
 62
     7
 10
355.6520000005996
 20
198.5
 30
0.0
 11
351.6115209098122
 21
198.5
 31
0.0
  0
LINE
  5
A6
  8
0
  6
________________
 62
     7
 10
351.3748891771272
 20
198.5
 30
0.0
 11
341.6203097576633
 21
198.5
 31
0.0
  0
LINE
  5
A7
  8
0
  6
________________
 62
     7
 10
327.0832638237342
 20
259.8027765159604
 30
0.0
 11
327.1277933989884
 21
260.2456590626147
 31
0.0
  0
LINE
  5
A8
  8
0
  6
________________
 62
     7
 10
331.5310825325485
 20
261.5
 30
0.0
 11
341.2856619520124
 21
261.5
 31
0.0
  0
LINE
  5
A9
  8
0
  6
________________
 62
     7
 10
341.6203097576633
 20
261.5
 30
0.0
 11
351.3748891771272
 21
261.5
 31
0.0
  0
LINE
  5
AA
  8
0
  6
________________
 62
     7
 10
351.6115209098122
 20
261.5
 30
0.0
 11
355.6520000005996
 21
261.5
 31
0.0
  0
LINE
  5
AB
  8
0
  6
________________
 62
     7
 10
355.6520000005996
 20
261.5
 30
0.0
 11
355.7781783106871
 21
260.2456590626149
 31
0.0
  0
LINE
  5
AC
  8
0
  6
________________
 62
     7
 10
355.7781783106872
 20
260.2456590626148
 30
0.0
 11
355.8227081994515
 21
259.8027765474822
 31
0.0
  0
LINE
  5
AD
  8
0
  6
________________
 62
     7
 10
327.1277933989885
 20
260.2456590626151
 30
0.0
 11
327.253971709076
 21
261.5
 31
0.0
  0
LINE
  5
AE
  8
0
  6
________________
 62
     7
 10
327.2539717090761
 20
261.5
 30
0.0
 11
331.2944507998635
 21
261.5
 31
0.0
  0
LINE
  5
AF
  8
0
  6
________________
 62
     7
 10
372.9443348696327
 20
230.7428730075216
 30
0.0
 11
372.9478198989583
 21
230.5764994451299
 31
0.0
  0
LINE
  5
B0
  8
0
  6
________________
 62
     7
 10
341.5361908842716
 20
198.5
 30
0.0
 11
341.369780825404
 21
198.5
 31
0.0
  0
LINE
  5
B1
  8
0
  6
________________
 62
     7
 10
341.369780825404
 20
261.5
 30
0.0
 11
341.5361908842716
 21
261.5
 31
0.0
  0
LINE
  5
B2
  8
0
  6
________________
 62
     7
 10
341.6203097576633
 20
198.5
 30
0.0
 11
341.5361908842716
 21
198.5
 31
0.0
  0
LINE
  5
B3
  8
0
  6
________________
 62
     7
 10
372.942573216866
 20
230.8269734322543
 30
0.0
 11
372.9443348696326
 21
230.7428730075216
 31
0.0
  0
LINE
  5
B4
  8
0
  6
________________
 62
     7
 10
341.5361908842716
 20
261.5
 30
0.0
 11
341.6203097576633
 21
261.5
 31
0.0
  0
LINE
  5
B5
  8
0
  6
________________
 62
     7
 10
341.369780825404
 20
198.5
 30
0.0
 11
341.2856619520123
 21
198.5
 31
0.0
  0
LINE
  5
B6
  8
0
  6
________________
 62
     7
 10
341.2856619520124
 20
261.5
 30
0.0
 11
341.3697808254041
 21
261.5
 31
0.0
  0
LINE
  5
B7
  8
0
  6
________________
 62
     7
 10
372.9478198989583
 20
230.5764994451299
 30
0.0
 11
372.949581551725
 21
230.4923990203972
 31
0.0
  0
LINE
  5
B8
  8
0
  6
________________
 62
     7
 10
372.7326695707013
 20
240.8476688435388
 30
0.0
 11
372.7351745273344
 21
240.7280834628284
 31
0.0
  0
LINE
  5
B9
  8
0
  6
________________
 62
     7
 10
373.1569802412565
 20
220.5912889898231
 30
0.0
 11
373.1594851978896
 21
220.4717036091127
 31
0.0
  0
LINE
  5
BA
  8
0
  6
________________
 62
     7
 10
331.3823799680459
 20
198.5
 30
0.0
 11
331.2627683545321
 21
198.5
 31
0.0
  0
LINE
  5
BB
  8
0
  6
________________
 62
     7
 10
351.5235917416298
 20
261.5
 30
0.0
 11
351.6432033551437
 21
261.5
 31
0.0
  0
LINE
  5
BC
  8
0
  6
________________
 62
     7
 10
331.2627683545321
 20
261.5
 30
0.0
 11
331.3823799680459
 21
261.5
 31
0.0
  0
LINE
  5
BD
  8
0
  6
________________
 62
     7
 10
351.6432033551437
 20
198.5
 30
0.0
 11
351.5235917416298
 21
198.5
 31
0.0
  0
LINE
  5
BE
  8
0
  6
________________
 62
     7
 10
331.5310825325485
 20
198.5
 30
0.0
 11
331.3823799680459
 21
198.5
 31
0.0
  0
LINE
  5
BF
  8
0
  6
________________
 62
     7
 10
351.3748891771272
 20
261.5
 30
0.0
 11
351.5235917416298
 21
261.5
 31
0.0
  0
LINE
  5
C0
  8
0
  6
________________
 62
     7
 10
372.7351745273344
 20
240.7280834628284
 30
0.0
 11
372.738288718878
 21
240.5794135112556
 31
0.0
  0
LINE
  5
C1
  8
0
  6
________________
 62
     7
 10
373.153866049713
 20
220.7399589413959
 30
0.0
 11
373.1569802412565
 21
220.5912889898231
 31
0.0
  0
LINE
  5
C2
  8
0
  6
________________
 62
     7
 10
331.3823799680459
 20
261.5
 30
0.0
 11
331.5310825325485
 21
261.5
 31
0.0
  0
LINE
  5
C3
  8
0
  6
________________
 62
     7
 10
351.5235917416298
 20
198.5
 30
0.0
 11
351.3748891771272
 21
198.5
 31
0.0
  0
LINE
  5
C4
  8
0
  6
________________
 62
     7
 10
371.0161060206855
 20
244.9853174434182
 30
0.0
 11
371.3920073492856
 21
244.9554679961559
 31
0.0
  0
LINE
  5
C5
  8
0
  6
________________
 62
     7
 10
356.1529858548378
 20
215.604696444331
 30
0.0
 11
368.2550275392066
 21
215.8581980798287
 31
0.0
  0
LINE
  5
C6
  8
0
  6
________________
 62
     7
 10
367.6393203946359
 20
245.2517501739892
 30
0.0
 11
356.1529858548378
 21
245.011145764613
 31
0.0
  0
LINE
  5
C7
  8
0
  6
________________
 62
     7
 10
356.1529858548378
 20
245.011145764613
 30
0.0
 11
356.1529858548378
 21
256.5
 31
0.0
  0
LINE
  5
C8
  8
0
  6
________________
 62
     7
 10
356.1529858548378
 20
203.5
 30
0.0
 11
356.1529858548378
 21
215.604696444331
 31
0.0
  0
LINE
  5
C9
  8
0
  6
________________
 62
     7
 10
326.7529858548378
 20
256.5
 30
0.0
 11
326.7529858548378
 21
203.5
 31
0.0
  0
LINE
  5
CA
  8
0
  6
________________
 62
     7
 10
368.2550275392066
 20
215.8581980798287
 30
0.0
 11
371.5501620122439
 21
216.2575713224602
 31
0.0
  0
LINE
  5
CB
  8
0
  6
________________
 62
     7
 10
370.9639581054705
 20
244.9894770192213
 30
0.0
 11
370.9482884905103
 21
244.9907131597295
 31
0.0
  0
LINE
  5
CC
  8
0
  6
________________
 62
     7
 10
370.9482884905103
 20
244.9907131597295
 30
0.0
 11
367.6393203946359
 21
245.2517501739892
 31
0.0
  0
LINE
  5
CD
  8
0
  6
________________
 62
     7
 10
326.7529858548378
 20
203.5
 30
0.0
 11
327.083263418611
 21
200.197224362268
 31
0.0
  0
LINE
  5
CE
  8
0
  6
________________
 62
     7
 10
355.8227082910647
 20
200.197224362268
 30
0.0
 11
356.1529858548378
 21
203.5
 31
0.0
  0
LINE
  5
CF
  8
0
  6
________________
 62
     7
 10
356.1529858548378
 20
256.5
 30
0.0
 11
355.8227082910647
 21
259.802775637732
 31
0.0
  0
LINE
  5
D0
  8
0
  6
________________
 62
     7
 10
327.0832634186111
 20
259.802775637732
 30
0.0
 11
326.7529858548378
 21
256.5
 31
0.0
  0
LINE
  5
D1
  8
0
  6
________________
 62
     7
 10
371.0057248147473
 20
244.9919162792122
 30
0.0
 11
370.9482884905103
 21
244.9907131597295
 31
0.0
  0
POLYLINE
  5
D2
  8
0
  6
________________
 62
     7
 66
     1
 10
0.0
 20
0.0
 30
0.0
  0
VERTEX
  5
130
  8
0
  6
________________
 62
     7
 10
435.7677368601579
 20
243.7988659474046
 30
0.0
  0
VERTEX
  5
131
  8
0
  6
________________
 62
     7
 10
433.2669836777061
 20
243.5588734149661
 30
0.0
  0
VERTEX
  5
132
  8
0
  6
________________
 62
     7
 10
430.8575559627459
 20
242.847660149282
 30
0.0
  0
VERTEX
  5
133
  8
0
  6
________________
 62
     7
 10
428.6274440511492
 20
241.6911990790008
 30
0.0
  0
VERTEX
  5
134
  8
0
  6
________________
 62
     7
 10
426.6580898118352
 20
240.1317232196076
 30
0.0
  0
VERTEX
  5
135
  8
0
  6
________________
 62
     7
 10
425.0214124561138
 20
238.2261833581294
 30
0.0
  0
VERTEX
  5
136
  8
0
  6
________________
 62
     7
 10
423.7771821067196
 20
236.044168256822
 30
0.0
  0
VERTEX
  5
137
  8
0
  6
________________
 62
     7
 10
422.9708370416575
 20
233.6653633283038
 30
0.0
  0
VERTEX
  5
138
  8
0
  6
________________
 62
     7
 10
422.6318243253331
 20
231.1766405892508
 30
0.0
  0
VERTEX
  5
139
  8
0
  6
________________
 62
     7
 10
422.7725244257675
 20
228.6688861651695
 30
0.0
  0
VERTEX
  5
13A
  8
0
  6
________________
 62
     7
 10
423.3877990899982
 20
226.2336812031881
 30
0.0
  0
VERTEX
  5
13B
  8
0
  6
________________
 62
     7
 10
424.4551789888882
 20
223.9599574032247
 30
0.0
  0
VERTEX
  5
13C
  8
0
  6
________________
 62
     7
 10
425.9356842787084
 20
221.9307493048075
 30
0.0
  0
VERTEX
  5
13D
  8
0
  6
________________
 62
     7
 10
427.775248113252
 20
220.220161933385
 30
0.0
  0
VERTEX
  5
13E
  8
0
  6
________________
 62
     7
 10
429.9066911209803
 20
218.8906645452103
 30
0.0
  0
SEQEND
  5
13F
  8
0
  6
________________
 62
     7
  0
POLYLINE
  5
D3
  8
0
  6
________________
 62
     7
 66
     1
 10
0.0
 20
0.0
 30
0.0
  0
VERTEX
  5
140
  8
0
  6
________________
 62
     7
 10
441.6287825993354
 20
218.8906645452102
 30
0.0
  0
VERTEX
  5
141
  8
0
  6
________________
 62
     7
 10
443.7602256070637
 20
220.2201619333849
 30
0.0
  0
VERTEX
  5
142
  8
0
  6
________________
 62
     7
 10
445.5997894416072
 20
221.9307493048074
 30
0.0
  0
VERTEX
  5
143
  8
0
  6
________________
 62
     7
 10
447.0802947314275
 20
223.9599574032246
 30
0.0
  0
VERTEX
  5
144
  8
0
  6
________________
 62
     7
 10
448.1476746303176
 20
226.233681203188
 30
0.0
  0
VERTEX
  5
145
  8
0
  6
________________
 62
     7
 10
448.7629492945483
 20
228.6688861651694
 30
0.0
  0
VERTEX
  5
146
  8
0
  6
________________
 62
     7
 10
448.9036493949827
 20
231.1766405892508
 30
0.0
  0
VERTEX
  5
147
  8
0
  6
________________
 62
     7
 10
448.5646366786583
 20
233.6653633283038
 30
0.0
  0
VERTEX
  5
148
  8
0
  6
________________
 62
     7
 10
447.7582916135961
 20
236.044168256822
 30
0.0
  0
VERTEX
  5
149
  8
0
  6
________________
 62
     7
 10
446.5140612642019
 20
238.2261833581294
 30
0.0
  0
VERTEX
  5
14A
  8
0
  6
________________
 62
     7
 10
444.8773839084806
 20
240.1317232196075
 30
0.0
  0
VERTEX
  5
14B
  8
0
  6
________________
 62
     7
 10
442.9080296691666
 20
241.6911990790007
 30
0.0
  0
VERTEX
  5
14C
  8
0
  6
________________
 62
     7
 10
440.6779177575698
 20
242.847660149282
 30
0.0
  0
VERTEX
  5
14D
  8
0
  6
________________
 62
     7
 10
438.2684900426097
 20
243.5588734149661
 30
0.0
  0
VERTEX
  5
14E
  8
0
  6
________________
 62
     7
 10
435.7677368601579
 20
243.7988659474046
 30
0.0
  0
SEQEND
  5
14F
  8
0
  6
________________
 62
     7
  0
POLYLINE
  5
D4
  8
0
  6
________________
 62
     7
 66
     1
 10
0.0
 20
0.0
 30
0.0
  0
VERTEX
  5
150
  8
0
  6
________________
 62
     7
 10
429.9066911209804
 20
218.8906645452103
 30
0.0
  0
VERTEX
  5
151
  8
0
  6
________________
 62
     7
 10
432.169283839854
 20
218.0141012667673
 30
0.0
  0
VERTEX
  5
152
  8
0
  6
________________
 62
     7
 10
434.5544740966759
 20
217.5682242208886
 30
0.0
  0
VERTEX
  5
153
  8
0
  6
________________
 62
     7
 10
436.9809996236397
 20
217.5682242208886
 30
0.0
  0
VERTEX
  5
154
  8
0
  6
________________
 62
     7
 10
439.3661898804617
 20
218.0141012667673
 30
0.0
  0
VERTEX
  5
155
  8
0
  6
________________
 62
     7
 10
441.6287825993353
 20
218.8906645452102
 30
0.0
  0
SEQEND
  5
156
  8
0
  6
________________
 62
     7
  0
LINE
  5
D5
  8
0
  6
________________
 62
     7
 10
450.4677368601579
 20
230.0041894027819
 30
0.0
 11
450.4663762529724
 21
229.8041455298548
 31
0.0
  0
LINE
  5
D6
  8
0
  6
________________
 62
     7
 10
421.0690974673433
 20
229.8041455298548
 30
0.0
 11
421.0626309623757
 21
230.7548862813871
 31
0.0
  0
LINE
  5
D7
  8
0
  6
________________
 62
     7
 10
450.4677368601579
 20
225.3
 30
0.0
 11
450.466716416576
 21
225.4
 31
0.0
  0
LINE
  5
D8
  8
0
  6
________________
 62
     7
 10
450.4663762529724
 20
228.1248711305964
 30
0.0
 11
450.4663762529724
 21
229.8041455298548
 31
0.0
  0
LINE
  5
D9
  8
0
  6
________________
 62
     7
 10
450.4663762529724
 20
235.3
 30
0.0
 11
450.4677368601579
 21
235.500000000001
 31
0.0
  0
LINE
  5
DA
  8
0
  6
________________
 62
     7
 10
450.4663762529724
 20
225.3
 30
0.0
 11
450.4663762529724
 21
235.3
 31
0.0
  0
LINE
  5
DB
  8
0
  6
________________
 62
     7
 10
421.0690974673433
 20
235.3
 30
0.0
 11
421.0690974673433
 21
230.7549302636046
 31
0.0
  0
LINE
  5
DC
  8
0
  6
________________
 62
     7
 10
421.0677368601579
 20
235.5
 30
0.0
 11
421.0690974673431
 21
235.3000000000002
 31
0.0
  0
LINE
  5
DD
  8
0
  6
________________
 62
     7
 10
421.0690974673433
 20
229.8041455298548
 30
0.0
 11
421.0690974673433
 21
225.3
 31
0.0
  0
LINE
  5
DE
  8
0
  6
________________
 62
     7
 10
421.398014423931
 20
259.802775637732
 30
0.0
 11
421.4425444043084
 21
260.2456590626145
 31
0.0
  0
LINE
  5
DF
  8
0
  6
________________
 62
     7
 10
421.4425444043085
 20
260.2456590626149
 30
0.0
 11
421.568722714396
 21
261.5
 31
0.0
  0
LINE
  5
E0
  8
0
  6
________________
 62
     7
 10
421.568722714396
 20
261.5
 30
0.0
 11
425.6092018051834
 21
261.5
 31
0.0
  0
LINE
  5
E1
  8
0
  6
________________
 62
     7
 10
425.8458335378685
 20
261.5
 30
0.0
 11
435.6004129573324
 21
261.5
 31
0.0
  0
LINE
  5
E2
  8
0
  6
________________
 62
     7
 10
435.9350607629833
 20
261.5
 30
0.0
 11
445.6896401824472
 21
261.5
 31
0.0
  0
LINE
  5
E3
  8
0
  6
________________
 62
     7
 10
445.9262719151322
 20
261.5
 30
0.0
 11
449.9667510059197
 21
261.5
 31
0.0
  0
LINE
  5
E4
  8
0
  6
________________
 62
     7
 10
449.9667510059197
 20
261.5
 30
0.0
 11
450.0929293160072
 21
260.2456590626149
 31
0.0
  0
LINE
  5
E5
  8
0
  6
________________
 62
     7
 10
450.0929293160072
 20
260.2456590626148
 30
0.0
 11
450.137379471682
 21
259.8035683318821
 31
0.0
  0
LINE
  5
E6
  8
0
  6
________________
 62
     7
 10
450.1374592963846
 20
200.197224362268
 30
0.0
 11
450.0929293160072
 21
199.7543409373854
 31
0.0
  0
LINE
  5
E7
  8
0
  6
________________
 62
     7
 10
450.0929293160072
 20
199.754340937385
 30
0.0
 11
449.9667510059197
 21
198.5
 31
0.0
  0
LINE
  5
E8
  8
0
  6
________________
 62
     7
 10
449.9667510059197
 20
198.5
 30
0.0
 11
445.9262719151322
 21
198.5
 31
0.0
  0
LINE
  5
E9
  8
0
  6
________________
 62
     7
 10
445.6896401824472
 20
198.5
 30
0.0
 11
435.9350607629833
 21
198.5
 31
0.0
  0
LINE
  5
EA
  8
0
  6
________________
 62
     7
 10
435.6004129573324
 20
198.5
 30
0.0
 11
425.8458335378685
 21
198.5
 31
0.0
  0
LINE
  5
EB
  8
0
  6
________________
 62
     7
 10
425.6092018051834
 20
198.5
 30
0.0
 11
421.568722714396
 21
198.5
 31
0.0
  0
LINE
  5
EC
  8
0
  6
________________
 62
     7
 10
421.568722714396
 20
198.5
 30
0.0
 11
421.4425444043085
 21
199.7543409373851
 31
0.0
  0
LINE
  5
ED
  8
0
  6
________________
 62
     7
 10
421.4425444043085
 20
199.7543409373853
 30
0.0
 11
421.3980942486336
 21
200.1964316681179
 31
0.0
  0
LINE
  5
EE
  8
0
  6
________________
 62
     7
 10
435.8509418895916
 20
198.5
 30
0.0
 11
435.6845318307241
 21
198.5
 31
0.0
  0
LINE
  5
EF
  8
0
  6
________________
 62
     7
 10
435.6845318307241
 20
261.5
 30
0.0
 11
435.8509418895916
 21
261.5
 31
0.0
  0
LINE
  5
F0
  8
0
  6
________________
 62
     7
 10
435.6004129573324
 20
261.5
 30
0.0
 11
435.6845318307241
 21
261.5
 31
0.0
  0
LINE
  5
F1
  8
0
  6
________________
 62
     7
 10
435.9350607629833
 20
198.5
 30
0.0
 11
435.8509418895916
 21
198.5
 31
0.0
  0
LINE
  5
F2
  8
0
  6
________________
 62
     7
 10
435.8509418895916
 20
261.5
 30
0.0
 11
435.9350607629833
 21
261.5
 31
0.0
  0
LINE
  5
F3
  8
0
  6
________________
 62
     7
 10
435.6845318307241
 20
198.5
 30
0.0
 11
435.6004129573324
 21
198.5
 31
0.0
  0
LINE
  5
F4
  8
0
  6
________________
 62
     7
 10
445.8383427469498
 20
261.5
 30
0.0
 11
445.9579543604636
 21
261.5
 31
0.0
  0
LINE
  5
F5
  8
0
  6
________________
 62
     7
 10
425.6971309733659
 20
198.5
 30
0.0
 11
425.577519359852
 21
198.5
 31
0.0
  0
LINE
  5
F6
  8
0
  6
________________
 62
     7
 10
425.577519359852
 20
261.5
 30
0.0
 11
425.6971309733659
 21
261.5
 31
0.0
  0
LINE
  5
F7
  8
0
  6
________________
 62
     7
 10
445.9579543604636
 20
198.5
 30
0.0
 11
445.8383427469498
 21
198.5
 31
0.0
  0
LINE
  5
F8
  8
0
  6
________________
 62
     7
 10
445.6896401824472
 20
261.5
 30
0.0
 11
445.8383427469498
 21
261.5
 31
0.0
  0
LINE
  5
F9
  8
0
  6
________________
 62
     7
 10
425.8458335378685
 20
198.5
 30
0.0
 11
425.6971309733659
 21
198.5
 31
0.0
  0
LINE
  5
FA
  8
0
  6
________________
 62
     7
 10
445.8383427469498
 20
198.5
 30
0.0
 11
445.6896401824472
 21
198.5
 31
0.0
  0
LINE
  5
FB
  8
0
  6
________________
 62
     7
 10
425.6971309733659
 20
261.5
 30
0.0
 11
425.8458335378685
 21
261.5
 31
0.0
  0
LINE
  5
FC
  8
0
  6
________________
 62
     7
 10
450.4677368601579
 20
235.500000000001
 30
0.0
 11
450.4677368601579
 21
256.5
 31
0.0
  0
LINE
  5
FD
  8
0
  6
________________
 62
     7
 10
450.4677368601579
 20
203.5
 30
0.0
 11
450.4677368601579
 21
225.3
 31
0.0
  0
LINE
  5
FE
  8
0
  6
________________
 62
     7
 10
421.0677368601579
 20
225.3
 30
0.0
 11
421.0677368601579
 21
203.5
 31
0.0
  0
LINE
  5
FF
  8
0
  6
________________
 62
     7
 10
421.0677368601579
 20
247.4
 30
0.0
 11
421.0677368601579
 21
235.5
 31
0.0
  0
LINE
  5
100
  8
0
  6
________________
 62
     7
 10
421.0677368601579
 20
256.5
 30
0.0
 11
421.0677368601579
 21
247.4
 31
0.0
  0
LINE
  5
101
  8
0
  6
________________
 62
     7
 10
450.4677368601579
 20
256.5
 30
0.0
 11
450.1375125541631
 21
259.802243059947
 31
0.0
  0
LINE
  5
102
  8
0
  6
________________
 62
     7
 10
421.3980146169691
 20
259.8027775681124
 30
0.0
 11
421.0677368601579
 21
256.5
 31
0.0
  0
LINE
  5
103
  8
0
  6
________________
 62
     7
 10
421.0677368601579
 20
203.5
 30
0.0
 11
421.3979611661526
 21
200.197756940053
 31
0.0
  0
LINE
  5
104
  8
0
  6
________________
 62
     7
 10
450.1374591033466
 20
200.1972224318876
 30
0.0
 11
450.4677368601579
 21
203.5
 31
0.0
  0
INSERT
  5
108
  8
0
  6
________________
 62
     7
  2
_1942
 10
0.0
 20
0.0
 30
0.0
  0
ARC
  5
109
  8
0
  6
________________
 62
     7
 10
341.4529858548378
 20
135.6091936800655
 30
0.0
 40
14.20000000000002
 50
0.6751531909949924
 51
44.324846809005
  0
ARC
  5
10A
  8
0
  6
________________
 62
     7
 10
-341.4529858548378
 20
135.6091936800655
 30
0.0
 40
14.69999999999999
 50
270.0
 51
90.0
210
0.0
220
0.0
230
-1.0
  0
CIRCLE
  5
10B
  8
0
  6
________________
 62
     7
 10
341.4529858548378
 20
135.6091936800655
 30
0.0
 40
13.14625065900593
  0
LINE
  5
10C
  8
0
  6
________________
 62
     7
 10
371.2959290615314
 20
149.9742762261526
 30
0.0
 11
371.6937540592687
 21
149.9343861359149
 31
0.0
  0
LINE
  5
10D
  8
0
  6
________________
 62
     7
 10
371.6937540592691
 20
149.9343861359148
 30
0.0
 11
372.949581551725
 21
149.8082078258273
 31
0.0
  0
POLYLINE
  5
10E
  8
0
  6
________________
 62
     7
 66
     1
 10
0.0
 20
0.0
 30
0.0
  0
VERTEX
  5
157
  8
0
  6
________________
 62
     7
 10
372.949581551725
 20
149.8082078258273
 30
0.0
  0
VERTEX
  5
158
  8
0
  6
________________
 62
     7
 10
373.0058112458952
 20
149.5197810115252
 30
0.0
  0
VERTEX
  5
159
  8
0
  6
________________
 62
     7
 10
373.059880687442
 20
148.7282830417256
 30
0.0
  0
VERTEX
  5
15A
  8
0
  6
________________
 62
     7
 10
373.1098344753611
 20
147.4623381426206
 30
0.0
  0
VERTEX
  5
15B
  8
0
  6
________________
 62
     7
 10
373.1538660497129
 20
145.7677287350393
 30
0.0
  0
SEQEND
  5
15C
  8
0
  6
________________
 62
     7
  0
POLYLINE
  5
10F
  8
0
  6
________________
 62
     7
 66
     1
 10
0.0
 20
0.0
 30
0.0
  0
VERTEX
  5
15D
  8
0
  6
________________
 62
     7
 10
373.1588216908165
 20
145.5310970023549
 30
0.0
  0
VERTEX
  5
15E
  8
0
  6
________________
 62
     7
 10
373.1943109125684
 20
143.4285904822358
 30
0.0
  0
VERTEX
  5
15F
  8
0
  6
________________
 62
     7
 10
373.2208228621946
 20
141.0432984196498
 30
0.0
  0
VERTEX
  5
160
  8
0
  6
________________
 62
     7
 10
373.237398745015
 20
138.4614840043192
 30
0.0
  0
VERTEX
  5
161
  8
0
  6
________________
 62
     7
 10
373.2434391004657
 20
135.776517582891
 30
0.0
  0
SEQEND
  5
162
  8
0
  6
________________
 62
     7
  0
POLYLINE
  5
110
  8
0
  6
________________
 62
     7
 66
     1
 10
0.0
 20
0.0
 30
0.0
  0
VERTEX
  5
163
  8
0
  6
________________
 62
     7
 10
373.2434391004657
 20
135.44186977724
 30
0.0
  0
VERTEX
  5
164
  8
0
  6
________________
 62
     7
 10
373.237398745015
 20
132.7569033558119
 30
0.0
  0
VERTEX
  5
165
  8
0
  6
________________
 62
     7
 10
373.2208228621946
 20
130.1750889404813
 30
0.0
  0
VERTEX
  5
166
  8
0
  6
________________
 62
     7
 10
373.1943109125684
 20
127.7897968778953
 30
0.0
  0
VERTEX
  5
167
  8
0
  6
________________
 62
     7
 10
373.1588216908165
 20
125.6872903577762
 30
0.0
  0
SEQEND
  5
168
  8
0
  6
________________
 62
     7
  0
POLYLINE
  5
111
  8
0
  6
________________
 62
     7
 66
     1
 10
0.0
 20
0.0
 30
0.0
  0
VERTEX
  5
169
  8
0
  6
________________
 62
     7
 10
373.1538660497129
 20
125.4506586250917
 30
0.0
  0
VERTEX
  5
16A
  8
0
  6
________________
 62
     7
 10
373.1098344753611
 20
123.7560492175105
 30
0.0
  0
VERTEX
  5
16B
  8
0
  6
________________
 62
     7
 10
373.059880687442
 20
122.4901043184055
 30
0.0
  0
VERTEX
  5
16C
  8
0
  6
________________
 62
     7
 10
373.0058112458952
 20
121.6986063486059
 30
0.0
  0
VERTEX
  5
16D
  8
0
  6
________________
 62
     7
 10
372.949581551725
 20
121.4101795343038
 30
0.0
  0
SEQEND
  5
16E
  8
0
  6
________________
 62
     7
  0
LINE
  5
112
  8
0
  6
________________
 62
     7
 10
372.949581551725
 20
121.4101795343037
 30
0.0
 11
371.6937540592689
 21
121.2840012242162
 31
0.0
  0
LINE
  5
113
  8
0
  6
________________
 62
     7
 10
371.6937540592688
 20
121.2840012242162
 30
0.0
 11
371.2959912112925
 21
121.2441173503677
 31
0.0
  0
POLYLINE
  5
114
  8
0
  6
________________
 62
     7
 66
     1
 10
0.0
 20
0.0
 30
0.0
  0
VERTEX
  5
16F
  8
0
  6
________________
 62
     7
 10
373.2460815796158
 20
135.6923987094995
 30
0.0
  0
VERTEX
  5
170
  8
0
  6
________________
 62
     7
 10
373.2463995161669
 20
135.6799635051898
 30
0.0
  0
VERTEX
  5
171
  8
0
  6
________________
 62
     7
 10
373.2466604711802
 20
135.6648028764032
 30
0.0
  0
VERTEX
  5
172
  8
0
  6
________________
 62
     7
 10
373.2468543949886
 20
135.6475006757732
 30
0.0
  0
VERTEX
  5
173
  8
0
  6
________________
 62
     7
 10
373.2469738193711
 20
135.6287232302411
 30
0.0
  0
VERTEX
  5
174
  8
0
  6
________________
 62
     7
 10
373.2470141451623
 20
135.6091936800657
 30
0.0
  0
VERTEX
  5
175
  8
0
  6
________________
 62
     7
 10
373.2469738193711
 20
135.5896641298904
 30
0.0
  0
VERTEX
  5
176
  8
0
  6
________________
 62
     7
 10
373.2468543949886
 20
135.5708866843582
 30
0.0
  0
VERTEX
  5
177
  8
0
  6
________________
 62
     7
 10
373.2466604711802
 20
135.5535844837282
 30
0.0
  0
VERTEX
  5
178
  8
0
  6
________________
 62
     7
 10
373.2463995161669
 20
135.5384238549416
 30
0.0
  0
VERTEX
  5
179
  8
0
  6
________________
 62
     7
 10
373.2460815796158
 20
135.5259886506318
 30
0.0
  0
SEQEND
  5
17A
  8
0
  6
________________
 62
     7
  0
LINE
  5
115
  8
0
  6
________________
 62
     7
 10
373.2434391004658
 20
135.776517582891
 30
0.0
 11
373.2460815796158
 21
135.6923987094993
 31
0.0
  0
LINE
  5
116
  8
0
  6
________________
 62
     7
 10
373.2460815796158
 20
135.5259886506317
 30
0.0
 11
373.2434391004658
 21
135.44186977724
 31
0.0
  0
POLYLINE
  5
117
  8
0
  6
________________
 62
     7
 66
     1
 10
0.0
 20
0.0
 30
0.0
  0
VERTEX
  5
17B
  8
0
  6
________________
 62
     7
 10
373.1594445291253
 20
125.5385877932731
 30
0.0
  0
VERTEX
  5
17C
  8
0
  6
________________
 62
     7
 10
373.1594851969843
 20
125.5190691592126
 30
0.0
  0
VERTEX
  5
17D
  8
0
  6
________________
 62
     7
 10
373.1594452893347
 20
125.4995469477862
 30
0.0
  0
VERTEX
  5
17E
  8
0
  6
________________
 62
     7
 10
373.1593263416152
 20
125.4807722721922
 30
0.0
  0
VERTEX
  5
17F
  8
0
  6
________________
 62
     7
 10
373.1591329303155
 20
125.4634674843364
 30
0.0
  0
VERTEX
  5
180
  8
0
  6
________________
 62
     7
 10
373.1588724968971
 20
125.4482983824868
 30
0.0
  0
VERTEX
  5
181
  8
0
  6
________________
 62
     7
 10
373.1585550614838
 20
125.4358485948172
 30
0.0
  0
VERTEX
  5
182
  8
0
  6
________________
 62
     7
 10
373.15819283734
 20
125.4265971244298
 30
0.0
  0
VERTEX
  5
183
  8
0
  6
________________
 62
     7
 10
373.1577997609674
 20
125.4208999198061
 30
0.0
  0
VERTEX
  5
184
  8
0
  6
________________
 62
     7
 10
373.1573909559013
 20
125.4189761797597
 30
0.0
  0
SEQEND
  5
185
  8
0
  6
________________
 62
     7
  0
POLYLINE
  5
118
  8
0
  6
________________
 62
     7
 66
     1
 10
0.0
 20
0.0
 30
0.0
  0
VERTEX
  5
186
  8
0
  6
________________
 62
     7
 10
373.1573909559013
 20
145.7994111803713
 30
0.0
  0
VERTEX
  5
187
  8
0
  6
________________
 62
     7
 10
373.1577997609674
 20
145.797487440325
 30
0.0
  0
VERTEX
  5
188
  8
0
  6
________________
 62
     7
 10
373.15819283734
 20
145.7917902357012
 30
0.0
  0
VERTEX
  5
189
  8
0
  6
________________
 62
     7
 10
373.1585550614838
 20
145.7825387653138
 30
0.0
  0
VERTEX
  5
18A
  8
0
  6
________________
 62
     7
 10
373.1588724968971
 20
145.7700889776442
 30
0.0
  0
VERTEX
  5
18B
  8
0
  6
________________
 62
     7
 10
373.1591329303155
 20
145.7549198757946
 30
0.0
  0
VERTEX
  5
18C
  8
0
  6
________________
 62
     7
 10
373.1593263416152
 20
145.7376150879388
 30
0.0
  0
VERTEX
  5
18D
  8
0
  6
________________
 62
     7
 10
373.1594452893347
 20
145.7188404123448
 30
0.0
  0
VERTEX
  5
18E
  8
0
  6
________________
 62
     7
 10
373.1594851969843
 20
145.6993182009184
 30
0.0
  0
VERTEX
  5
18F
  8
0
  6
________________
 62
     7
 10
373.1594445291253
 20
145.6797995668579
 30
0.0
  0
SEQEND
  5
190
  8
0
  6
________________
 62
     7
  0
LINE
  5
119
  8
0
  6
________________
 62
     7
 10
373.1588216908165
 20
125.6872903577761
 30
0.0
 11
373.1594445291253
 21
125.5385877932735
 31
0.0
  0
LINE
  5
11A
  8
0
  6
________________
 62
     7
 10
373.1594445291253
 20
145.6797995668575
 30
0.0
 11
373.1588216908165
 21
145.5310970023549
 31
0.0
  0
LINE
  5
11B
  8
0
  6
________________
 62
     7
 10
341.4529858548378
 20
120.9091936800655
 30
0.0
 11
367.9471739669213
 21
120.9091936800655
 31
0.0
  0
LINE
  5
11C
  8
0
  6
________________
 62
     7
 10
367.9471739669213
 20
150.3091936800655
 30
0.0
 11
341.4529858548378
 21
150.3091936800655
 31
0.0
  0
LINE
  5
11D
  8
0
  6
________________
 62
     7
 10
367.9478188282274
 20
120.9092259302392
 30
0.0
 11
371.296001928305
 21
121.2441184222605
 31
0.0
  0
LINE
  5
11E
  8
0
  6
________________
 62
     7
 10
371.2959339786586
 20
149.9742757343406
 30
0.0
 11
367.9478188282274
 21
150.3091614298918
 31
0.0
  0
INSERT
  5
122
  8
0
  6
________________
 62
     7
  2
_2058
 10
0.0
 20
0.0
 30
0.0
  0
CIRCLE
  5
123
  8
0
  6
________________
 62
     7
 10
341.4529858548378
 20
135.6091936800655
 30
0.0
 40
14.20591555935208
  0
POLYLINE
  5
124
  8
0
  6
________________
 62
     7
 66
     1
 10
0.0
 20
0.0
 30
0.0
 70
     1
  0
VERTEX
  5
191
  8
0
  6
________________
 62
     7
 10
449.9560466437048
 20
230.6596862263258
 30
0.0
  0
VERTEX
  5
192
  8
0
  6
________________
 62
     7
 10
449.9549999883907
 20
230.8319971132624
 30
0.0
  0
VERTEX
  5
193
  8
0
  6
________________
 62
     7
 10
449.9518632665049
 20
231.0041505016025
 30
0.0
  0
VERTEX
  5
194
  8
0
  6
________________
 62
     7
 10
449.9466413441326
 20
231.1761282240821
 30
0.0
  0
VERTEX
  5
195
  8
0
  6
________________
 62
     7
 10
449.9393390873584
 20
231.3479121134369
 30
0.0
  0
VERTEX
  5
196
  8
0
  6
________________
 62
     7
 10
449.9299613622674
 20
231.5194840024029
 30
0.0
  0
VERTEX
  5
197
  8
0
  6
________________
 62
     7
 10
449.9185130349446
 20
231.690825723716
 30
0.0
  0
VERTEX
  5
198
  8
0
  6
________________
 62
     7
 10
449.9049989714748
 20
231.861919110112
 30
0.0
  0
VERTEX
  5
199
  8
0
  6
________________
 62
     7
 10
449.8894240379429
 20
232.0327459943268
 30
0.0
  0
VERTEX
  5
19A
  8
0
  6
________________
 62
     7
 10
449.871793100434
 20
232.2032882090963
 30
0.0
  0
VERTEX
  5
19B
  8
0
  6
________________
 62
     7
 10
449.8521110250329
 20
232.3735275871564
 30
0.0
  0
VERTEX
  5
19C
  8
0
  6
________________
 62
     7
 10
449.8303826778246
 20
232.543445961243
 30
0.0
  0
VERTEX
  5
19D
  8
0
  6
________________
 62
     7
 10
449.8066129248938
 20
232.7130251640918
 30
0.0
  0
VERTEX
  5
19E
  8
0
  6
________________
 62
     7
 10
449.7808066323258
 20
232.882247028439
 30
0.0
  0
VERTEX
  5
19F
  8
0
  6
________________
 62
     7
 10
449.7529686662053
 20
233.0510933870203
 30
0.0
  0
VERTEX
  5
1A0
  8
0
  6
________________
 62
     7
 10
449.7231038926172
 20
233.2195460725715
 30
0.0
  0
VERTEX
  5
1A1
  8
0
  6
________________
 62
     7
 10
449.6912171776466
 20
233.3875869178287
 30
0.0
  0
VERTEX
  5
1A2
  8
0
  6
________________
 62
     7
 10
449.6573133873783
 20
233.5551977555276
 30
0.0
  0
VERTEX
  5
1A3
  8
0
  6
________________
 62
     7
 10
449.6213973878972
 20
233.7223604184041
 30
0.0
  0
VERTEX
  5
1A4
  8
0
  6
________________
 62
     7
 10
449.5834740452884
 20
233.8890567391942
 30
0.0
  0
VERTEX
  5
1A5
  8
0
  6
________________
 62
     7
 10
449.5435482256366
 20
234.0552685506337
 30
0.0
  0
VERTEX
  5
1A6
  8
0
  6
________________
 62
     7
 10
449.5016247950269
 20
234.2209776854585
 30
0.0
  0
VERTEX
  5
1A7
  8
0
  6
________________
 62
     7
 10
449.4577086195441
 20
234.3861659764045
 30
0.0
  0
VERTEX
  5
1A8
  8
0
  6
________________
 62
     7
 10
449.4118045652733
 20
234.5508152562075
 30
0.0
  0
VERTEX
  5
1A9
  8
0
  6
________________
 62
     7
 10
449.3639174982993
 20
234.7149073576035
 30
0.0
  0
VERTEX
  5
1AA
  8
0
  6
________________
 62
     7
 10
449.3140522847071
 20
234.8784241133282
 30
0.0
  0
VERTEX
  5
1AB
  8
0
  6
________________
 62
     7
 10
449.2622137905815
 20
235.0413473561178
 30
0.0
  0
VERTEX
  5
1AC
  8
0
  6
________________
 62
     7
 10
449.2084068820076
 20
235.2036589187078
 30
0.0
  0
VERTEX
  5
1AD
  8
0
  6
________________
 62
     7
 10
449.1526364250702
 20
235.3653406338344
 30
0.0
  0
VERTEX
  5
1AE
  8
0
  6
________________
 62
     7
 10
449.0949072858543
 20
235.5263743342334
 30
0.0
  0
VERTEX
  5
1AF
  8
0
  6
________________
 62
     7
 10
449.0352243304448
 20
235.6867418526406
 30
0.0
  0
VERTEX
  5
1B0
  8
0
  6
________________
 62
     7
 10
448.9735924249267
 20
235.8464250217918
 30
0.0
  0
VERTEX
  5
1B1
  8
0
  6
________________
 62
     7
 10
448.9100164353847
 20
236.0054056744231
 30
0.0
  0
VERTEX
  5
1B2
  8
0
  6
________________
 62
     7
 10
448.8445012160345
 20
236.1636656792179
 30
0.0
  0
VERTEX
  5
1B3
  8
0
  6
________________
 62
     7
 10
448.7770515779014
 20
236.3211870559765
 30
0.0
  0
VERTEX
  5
1B4
  8
0
  6
________________
 62
     7
 10
448.7076724164928
 20
236.4779516002411
 30
0.0
  0
VERTEX
  5
1B5
  8
0
  6
________________
 62
     7
 10
448.6363686409808
 20
236.6339410684259
 30
0.0
  0
VERTEX
  5
1B6
  8
0
  6
________________
 62
     7
 10
448.5631451605373
 20
236.7891372169454
 30
0.0
  0
VERTEX
  5
1B7
  8
0
  6
________________
 62
     7
 10
448.4880068843346
 20
236.9435218022138
 30
0.0
  0
VERTEX
  5
1B8
  8
0
  6
________________
 62
     7
 10
448.4109587215445
 20
237.0970765806456
 30
0.0
  0
VERTEX
  5
1B9
  8
0
  6
________________
 62
     7
 10
448.3320055813393
 20
237.2497833086552
 30
0.0
  0
VERTEX
  5
1BA
  8
0
  6
________________
 62
     7
 10
448.2511519211658
 20
237.4016230094895
 30
0.0
  0
VERTEX
  5
1BB
  8
0
  6
________________
 62
     7
 10
448.1684070754186
 20
237.5525584944802
 30
0.0
  0
VERTEX
  5
1BC
  8
0
  6
________________
 62
     7
 10
448.0838018259482
 20
237.7025359939363
 30
0.0
  0
VERTEX
  5
1BD
  8
0
  6
________________
 62
     7
 10
447.9973700984971
 20
237.8515014426029
 30
0.0
  0
VERTEX
  5
1BE
  8
0
  6
________________
 62
     7
 10
447.9091458188078
 20
237.999400775225
 30
0.0
  0
VERTEX
  5
1BF
  8
0
  6
________________
 62
     7
 10
447.8191629126226
 20
238.1461799265477
 30
0.0
  0
VERTEX
  5
1C0
  8
0
  6
________________
 62
     7
 10
447.7274553056843
 20
238.2917848313159
 30
0.0
  0
VERTEX
  5
1C1
  8
0
  6
________________
 62
     7
 10
447.6340569237352
 20
238.4361614242747
 30
0.0
  0
VERTEX
  5
1C2
  8
0
  6
________________
 62
     7
 10
447.5390003584756
 20
238.5792583309285
 30
0.0
  0
VERTEX
  5
1C3
  8
0
  6
________________
 62
     7
 10
447.4422848163106
 20
238.7210913003401
 30
0.0
  0
VERTEX
  5
1C4
  8
0
  6
________________
 62
     7
 10
447.3439135275809
 20
238.8616674333855
 30
0.0
  0
VERTEX
  5
1C5
  8
0
  6
________________
 62
     7
 10
447.2438997956601
 20
239.0009734364484
 30
0.0
  0
VERTEX
  5
1C6
  8
0
  6
________________
 62
     7
 10
447.1422569239218
 20
239.1389960159124
 30
0.0
  0
VERTEX
  5
1C7
  8
0
  6
________________
 62
     7
 10
447.0389982157394
 20
239.2757218781611
 30
0.0
  0
VERTEX
  5
1C8
  8
0
  6
________________
 62
     7
 10
446.9341369744865
 20
239.4111377295783
 30
0.0
  0
VERTEX
  5
1C9
  8
0
  6
________________
 62
     7
 10
446.8276865035368
 20
239.5452302765475
 30
0.0
  0
VERTEX
  5
1CA
  8
0
  6
________________
 62
     7
 10
446.7196601062636
 20
239.6779862254525
 30
0.0
  0
VERTEX
  5
1CB
  8
0
  6
________________
 62
     7
 10
446.6100710860407
 20
239.8093922826768
 30
0.0
  0
VERTEX
  5
1CC
  8
0
  6
________________
 62
     7
 10
446.4989327462416
 20
239.9394351546041
 30
0.0
  0
VERTEX
  5
1CD
  8
0
  6
________________
 62
     7
 10
446.3862583902397
 20
240.0681015476181
 30
0.0
  0
VERTEX
  5
1CE
  8
0
  6
________________
 62
     7
 10
446.2720613214087
 20
240.1953781681025
 30
0.0
  0
VERTEX
  5
1CF
  8
0
  6
________________
 62
     7
 10
446.1563548431222
 20
240.3212517224408
 30
0.0
  0
VERTEX
  5
1D0
  8
0
  6
________________
 62
     7
 10
446.0391522587536
 20
240.4457089170168
 30
0.0
  0
VERTEX
  5
1D1
  8
0
  6
________________
 62
     7
 10
445.9204668716765
 20
240.568736458214
 30
0.0
  0
VERTEX
  5
1D2
  8
0
  6
________________
 62
     7
 10
445.8003119852646
 20
240.6903210524162
 30
0.0
  0
VERTEX
  5
1D3
  8
0
  6
________________
 62
     7
 10
445.6787007779049
 20
240.8104495299768
 30
0.0
  0
VERTEX
  5
1D4
  8
0
  6
________________
 62
     7
 10
445.5556464246402
 20
240.9291087189564
 30
0.0
  0
VERTEX
  5
1D5
  8
0
  6
________________
 62
     7
 10
445.4311622238268
 20
241.0462853222996
 30
0.0
  0
VERTEX
  5
1D6
  8
0
  6
________________
 62
     7
 10
445.3052614738213
 20
241.1619660429512
 30
0.0
  0
VERTEX
  5
1D7
  8
0
  6
________________
 62
     7
 10
445.17795747298
 20
241.2761375838557
 30
0.0
  0
VERTEX
  5
1D8
  8
0
  6
________________
 62
     7
 10
445.0492635196596
 20
241.3887866479578
 30
0.0
  0
VERTEX
  5
1D9
  8
0
  6
________________
 62
     7
 10
444.9191929122164
 20
241.499899938202
 30
0.0
  0
VERTEX
  5
1DA
  8
0
  6
________________
 62
     7
 10
444.787758949007
 20
241.609464157533
 30
0.0
  0
VERTEX
  5
1DB
  8
0
  6
________________
 62
     7
 10
444.6549749283877
 20
241.7174660088955
 30
0.0
  0
VERTEX
  5
1DC
  8
0
  6
________________
 62
     7
 10
444.5208541487152
 20
241.823892195234
 30
0.0
  0
VERTEX
  5
1DD
  8
0
  6
________________
 62
     7
 10
444.3854099083458
 20
241.9287294194933
 30
0.0
  0
VERTEX
  5
1DE
  8
0
  6
________________
 62
     7
 10
444.248655505636
 20
242.0319643846178
 30
0.0
  0
VERTEX
  5
1DF
  8
0
  6
________________
 62
     7
 10
444.1106042389424
 20
242.1335837935522
 30
0.0
  0
VERTEX
  5
1E0
  8
0
  6
________________
 62
     7
 10
443.9712694066213
 20
242.2335743492413
 30
0.0
  0
VERTEX
  5
1E1
  8
0
  6
________________
 62
     7
 10
443.8306643070293
 20
242.3319227546294
 30
0.0
  0
VERTEX
  5
1E2
  8
0
  6
________________
 62
     7
 10
443.688802238523
 20
242.4286157126615
 30
0.0
  0
VERTEX
  5
1E3
  8
0
  6
________________
 62
     7
 10
443.5456761002599
 20
242.5236499973109
 30
0.0
  0
VERTEX
  5
1E4
  8
0
  6
________________
 62
     7
 10
443.4012701396977
 20
242.6170264064473
 30
0.0
  0
VERTEX
  5
1E5
  8
0
  6
________________
 62
     7
 10
443.2556357419181
 20
242.7087123600011
 30
0.0
  0
VERTEX
  5
1E6
  8
0
  6
________________
 62
     7
 10
443.1088269833522
 20
242.7986739441413
 30
0.0
  0
VERTEX
  5
1E7
  8
0
  6
________________
 62
     7
 10
442.960897940431
 20
242.886877245037
 30
0.0
  0
VERTEX
  5
1E8
  8
0
  6
________________
 62
     7
 10
442.8119026895856
 20
242.9732883488572
 30
0.0
  0
VERTEX
  5
1E9
  8
0
  6
________________
 62
     7
 10
442.6618953072469
 20
243.0578733417711
 30
0.0
  0
VERTEX
  5
1EA
  8
0
  6
________________
 62
     7
 10
442.5109298698461
 20
243.1405983099476
 30
0.0
  0
VERTEX
  5
1EB
  8
0
  6
________________
 62
     7
 10
442.3590601579854
 20
243.2214324828334
 30
0.0
  0
VERTEX
  5
1EC
  8
0
  6
________________
 62
     7
 10
442.2063233666473
 20
243.300366532628
 30
0.0
  0
VERTEX
  5
1ED
  8
0
  6
________________
 62
     7
 10
442.0527384750835
 20
243.377396006905
 30
0.0
  0
VERTEX
  5
1EE
  8
0
  6
________________
 62
     7
 10
441.8983237292679
 20
243.4525160015738
 30
0.0
  0
VERTEX
  5
1EF
  8
0
  6
________________
 62
     7
 10
441.7430973751747
 20
243.5257216125437
 30
0.0
  0
VERTEX
  5
1F0
  8
0
  6
________________
 62
     7
 10
441.5870776587775
 20
243.5970079357242
 30
0.0
  0
VERTEX
  5
1F1
  8
0
  6
________________
 62
     7
 10
441.4302828260505
 20
243.6663700670245
 30
0.0
  0
VERTEX
  5
1F2
  8
0
  6
________________
 62
     7
 10
441.2727311229673
 20
243.733803102354
 30
0.0
  0
VERTEX
  5
1F3
  8
0
  6
________________
 62
     7
 10
441.1144407572436
 20
243.7993021523452
 30
0.0
  0
VERTEX
  5
1F4
  8
0
  6
________________
 62
     7
 10
440.9554297158764
 20
243.862862416741
 30
0.0
  0
VERTEX
  5
1F5
  8
0
  6
________________
 62
     7
 10
440.7957161313804
 20
243.9244790457731
 30
0.0
  0
VERTEX
  5
1F6
  8
0
  6
________________
 62
     7
 10
440.6353181712594
 20
243.9841471766714
 30
0.0
  0
VERTEX
  5
1F7
  8
0
  6
________________
 62
     7
 10
440.4742540030172
 20
244.0418619466663
 30
0.0
  0
VERTEX
  5
1F8
  8
0
  6
________________
 62
     7
 10
440.3125417941575
 20
244.0976184929879
 30
0.0
  0
VERTEX
  5
1F9
  8
0
  6
________________
 62
     7
 10
440.150199712184
 20
244.1514119528664
 30
0.0
  0
VERTEX
  5
1FA
  8
0
  6
________________
 62
     7
 10
439.9872459246004
 20
244.203237463532
 30
0.0
  0
VERTEX
  5
1FB
  8
0
  6
________________
 62
     7
 10
439.8236985989105
 20
244.2530901622148
 30
0.0
  0
VERTEX
  5
1FC
  8
0
  6
________________
 62
     7
 10
439.659575902618
 20
244.3009651861451
 30
0.0
  0
VERTEX
  5
1FD
  8
0
  6
________________
 62
     7
 10
439.4948960032266
 20
244.3468576725531
 30
0.0
  0
VERTEX
  5
1FE
  8
0
  6
________________
 62
     7
 10
439.3296770682401
 20
244.3907627586688
 30
0.0
  0
VERTEX
  5
1FF
  8
0
  6
________________
 62
     7
 10
439.1639372651622
 20
244.4326755817226
 30
0.0
  0
VERTEX
  5
200
  8
0
  6
________________
 62
     7
 10
438.9976947614967
 20
244.4725912789445
 30
0.0
  0
VERTEX
  5
201
  8
0
  6
________________
 62
     7
 10
438.8309677247473
 20
244.5105049875649
 30
0.0
  0
VERTEX
  5
202
  8
0
  6
________________
 62
     7
 10
438.6637743224176
 20
244.5464118448137
 30
0.0
  0
VERTEX
  5
203
  8
0
  6
________________
 62
     7
 10
438.4961327220115
 20
244.5803069879213
 30
0.0
  0
VERTEX
  5
204
  8
0
  6
________________
 62
     7
 10
438.3280610910326
 20
244.6121855541179
 30
0.0
  0
VERTEX
  5
205
  8
0
  6
________________
 62
     7
 10
438.1595775969848
 20
244.6420426806336
 30
0.0
  0
VERTEX
  5
206
  8
0
  6
________________
 62
     7
 10
437.9907004073716
 20
244.6698735046985
 30
0.0
  0
VERTEX
  5
207
  8
0
  6
________________
 62
     7
 10
437.821447689697
 20
244.6956731635429
 30
0.0
  0
VERTEX
  5
208
  8
0
  6
________________
 62
     7
 10
437.6518376114645
 20
244.719436794397
 30
0.0
  0
VERTEX
  5
209
  8
0
  6
________________
 62
     7
 10
437.4818883401779
 20
244.7411595344909
 30
0.0
  0
VERTEX
  5
20A
  8
0
  6
________________
 62
     7
 10
437.3116180433411
 20
244.7608365210548
 30
0.0
  0
VERTEX
  5
20B
  8
0
  6
________________
 62
     7
 10
437.1410448884576
 20
244.778462891319
 30
0.0
  0
VERTEX
  5
20C
  8
0
  6
________________
 62
     7
 10
436.9701870430312
 20
244.7940337825135
 30
0.0
  0
VERTEX
  5
20D
  8
0
  6
________________
 62
     7
 10
436.7990626745657
 20
244.8075443318686
 30
0.0
  0
VERTEX
  5
20E
  8
0
  6
________________
 62
     7
 10
436.6276899505648
 20
244.8189896766145
 30
0.0
  0
VERTEX
  5
20F
  8
0
  6
________________
 62
     7
 10
436.4560870385322
 20
244.8283649539813
 30
0.0
  0
VERTEX
  5
210
  8
0
  6
________________
 62
     7
 10
436.2842721059717
 20
244.8356653011993
 30
0.0
  0
VERTEX
  5
211
  8
0
  6
________________
 62
     7
 10
436.1122633203869
 20
244.8408858554986
 30
0.0
  0
VERTEX
  5
212
  8
0
  6
________________
 62
     7
 10
435.9400788492817
 20
244.8440217541093
 30
0.0
  0
VERTEX
  5
213
  8
0
  6
________________
 62
     7
 10
435.7677368601596
 20
244.8450681342618
 30
0.0
  0
VERTEX
  5
214
  8
0
  6
________________
 62
     7
 10
435.5953948710377
 20
244.8440217541094
 30
0.0
  0
VERTEX
  5
215
  8
0
  6
________________
 62
     7
 10
435.4232103999325
 20
244.8408858554987
 30
0.0
  0
VERTEX
  5
216
  8
0
  6
________________
 62
     7
 10
435.2512016143477
 20
244.8356653011995
 30
0.0
  0
VERTEX
  5
217
  8
0
  6
________________
 62
     7
 10
435.0793866817872
 20
244.8283649539815
 30
0.0
  0
VERTEX
  5
218
  8
0
  6
________________
 62
     7
 10
434.9077837697546
 20
244.8189896766148
 30
0.0
  0
VERTEX
  5
219
  8
0
  6
________________
 62
     7
 10
434.7364110457538
 20
244.8075443318689
 30
0.0
  0
VERTEX
  5
21A
  8
0
  6
________________
 62
     7
 10
434.5652866772883
 20
244.7940337825138
 30
0.0
  0
VERTEX
  5
21B
  8
0
  6
________________
 62
     7
 10
434.3944288318619
 20
244.7784628913194
 30
0.0
  0
VERTEX
  5
21C
  8
0
  6
________________
 62
     7
 10
434.2238556769784
 20
244.7608365210552
 30
0.0
  0
VERTEX
  5
21D
  8
0
  6
________________
 62
     7
 10
434.0535853801416
 20
244.7411595344913
 30
0.0
  0
VERTEX
  5
21E
  8
0
  6
________________
 62
     7
 10
433.8836361088551
 20
244.7194367943975
 30
0.0
  0
VERTEX
  5
21F
  8
0
  6
________________
 62
     7
 10
433.7140260306226
 20
244.6956731635435
 30
0.0
  0
VERTEX
  5
220
  8
0
  6
________________
 62
     7
 10
433.5447733129479
 20
244.6698735046991
 30
0.0
  0
VERTEX
  5
221
  8
0
  6
________________
 62
     7
 10
433.3758961233348
 20
244.6420426806342
 30
0.0
  0
VERTEX
  5
222
  8
0
  6
________________
 62
     7
 10
433.207412629287
 20
244.6121855541186
 30
0.0
  0
VERTEX
  5
223
  8
0
  6
________________
 62
     7
 10
433.0393409983081
 20
244.5803069879221
 30
0.0
  0
VERTEX
  5
224
  8
0
  6
________________
 62
     7
 10
432.8716993979021
 20
244.5464118448145
 30
0.0
  0
VERTEX
  5
225
  8
0
  6
________________
 62
     7
 10
432.7045059955724
 20
244.5105049875657
 30
0.0
  0
VERTEX
  5
226
  8
0
  6
________________
 62
     7
 10
432.537778958823
 20
244.4725912789454
 30
0.0
  0
VERTEX
  5
227
  8
0
  6
________________
 62
     7
 10
432.3715364551574
 20
244.4326755817235
 30
0.0
  0
VERTEX
  5
228
  8
0
  6
________________
 62
     7
 10
432.2057966520795
 20
244.3907627586698
 30
0.0
  0
VERTEX
  5
229
  8
0
  6
________________
 62
     7
 10
432.0405777170931
 20
244.3468576725541
 30
0.0
  0
VERTEX
  5
22A
  8
0
  6
________________
 62
     7
 10
431.8758978177017
 20
244.3009651861462
 30
0.0
  0
VERTEX
  5
22B
  8
0
  6
________________
 62
     7
 10
431.7117751214093
 20
244.2530901622159
 30
0.0
  0
VERTEX
  5
22C
  8
0
  6
________________
 62
     7
 10
431.5482277957194
 20
244.2032374635331
 30
0.0
  0
VERTEX
  5
22D
  8
0
  6
________________
 62
     7
 10
431.3852740081358
 20
244.1514119528676
 30
0.0
  0
VERTEX
  5
22E
  8
0
  6
________________
 62
     7
 10
431.2229319261622
 20
244.0976184929891
 30
0.0
  0
VERTEX
  5
22F
  8
0
  6
________________
 62
     7
 10
431.0612197173025
 20
244.0418619466676
 30
0.0
  0
VERTEX
  5
230
  8
0
  6
________________
 62
     7
 10
430.9001555490603
 20
243.9841471766728
 30
0.0
  0
VERTEX
  5
231
  8
0
  6
________________
 62
     7
 10
430.7397575889393
 20
243.9244790457745
 30
0.0
  0
VERTEX
  5
232
  8
0
  6
________________
 62
     7
 10
430.5800440044433
 20
243.8628624167425
 30
0.0
  0
VERTEX
  5
233
  8
0
  6
________________
 62
     7
 10
430.421032963076
 20
243.7993021523467
 30
0.0
  0
VERTEX
  5
234
  8
0
  6
________________
 62
     7
 10
430.2627425973523
 20
243.7338031023556
 30
0.0
  0
VERTEX
  5
235
  8
0
  6
________________
 62
     7
 10
430.1051908942691
 20
243.666370067026
 30
0.0
  0
VERTEX
  5
236
  8
0
  6
________________
 62
     7
 10
429.948396061542
 20
243.5970079357258
 30
0.0
  0
VERTEX
  5
237
  8
0
  6
________________
 62
     7
 10
429.7923763451448
 20
243.5257216125454
 30
0.0
  0
VERTEX
  5
238
  8
0
  6
________________
 62
     7
 10
429.6371499910514
 20
243.4525160015755
 30
0.0
  0
VERTEX
  5
239
  8
0
  6
________________
 62
     7
 10
429.4827352452358
 20
243.3773960069067
 30
0.0
  0
VERTEX
  5
23A
  8
0
  6
________________
 62
     7
 10
429.329150353672
 20
243.3003665326297
 30
0.0
  0
VERTEX
  5
23B
  8
0
  6
________________
 62
     7
 10
429.1764135623338
 20
243.2214324828351
 30
0.0
  0
VERTEX
  5
23C
  8
0
  6
________________
 62
     7
 10
429.0245438504732
 20
243.1405983099494
 30
0.0
  0
VERTEX
  5
23D
  8
0
  6
________________
 62
     7
 10
428.8735784130722
 20
243.0578733417729
 30
0.0
  0
VERTEX
  5
23E
  8
0
  6
________________
 62
     7
 10
428.7235710307335
 20
242.9732883488591
 30
0.0
  0
VERTEX
  5
23F
  8
0
  6
________________
 62
     7
 10
428.5745757798881
 20
242.8868772450389
 30
0.0
  0
VERTEX
  5
240
  8
0
  6
________________
 62
     7
 10
428.4266467369668
 20
242.7986739441433
 30
0.0
  0
VERTEX
  5
241
  8
0
  6
________________
 62
     7
 10
428.2798379784009
 20
242.7087123600031
 30
0.0
  0
VERTEX
  5
242
  8
0
  6
________________
 62
     7
 10
428.1342035806213
 20
242.6170264064494
 30
0.0
  0
VERTEX
  5
243
  8
0
  6
________________
 62
     7
 10
427.989797620059
 20
242.5236499973131
 30
0.0
  0
VERTEX
  5
244
  8
0
  6
________________
 62
     7
 10
427.8466714817959
 20
242.4286157126637
 30
0.0
  0
VERTEX
  5
245
  8
0
  6
________________
 62
     7
 10
427.7048094132894
 20
242.3319227546318
 30
0.0
  0
VERTEX
  5
246
  8
0
  6
________________
 62
     7
 10
427.5642043136974
 20
242.2335743492436
 30
0.0
  0
VERTEX
  5
247
  8
0
  6
________________
 62
     7
 10
427.4248694813763
 20
242.1335837935546
 30
0.0
  0
VERTEX
  5
248
  8
0
  6
________________
 62
     7
 10
427.2868182146826
 20
242.0319643846202
 30
0.0
  0
VERTEX
  5
249
  8
0
  6
________________
 62
     7
 10
427.1500638119729
 20
241.9287294194957
 30
0.0
  0
VERTEX
  5
24A
  8
0
  6
________________
 62
     7
 10
427.0146195716034
 20
241.8238921952365
 30
0.0
  0
VERTEX
  5
24B
  8
0
  6
________________
 62
     7
 10
426.8804987919309
 20
241.717466008898
 30
0.0
  0
VERTEX
  5
24C
  8
0
  6
________________
 62
     7
 10
426.7477147713116
 20
241.6094641575355
 30
0.0
  0
VERTEX
  5
24D
  8
0
  6
________________
 62
     7
 10
426.6162808081022
 20
241.4998999382045
 30
0.0
  0
VERTEX
  5
24E
  8
0
  6
________________
 62
     7
 10
426.4862102006589
 20
241.3887866479603
 30
0.0
  0
VERTEX
  5
24F
  8
0
  6
________________
 62
     7
 10
426.3575162473385
 20
241.2761375838583
 30
0.0
  0
VERTEX
  5
250
  8
0
  6
________________
 62
     7
 10
426.2302122464972
 20
241.1619660429538
 30
0.0
  0
VERTEX
  5
251
  8
0
  6
________________
 62
     7
 10
426.1043114964917
 20
241.0462853223022
 30
0.0
  0
VERTEX
  5
252
  8
0
  6
________________
 62
     7
 10
425.9798272956783
 20
240.929108718959
 30
0.0
  0
VERTEX
  5
253
  8
0
  6
________________
 62
     7
 10
425.8567729424135
 20
240.8104495299794
 30
0.0
  0
VERTEX
  5
254
  8
0
  6
________________
 62
     7
 10
425.7351617350538
 20
240.6903210524189
 30
0.0
  0
VERTEX
  5
255
  8
0
  6
________________
 62
     7
 10
425.6150068486419
 20
240.5687364582167
 30
0.0
  0
VERTEX
  5
256
  8
0
  6
________________
 62
     7
 10
425.4963214615648
 20
240.4457089170195
 30
0.0
  0
VERTEX
  5
257
  8
0
  6
________________
 62
     7
 10
425.3791188771962
 20
240.3212517224435
 30
0.0
  0
VERTEX
  5
258
  8
0
  6
________________
 62
     7
 10
425.2634123989096
 20
240.1953781681052
 30
0.0
  0
VERTEX
  5
259
  8
0
  6
________________
 62
     7
 10
425.1492153300786
 20
240.0681015476209
 30
0.0
  0
VERTEX
  5
25A
  8
0
  6
________________
 62
     7
 10
425.0365409740767
 20
239.9394351546069
 30
0.0
  0
VERTEX
  5
25B
  8
0
  6
________________
 62
     7
 10
424.9254026342775
 20
239.8093922826797
 30
0.0
  0
VERTEX
  5
25C
  8
0
  6
________________
 62
     7
 10
424.8158136140545
 20
239.6779862254554
 30
0.0
  0
VERTEX
  5
25D
  8
0
  6
________________
 62
     7
 10
424.7077872167815
 20
239.5452302765505
 30
0.0
  0
VERTEX
  5
25E
  8
0
  6
________________
 62
     7
 10
424.6013367458317
 20
239.4111377295813
 30
0.0
  0
VERTEX
  5
25F
  8
0
  6
________________
 62
     7
 10
424.4964755045788
 20
239.2757218781641
 30
0.0
  0
VERTEX
  5
260
  8
0
  6
________________
 62
     7
 10
424.3932167963964
 20
239.1389960159154
 30
0.0
  0
VERTEX
  5
261
  8
0
  6
________________
 62
     7
 10
424.291573924658
 20
239.0009734364515
 30
0.0
  0
VERTEX
  5
262
  8
0
  6
________________
 62
     7
 10
424.1915601927371
 20
238.8616674333886
 30
0.0
  0
VERTEX
  5
263
  8
0
  6
________________
 62
     7
 10
424.0931889040075
 20
238.7210913003432
 30
0.0
  0
VERTEX
  5
264
  8
0
  6
________________
 62
     7
 10
423.9964733618424
 20
238.5792583309316
 30
0.0
  0
VERTEX
  5
265
  8
0
  6
________________
 62
     7
 10
423.9014167965828
 20
238.4361614242778
 30
0.0
  0
VERTEX
  5
266
  8
0
  6
________________
 62
     7
 10
423.8080184146336
 20
238.291784831319
 30
0.0
  0
VERTEX
  5
267
  8
0
  6
________________
 62
     7
 10
423.7163108076952
 20
238.1461799265508
 30
0.0
  0
VERTEX
  5
268
  8
0
  6
________________
 62
     7
 10
423.62632790151
 20
237.9994007752281
 30
0.0
  0
VERTEX
  5
269
  8
0
  6
________________
 62
     7
 10
423.5381036218206
 20
237.851501442606
 30
0.0
  0
VERTEX
  5
26A
  8
0
  6
________________
 62
     7
 10
423.4516718943694
 20
237.7025359939394
 30
0.0
  0
VERTEX
  5
26B
  8
0
  6
________________
 62
     7
 10
423.367066644899
 20
237.5525584944833
 30
0.0
  0
VERTEX
  5
26C
  8
0
  6
________________
 62
     7
 10
423.2843217991517
 20
237.4016230094926
 30
0.0
  0
VERTEX
  5
26D
  8
0
  6
________________
 62
     7
 10
423.2034681389781
 20
237.2497833086583
 30
0.0
  0
VERTEX
  5
26E
  8
0
  6
________________
 62
     7
 10
423.1245149987728
 20
237.0970765806488
 30
0.0
  0
VERTEX
  5
26F
  8
0
  6
________________
 62
     7
 10
423.0474668359827
 20
236.943521802217
 30
0.0
  0
VERTEX
  5
270
  8
0
  6
________________
 62
     7
 10
422.9723285597798
 20
236.7891372169486
 30
0.0
  0
VERTEX
  5
271
  8
0
  6
________________
 62
     7
 10
422.8991050793363
 20
236.6339410684292
 30
0.0
  0
VERTEX
  5
272
  8
0
  6
________________
 62
     7
 10
422.8278013038241
 20
236.4779516002444
 30
0.0
  0
VERTEX
  5
273
  8
0
  6
________________
 62
     7
 10
422.7584221424154
 20
236.3211870559799
 30
0.0
  0
VERTEX
  5
274
  8
0
  6
________________
 62
     7
 10
422.6909725042824
 20
236.1636656792212
 30
0.0
  0
VERTEX
  5
275
  8
0
  6
________________
 62
     7
 10
422.6254572849321
 20
236.0054056744264
 30
0.0
  0
VERTEX
  5
276
  8
0
  6
________________
 62
     7
 10
422.5618812953902
 20
235.8464250217951
 30
0.0
  0
VERTEX
  5
277
  8
0
  6
________________
 62
     7
 10
422.500249389872
 20
235.6867418526438
 30
0.0
  0
VERTEX
  5
278
  8
0
  6
________________
 62
     7
 10
422.4405664344624
 20
235.5263743342366
 30
0.0
  0
VERTEX
  5
279
  8
0
  6
________________
 62
     7
 10
422.3828372952465
 20
235.3653406338376
 30
0.0
  0
VERTEX
  5
27A
  8
0
  6
________________
 62
     7
 10
422.3270668383091
 20
235.203658918711
 30
0.0
  0
VERTEX
  5
27B
  8
0
  6
________________
 62
     7
 10
422.2732599297352
 20
235.0413473561208
 30
0.0
  0
VERTEX
  5
27C
  8
0
  6
________________
 62
     7
 10
422.2214214356096
 20
234.8784241133313
 30
0.0
  0
VERTEX
  5
27D
  8
0
  6
________________
 62
     7
 10
422.1715562220173
 20
234.7149073576065
 30
0.0
  0
VERTEX
  5
27E
  8
0
  6
________________
 62
     7
 10
422.1236691550433
 20
234.5508152562105
 30
0.0
  0
VERTEX
  5
27F
  8
0
  6
________________
 62
     7
 10
422.0777651007724
 20
234.3861659764074
 30
0.0
  0
VERTEX
  5
280
  8
0
  6
________________
 62
     7
 10
422.0338489252896
 20
234.2209776854614
 30
0.0
  0
VERTEX
  5
281
  8
0
  6
________________
 62
     7
 10
421.9919254946798
 20
234.0552685506366
 30
0.0
  0
VERTEX
  5
282
  8
0
  6
________________
 62
     7
 10
421.951999675028
 20
233.8890567391971
 30
0.0
  0
VERTEX
  5
283
  8
0
  6
________________
 62
     7
 10
421.9140763324191
 20
233.7223604184069
 30
0.0
  0
VERTEX
  5
284
  8
0
  6
________________
 62
     7
 10
421.878160332938
 20
233.5551977555304
 30
0.0
  0
VERTEX
  5
285
  8
0
  6
________________
 62
     7
 10
421.8442565426697
 20
233.3875869178314
 30
0.0
  0
VERTEX
  5
286
  8
0
  6
________________
 62
     7
 10
421.812369827699
 20
233.2195460725742
 30
0.0
  0
VERTEX
  5
287
  8
0
  6
________________
 62
     7
 10
421.7825050541109
 20
233.0510933870229
 30
0.0
  0
VERTEX
  5
288
  8
0
  6
________________
 62
     7
 10
421.7546670879904
 20
232.8822470284417
 30
0.0
  0
VERTEX
  5
289
  8
0
  6
________________
 62
     7
 10
421.7288607954223
 20
232.7130251640945
 30
0.0
  0
VERTEX
  5
28A
  8
0
  6
________________
 62
     7
 10
421.7050910424916
 20
232.5434459612456
 30
0.0
  0
VERTEX
  5
28B
  8
0
  6
________________
 62
     7
 10
421.6833626952831
 20
232.373527587159
 30
0.0
  0
VERTEX
  5
28C
  8
0
  6
________________
 62
     7
 10
421.663680619882
 20
232.2032882090988
 30
0.0
  0
VERTEX
  5
28D
  8
0
  6
________________
 62
     7
 10
421.646049682373
 20
232.0327459943293
 30
0.0
  0
VERTEX
  5
28E
  8
0
  6
________________
 62
     7
 10
421.6304747488411
 20
231.8619191101145
 30
0.0
  0
VERTEX
  5
28F
  8
0
  6
________________
 62
     7
 10
421.6169606853713
 20
231.6908257237185
 30
0.0
  0
VERTEX
  5
290
  8
0
  6
________________
 62
     7
 10
421.6055123580484
 20
231.5194840024054
 30
0.0
  0
VERTEX
  5
291
  8
0
  6
________________
 62
     7
 10
421.5961346329574
 20
231.3479121134393
 30
0.0
  0
VERTEX
  5
292
  8
0
  6
________________
 62
     7
 10
421.5888323761832
 20
231.1761282240845
 30
0.0
  0
VERTEX
  5
293
  8
0
  6
________________
 62
     7
 10
421.5836104538108
 20
231.004150501605
 30
0.0
  0
VERTEX
  5
294
  8
0
  6
________________
 62
     7
 10
421.5804737319251
 20
230.8319971132648
 30
0.0
  0
VERTEX
  5
295
  8
0
  6
________________
 62
     7
 10
421.5794270766109
 20
230.6596862263281
 30
0.0
  0
VERTEX
  5
296
  8
0
  6
________________
 62
     7
 10
421.580473731925
 20
230.4873753393915
 30
0.0
  0
VERTEX
  5
297
  8
0
  6
________________
 62
     7
 10
421.5836104538106
 20
230.3152219510514
 30
0.0
  0
VERTEX
  5
298
  8
0
  6
________________
 62
     7
 10
421.588832376183
 20
230.1432442285718
 30
0.0
  0
VERTEX
  5
299
  8
0
  6
________________
 62
     7
 10
421.5961346329571
 20
229.9714603392169
 30
0.0
  0
VERTEX
  5
29A
  8
0
  6
________________
 62
     7
 10
421.605512358048
 20
229.7998884502509
 30
0.0
  0
VERTEX
  5
29B
  8
0
  6
________________
 62
     7
 10
421.6169606853709
 20
229.6285467289379
 30
0.0
  0
VERTEX
  5
29C
  8
0
  6
________________
 62
     7
 10
421.6304747488406
 20
229.4574533425418
 30
0.0
  0
VERTEX
  5
29D
  8
0
  6
________________
 62
     7
 10
421.6460496823724
 20
229.286626458327
 30
0.0
  0
VERTEX
  5
29E
  8
0
  6
________________
 62
     7
 10
421.6636806198813
 20
229.1160842435575
 30
0.0
  0
VERTEX
  5
29F
  8
0
  6
________________
 62
     7
 10
421.6833626952825
 20
228.9458448654973
 30
0.0
  0
VERTEX
  5
2A0
  8
0
  6
________________
 62
     7
 10
421.7050910424908
 20
228.7759264914107
 30
0.0
  0
VERTEX
  5
2A1
  8
0
  6
________________
 62
     7
 10
421.7288607954214
 20
228.6063472885618
 30
0.0
  0
VERTEX
  5
2A2
  8
0
  6
________________
 62
     7
 10
421.7546670879894
 20
228.4371254242146
 30
0.0
  0
VERTEX
  5
2A3
  8
0
  6
________________
 62
     7
 10
421.7825050541099
 20
228.2682790656333
 30
0.0
  0
VERTEX
  5
2A4
  8
0
  6
________________
 62
     7
 10
421.812369827698
 20
228.099826380082
 30
0.0
  0
VERTEX
  5
2A5
  8
0
  6
________________
 62
     7
 10
421.8442565426686
 20
227.9317855348248
 30
0.0
  0
VERTEX
  5
2A6
  8
0
  6
________________
 62
     7
 10
421.8781603329368
 20
227.7641746971259
 30
0.0
  0
VERTEX
  5
2A7
  8
0
  6
________________
 62
     7
 10
421.9140763324179
 20
227.5970120342493
 30
0.0
  0
VERTEX
  5
2A8
  8
0
  6
________________
 62
     7
 10
421.9519996750267
 20
227.4303157134591
 30
0.0
  0
VERTEX
  5
2A9
  8
0
  6
________________
 62
     7
 10
421.9919254946785
 20
227.2641039020196
 30
0.0
  0
VERTEX
  5
2AA
  8
0
  6
________________
 62
     7
 10
422.0338489252882
 20
227.0983947671947
 30
0.0
  0
VERTEX
  5
2AB
  8
0
  6
________________
 62
     7
 10
422.0777651007708
 20
226.9332064762487
 30
0.0
  0
VERTEX
  5
2AC
  8
0
  6
________________
 62
     7
 10
422.1236691550417
 20
226.7685571964457
 30
0.0
  0
VERTEX
  5
2AD
  8
0
  6
________________
 62
     7
 10
422.1715562220157
 20
226.6044650950496
 30
0.0
  0
VERTEX
  5
2AE
  8
0
  6
________________
 62
     7
 10
422.2214214356079
 20
226.4409483393248
 30
0.0
  0
VERTEX
  5
2AF
  8
0
  6
________________
 62
     7
 10
422.2732599297334
 20
226.2780250965352
 30
0.0
  0
VERTEX
  5
2B0
  8
0
  6
________________
 62
     7
 10
422.3270668383073
 20
226.1157135339451
 30
0.0
  0
VERTEX
  5
2B1
  8
0
  6
________________
 62
     7
 10
422.3828372952447
 20
225.9540318188185
 30
0.0
  0
VERTEX
  5
2B2
  8
0
  6
________________
 62
     7
 10
422.4405664344605
 20
225.7929981184195
 30
0.0
  0
VERTEX
  5
2B3
  8
0
  6
________________
 62
     7
 10
422.5002493898701
 20
225.6326306000122
 30
0.0
  0
VERTEX
  5
2B4
  8
0
  6
________________
 62
     7
 10
422.5618812953882
 20
225.4729474308609
 30
0.0
  0
VERTEX
  5
2B5
  8
0
  6
________________
 62
     7
 10
422.6254572849301
 20
225.3139667782295
 30
0.0
  0
VERTEX
  5
2B6
  8
0
  6
________________
 62
     7
 10
422.6909725042804
 20
225.1557067734348
 30
0.0
  0
VERTEX
  5
2B7
  8
0
  6
________________
 62
     7
 10
422.7584221424135
 20
224.9981853966761
 30
0.0
  0
VERTEX
  5
2B8
  8
0
  6
________________
 62
     7
 10
422.827801303822
 20
224.8414208524115
 30
0.0
  0
VERTEX
  5
2B9
  8
0
  6
________________
 62
     7
 10
422.8991050793342
 20
224.6854313842267
 30
0.0
  0
VERTEX
  5
2BA
  8
0
  6
________________
 62
     7
 10
422.9723285597777
 20
224.5302352357072
 30
0.0
  0
VERTEX
  5
2BB
  8
0
  6
________________
 62
     7
 10
423.0474668359805
 20
224.3758506504388
 30
0.0
  0
VERTEX
  5
2BC
  8
0
  6
________________
 62
     7
 10
423.1245149987706
 20
224.222295872007
 30
0.0
  0
VERTEX
  5
2BD
  8
0
  6
________________
 62
     7
 10
423.2034681389758
 20
224.0695891439975
 30
0.0
  0
VERTEX
  5
2BE
  8
0
  6
________________
 62
     7
 10
423.2843217991494
 20
223.9177494431631
 30
0.0
  0
VERTEX
  5
2BF
  8
0
  6
________________
 62
     7
 10
423.3670666448966
 20
223.7668139581724
 30
0.0
  0
VERTEX
  5
2C0
  8
0
  6
________________
 62
     7
 10
423.451671894367
 20
223.6168364587163
 30
0.0
  0
VERTEX
  5
2C1
  8
0
  6
________________
 62
     7
 10
423.5381036218182
 20
223.4678710100496
 30
0.0
  0
VERTEX
  5
2C2
  8
0
  6
________________
 62
     7
 10
423.6263279015076
 20
223.3199716774275
 30
0.0
  0
VERTEX
  5
2C3
  8
0
  6
________________
 62
     7
 10
423.7163108076927
 20
223.1731925261048
 30
0.0
  0
VERTEX
  5
2C4
  8
0
  6
________________
 62
     7
 10
423.808018414631
 20
223.0275876213366
 30
0.0
  0
VERTEX
  5
2C5
  8
0
  6
________________
 62
     7
 10
423.9014167965802
 20
222.8832110283777
 30
0.0
  0
VERTEX
  5
2C6
  8
0
  6
________________
 62
     7
 10
423.9964733618398
 20
222.7401141217239
 30
0.0
  0
VERTEX
  5
2C7
  8
0
  6
________________
 62
     7
 10
424.0931889040048
 20
222.5982811523122
 30
0.0
  0
VERTEX
  5
2C8
  8
0
  6
________________
 62
     7
 10
424.1915601927344
 20
222.4577050192668
 30
0.0
  0
VERTEX
  5
2C9
  8
0
  6
________________
 62
     7
 10
424.2915739246552
 20
222.3183990162038
 30
0.0
  0
VERTEX
  5
2CA
  8
0
  6
________________
 62
     7
 10
424.3932167963936
 20
222.1803764367398
 30
0.0
  0
VERTEX
  5
2CB
  8
0
  6
________________
 62
     7
 10
424.496475504576
 20
222.0436505744911
 30
0.0
  0
VERTEX
  5
2CC
  8
0
  6
________________
 62
     7
 10
424.6013367458289
 20
221.9082347230739
 30
0.0
  0
VERTEX
  5
2CD
  8
0
  6
________________
 62
     7
 10
424.7077872167786
 20
221.7741421761047
 30
0.0
  0
VERTEX
  5
2CE
  8
0
  6
________________
 62
     7
 10
424.8158136140516
 20
221.6413862271997
 30
0.0
  0
VERTEX
  5
2CF
  8
0
  6
________________
 62
     7
 10
424.9254026342746
 20
221.5099801699754
 30
0.0
  0
VERTEX
  5
2D0
  8
0
  6
________________
 62
     7
 10
425.0365409740737
 20
221.379937298048
 30
0.0
  0
VERTEX
  5
2D1
  8
0
  6
________________
 62
     7
 10
425.1492153300756
 20
221.251270905034
 30
0.0
  0
VERTEX
  5
2D2
  8
0
  6
________________
 62
     7
 10
425.2634123989066
 20
221.1239942845497
 30
0.0
  0
VERTEX
  5
2D3
  8
0
  6
________________
 62
     7
 10
425.3791188771932
 20
220.9981207302113
 30
0.0
  0
VERTEX
  5
2D4
  8
0
  6
________________
 62
     7
 10
425.4963214615618
 20
220.8736635356354
 30
0.0
  0
VERTEX
  5
2D5
  8
0
  6
________________
 62
     7
 10
425.6150068486388
 20
220.7506359944381
 30
0.0
  0
VERTEX
  5
2D6
  8
0
  6
________________
 62
     7
 10
425.7351617350508
 20
220.6290514002358
 30
0.0
  0
VERTEX
  5
2D7
  8
0
  6
________________
 62
     7
 10
425.8567729424104
 20
220.5089229226753
 30
0.0
  0
VERTEX
  5
2D8
  8
0
  6
________________
 62
     7
 10
425.9798272956752
 20
220.3902637336957
 30
0.0
  0
VERTEX
  5
2D9
  8
0
  6
________________
 62
     7
 10
426.1043114964886
 20
220.2730871303523
 30
0.0
  0
VERTEX
  5
2DA
  8
0
  6
________________
 62
     7
 10
426.2302122464941
 20
220.1574064097008
 30
0.0
  0
VERTEX
  5
2DB
  8
0
  6
________________
 62
     7
 10
426.3575162473354
 20
220.0432348687962
 30
0.0
  0
VERTEX
  5
2DC
  8
0
  6
________________
 62
     7
 10
426.4862102006558
 20
219.9305858046942
 30
0.0
  0
VERTEX
  5
2DD
  8
0
  6
________________
 62
     7
 10
426.616280808099
 20
219.8194725144499
 30
0.0
  0
VERTEX
  5
2DE
  8
0
  6
________________
 62
     7
 10
426.7477147713084
 20
219.7099082951188
 30
0.0
  0
VERTEX
  5
2DF
  8
0
  6
________________
 62
     7
 10
426.8804987919276
 20
219.6019064437563
 30
0.0
  0
VERTEX
  5
2E0
  8
0
  6
________________
 62
     7
 10
427.0146195716002
 20
219.4954802574178
 30
0.0
  0
VERTEX
  5
2E1
  8
0
  6
________________
 62
     7
 10
427.1500638119696
 20
219.3906430331585
 30
0.0
  0
VERTEX
  5
2E2
  8
0
  6
________________
 62
     7
 10
427.2868182146793
 20
219.287408068034
 30
0.0
  0
VERTEX
  5
2E3
  8
0
  6
________________
 62
     7
 10
427.4248694813729
 20
219.1857886590996
 30
0.0
  0
VERTEX
  5
2E4
  8
0
  6
________________
 62
     7
 10
427.564204313694
 20
219.0857981034105
 30
0.0
  0
VERTEX
  5
2E5
  8
0
  6
________________
 62
     7
 10
427.7048094132861
 20
218.9874496980223
 30
0.0
  0
VERTEX
  5
2E6
  8
0
  6
________________
 62
     7
 10
427.8466714817925
 20
218.8907567399903
 30
0.0
  0
VERTEX
  5
2E7
  8
0
  6
________________
 62
     7
 10
427.9897976200556
 20
218.7957224553409
 30
0.0
  0
VERTEX
  5
2E8
  8
0
  6
________________
 62
     7
 10
428.1342035806179
 20
218.7023460462044
 30
0.0
  0
VERTEX
  5
2E9
  8
0
  6
________________
 62
     7
 10
428.2798379783975
 20
218.6106600926507
 30
0.0
  0
VERTEX
  5
2EA
  8
0
  6
________________
 62
     7
 10
428.4266467369634
 20
218.5206985085105
 30
0.0
  0
VERTEX
  5
2EB
  8
0
  6
________________
 62
     7
 10
428.5745757798846
 20
218.4324952076147
 30
0.0
  0
VERTEX
  5
2EC
  8
0
  6
________________
 62
     7
 10
428.7235710307301
 20
218.3460841037945
 30
0.0
  0
VERTEX
  5
2ED
  8
0
  6
________________
 62
     7
 10
428.8735784130687
 20
218.2614991108806
 30
0.0
  0
VERTEX
  5
2EE
  8
0
  6
________________
 62
     7
 10
429.0245438504696
 20
218.178774142704
 30
0.0
  0
VERTEX
  5
2EF
  8
0
  6
________________
 62
     7
 10
429.1764135623302
 20
218.0979399698183
 30
0.0
  0
VERTEX
  5
2F0
  8
0
  6
________________
 62
     7
 10
429.3291503536684
 20
218.0190059200236
 30
0.0
  0
VERTEX
  5
2F1
  8
0
  6
________________
 62
     7
 10
429.4827352452323
 20
217.9419764457465
 30
0.0
  0
VERTEX
  5
2F2
  8
0
  6
________________
 62
     7
 10
429.6371499910479
 20
217.8668564510778
 30
0.0
  0
VERTEX
  5
2F3
  8
0
  6
________________
 62
     7
 10
429.7923763451412
 20
217.7936508401078
 30
0.0
  0
VERTEX
  5
2F4
  8
0
  6
________________
 62
     7
 10
429.9483960615384
 20
217.7223645169274
 30
0.0
  0
VERTEX
  5
2F5
  8
0
  6
________________
 62
     7
 10
430.1051908942655
 20
217.6530023856271
 30
0.0
  0
VERTEX
  5
2F6
  8
0
  6
________________
 62
     7
 10
430.2627425973487
 20
217.5855693502975
 30
0.0
  0
VERTEX
  5
2F7
  8
0
  6
________________
 62
     7
 10
430.4210329630724
 20
217.5200703003063
 30
0.0
  0
VERTEX
  5
2F8
  8
0
  6
________________
 62
     7
 10
430.5800440044397
 20
217.4565100359104
 30
0.0
  0
VERTEX
  5
2F9
  8
0
  6
________________
 62
     7
 10
430.7397575889357
 20
217.3948934068785
 30
0.0
  0
VERTEX
  5
2FA
  8
0
  6
________________
 62
     7
 10
430.9001555490568
 20
217.3352252759801
 30
0.0
  0
VERTEX
  5
2FB
  8
0
  6
________________
 62
     7
 10
431.061219717299
 20
217.2775105059852
 30
0.0
  0
VERTEX
  5
2FC
  8
0
  6
________________
 62
     7
 10
431.2229319261588
 20
217.2217539596636
 30
0.0
  0
VERTEX
  5
2FD
  8
0
  6
________________
 62
     7
 10
431.3852740081323
 20
217.1679604997851
 30
0.0
  0
VERTEX
  5
2FE
  8
0
  6
________________
 62
     7
 10
431.5482277957159
 20
217.1161349891195
 30
0.0
  0
VERTEX
  5
2FF
  8
0
  6
________________
 62
     7
 10
431.7117751214058
 20
217.0662822904366
 30
0.0
  0
VERTEX
  5
300
  8
0
  6
________________
 62
     7
 10
431.8758978176983
 20
217.0184072665063
 30
0.0
  0
VERTEX
  5
301
  8
0
  6
________________
 62
     7
 10
432.0405777170897
 20
216.9725147800984
 30
0.0
  0
VERTEX
  5
302
  8
0
  6
________________
 62
     7
 10
432.2057966520762
 20
216.9286096939826
 30
0.0
  0
VERTEX
  5
303
  8
0
  6
________________
 62
     7
 10
432.3715364551541
 20
216.8866968709288
 30
0.0
  0
VERTEX
  5
304
  8
0
  6
________________
 62
     7
 10
432.5377789588196
 20
216.8467811737069
 30
0.0
  0
VERTEX
  5
305
  8
0
  6
________________
 62
     7
 10
432.704505995569
 20
216.8088674650866
 30
0.0
  0
VERTEX
  5
306
  8
0
  6
________________
 62
     7
 10
432.8716993978987
 20
216.7729606078377
 30
0.0
  0
VERTEX
  5
307
  8
0
  6
________________
 62
     7
 10
433.0393409983049
 20
216.7390654647301
 30
0.0
  0
VERTEX
  5
308
  8
0
  6
________________
 62
     7
 10
433.2074126292836
 20
216.7071868985335
 30
0.0
  0
VERTEX
  5
309
  8
0
  6
________________
 62
     7
 10
433.3758961233315
 20
216.6773297720179
 30
0.0
  0
VERTEX
  5
30A
  8
0
  6
________________
 62
     7
 10
433.5447733129446
 20
216.649498947953
 30
0.0
  0
VERTEX
  5
30B
  8
0
  6
________________
 62
     7
 10
433.7140260306193
 20
216.6236992891085
 30
0.0
  0
VERTEX
  5
30C
  8
0
  6
________________
 62
     7
 10
433.8836361088517
 20
216.5999356582545
 30
0.0
  0
VERTEX
  5
30D
  8
0
  6
________________
 62
     7
 10
434.0535853801383
 20
216.5782129181606
 30
0.0
  0
VERTEX
  5
30E
  8
0
  6
________________
 62
     7
 10
434.2238556769751
 20
216.5585359315966
 30
0.0
  0
VERTEX
  5
30F
  8
0
  6
________________
 62
     7
 10
434.3944288318586
 20
216.5409095613325
 30
0.0
  0
VERTEX
  5
310
  8
0
  6
________________
 62
     7
 10
434.565286677285
 20
216.525338670138
 30
0.0
  0
VERTEX
  5
311
  8
0
  6
________________
 62
     7
 10
434.7364110457505
 20
216.5118281207828
 30
0.0
  0
VERTEX
  5
312
  8
0
  6
________________
 62
     7
 10
434.9077837697514
 20
216.500382776037
 30
0.0
  0
VERTEX
  5
313
  8
0
  6
________________
 62
     7
 10
435.079386681784
 20
216.4910074986701
 30
0.0
  0
VERTEX
  5
314
  8
0
  6
________________
 62
     7
 10
435.2512016143445
 20
216.4837071514522
 30
0.0
  0
VERTEX
  5
315
  8
0
  6
________________
 62
     7
 10
435.4232103999292
 20
216.4784865971529
 30
0.0
  0
VERTEX
  5
316
  8
0
  6
________________
 62
     7
 10
435.5953948710345
 20
216.4753506985422
 30
0.0
  0
VERTEX
  5
317
  8
0
  6
________________
 62
     7
 10
435.7677368601565
 20
216.4743043183897
 30
0.0
  0
VERTEX
  5
318
  8
0
  6
________________
 62
     7
 10
435.9400788492786
 20
216.4753506985421
 30
0.0
  0
VERTEX
  5
319
  8
0
  6
________________
 62
     7
 10
436.1122633203838
 20
216.4784865971529
 30
0.0
  0
VERTEX
  5
31A
  8
0
  6
________________
 62
     7
 10
436.2842721059686
 20
216.4837071514521
 30
0.0
  0
VERTEX
  5
31B
  8
0
  6
________________
 62
     7
 10
436.4560870385291
 20
216.4910074986701
 30
0.0
  0
VERTEX
  5
31C
  8
0
  6
________________
 62
     7
 10
436.6276899505617
 20
216.5003827760368
 30
0.0
  0
VERTEX
  5
31D
  8
0
  6
________________
 62
     7
 10
436.7990626745626
 20
216.5118281207827
 30
0.0
  0
VERTEX
  5
31E
  8
0
  6
________________
 62
     7
 10
436.9701870430281
 20
216.5253386701378
 30
0.0
  0
VERTEX
  5
31F
  8
0
  6
________________
 62
     7
 10
437.1410448884545
 20
216.5409095613323
 30
0.0
  0
VERTEX
  5
320
  8
0
  6
________________
 62
     7
 10
437.3116180433381
 20
216.5585359315965
 30
0.0
  0
VERTEX
  5
321
  8
0
  6
________________
 62
     7
 10
437.4818883401749
 20
216.5782129181604
 30
0.0
  0
VERTEX
  5
322
  8
0
  6
________________
 62
     7
 10
437.6518376114615
 20
216.5999356582543
 30
0.0
  0
VERTEX
  5
323
  8
0
  6
________________
 62
     7
 10
437.8214476896939
 20
216.6236992891083
 30
0.0
  0
VERTEX
  5
324
  8
0
  6
________________
 62
     7
 10
437.9907004073686
 20
216.6494989479527
 30
0.0
  0
VERTEX
  5
325
  8
0
  6
________________
 62
     7
 10
438.1595775969818
 20
216.6773297720176
 30
0.0
  0
VERTEX
  5
326
  8
0
  6
________________
 62
     7
 10
438.3280610910296
 20
216.7071868985332
 30
0.0
  0
VERTEX
  5
327
  8
0
  6
________________
 62
     7
 10
438.4961327220085
 20
216.7390654647297
 30
0.0
  0
VERTEX
  5
328
  8
0
  6
________________
 62
     7
 10
438.6637743224146
 20
216.7729606078373
 30
0.0
  0
VERTEX
  5
329
  8
0
  6
________________
 62
     7
 10
438.8309677247443
 20
216.8088674650861
 30
0.0
  0
VERTEX
  5
32A
  8
0
  6
________________
 62
     7
 10
438.9976947614938
 20
216.8467811737064
 30
0.0
  0
VERTEX
  5
32B
  8
0
  6
________________
 62
     7
 10
439.1639372651594
 20
216.8866968709284
 30
0.0
  0
VERTEX
  5
32C
  8
0
  6
________________
 62
     7
 10
439.3296770682372
 20
216.9286096939821
 30
0.0
  0
VERTEX
  5
32D
  8
0
  6
________________
 62
     7
 10
439.4948960032237
 20
216.9725147800978
 30
0.0
  0
VERTEX
  5
32E
  8
0
  6
________________
 62
     7
 10
439.6595759026151
 20
217.0184072665057
 30
0.0
  0
VERTEX
  5
32F
  8
0
  6
________________
 62
     7
 10
439.8236985989076
 20
217.066282290436
 30
0.0
  0
VERTEX
  5
330
  8
0
  6
________________
 62
     7
 10
439.9872459245976
 20
217.1161349891188
 30
0.0
  0
VERTEX
  5
331
  8
0
  6
________________
 62
     7
 10
440.1501997121812
 20
217.1679604997844
 30
0.0
  0
VERTEX
  5
332
  8
0
  6
________________
 62
     7
 10
440.3125417941548
 20
217.2217539596629
 30
0.0
  0
VERTEX
  5
333
  8
0
  6
________________
 62
     7
 10
440.4742540030146
 20
217.2775105059844
 30
0.0
  0
VERTEX
  5
334
  8
0
  6
________________
 62
     7
 10
440.6353181712568
 20
217.3352252759793
 30
0.0
  0
VERTEX
  5
335
  8
0
  6
________________
 62
     7
 10
440.7957161313778
 20
217.3948934068776
 30
0.0
  0
VERTEX
  5
336
  8
0
  6
________________
 62
     7
 10
440.9554297158739
 20
217.4565100359096
 30
0.0
  0
VERTEX
  5
337
  8
0
  6
________________
 62
     7
 10
441.1144407572413
 20
217.5200703003054
 30
0.0
  0
VERTEX
  5
338
  8
0
  6
________________
 62
     7
 10
441.272731122965
 20
217.5855693502966
 30
0.0
  0
VERTEX
  5
339
  8
0
  6
________________
 62
     7
 10
441.4302828260481
 20
217.6530023856261
 30
0.0
  0
VERTEX
  5
33A
  8
0
  6
________________
 62
     7
 10
441.5870776587753
 20
217.7223645169263
 30
0.0
  0
VERTEX
  5
33B
  8
0
  6
________________
 62
     7
 10
441.7430973751725
 20
217.7936508401067
 30
0.0
  0
VERTEX
  5
33C
  8
0
  6
________________
 62
     7
 10
441.8983237292657
 20
217.8668564510766
 30
0.0
  0
VERTEX
  5
33D
  8
0
  6
________________
 62
     7
 10
442.0527384750812
 20
217.9419764457454
 30
0.0
  0
VERTEX
  5
33E
  8
0
  6
________________
 62
     7
 10
442.2063233666451
 20
218.0190059200225
 30
0.0
  0
VERTEX
  5
33F
  8
0
  6
________________
 62
     7
 10
442.3590601579832
 20
218.0979399698171
 30
0.0
  0
VERTEX
  5
340
  8
0
  6
________________
 62
     7
 10
442.5109298698439
 20
218.1787741427028
 30
0.0
  0
VERTEX
  5
341
  8
0
  6
________________
 62
     7
 10
442.6618953072447
 20
218.2614991108794
 30
0.0
  0
VERTEX
  5
342
  8
0
  6
________________
 62
     7
 10
442.8119026895834
 20
218.3460841037932
 30
0.0
  0
VERTEX
  5
343
  8
0
  6
________________
 62
     7
 10
442.9608979404289
 20
218.4324952076135
 30
0.0
  0
VERTEX
  5
344
  8
0
  6
________________
 62
     7
 10
443.1088269833502
 20
218.5206985085091
 30
0.0
  0
VERTEX
  5
345
  8
0
  6
________________
 62
     7
 10
443.2556357419162
 20
218.6106600926493
 30
0.0
  0
VERTEX
  5
346
  8
0
  6
________________
 62
     7
 10
443.4012701396959
 20
218.7023460462031
 30
0.0
  0
VERTEX
  5
347
  8
0
  6
________________
 62
     7
 10
443.5456761002582
 20
218.7957224553395
 30
0.0
  0
VERTEX
  5
348
  8
0
  6
________________
 62
     7
 10
443.6888022385214
 20
218.8907567399889
 30
0.0
  0
VERTEX
  5
349
  8
0
  6
________________
 62
     7
 10
443.8306643070279
 20
218.9874496980209
 30
0.0
  0
VERTEX
  5
34A
  8
0
  6
________________
 62
     7
 10
443.97126940662
 20
219.0857981034091
 30
0.0
  0
VERTEX
  5
34B
  8
0
  6
________________
 62
     7
 10
444.1106042389411
 20
219.1857886590981
 30
0.0
  0
VERTEX
  5
34C
  8
0
  6
________________
 62
     7
 10
444.2486555056348
 20
219.2874080680326
 30
0.0
  0
VERTEX
  5
34D
  8
0
  6
________________
 62
     7
 10
444.3854099083445
 20
219.3906430331571
 30
0.0
  0
VERTEX
  5
34E
  8
0
  6
________________
 62
     7
 10
444.5208541487139
 20
219.4954802574163
 30
0.0
  0
VERTEX
  5
34F
  8
0
  6
________________
 62
     7
 10
444.6549749283864
 20
219.6019064437548
 30
0.0
  0
VERTEX
  5
350
  8
0
  6
________________
 62
     7
 10
444.7877589490056
 20
219.7099082951173
 30
0.0
  0
VERTEX
  5
351
  8
0
  6
________________
 62
     7
 10
444.9191929122151
 20
219.8194725144483
 30
0.0
  0
VERTEX
  5
352
  8
0
  6
________________
 62
     7
 10
445.0492635196583
 20
219.9305858046925
 30
0.0
  0
VERTEX
  5
353
  8
0
  6
________________
 62
     7
 10
445.1779574729787
 20
220.0432348687946
 30
0.0
  0
VERTEX
  5
354
  8
0
  6
________________
 62
     7
 10
445.3052614738199
 20
220.1574064096991
 30
0.0
  0
VERTEX
  5
355
  8
0
  6
________________
 62
     7
 10
445.4311622238255
 20
220.2730871303506
 30
0.0
  0
VERTEX
  5
356
  8
0
  6
________________
 62
     7
 10
445.5556464246388
 20
220.3902637336939
 30
0.0
  0
VERTEX
  5
357
  8
0
  6
________________
 62
     7
 10
445.6787007779036
 20
220.5089229226735
 30
0.0
  0
VERTEX
  5
358
  8
0
  6
________________
 62
     7
 10
445.8003119852633
 20
220.629051400234
 30
0.0
  0
VERTEX
  5
359
  8
0
  6
________________
 62
     7
 10
445.9204668716752
 20
220.7506359944362
 30
0.0
  0
VERTEX
  5
35A
  8
0
  6
________________
 62
     7
 10
446.0391522587523
 20
220.8736635356335
 30
0.0
  0
VERTEX
  5
35B
  8
0
  6
________________
 62
     7
 10
446.1563548431209
 20
220.9981207302095
 30
0.0
  0
VERTEX
  5
35C
  8
0
  6
________________
 62
     7
 10
446.2720613214075
 20
221.1239942845478
 30
0.0
  0
VERTEX
  5
35D
  8
0
  6
________________
 62
     7
 10
446.3862583902385
 20
221.2512709050321
 30
0.0
  0
VERTEX
  5
35E
  8
0
  6
________________
 62
     7
 10
446.4989327462404
 20
221.3799372980461
 30
0.0
  0
VERTEX
  5
35F
  8
0
  6
________________
 62
     7
 10
446.6100710860396
 20
221.5099801699734
 30
0.0
  0
VERTEX
  5
360
  8
0
  6
________________
 62
     7
 10
446.7196601062625
 20
221.6413862271977
 30
0.0
  0
VERTEX
  5
361
  8
0
  6
________________
 62
     7
 10
446.8276865035356
 20
221.7741421761027
 30
0.0
  0
VERTEX
  5
362
  8
0
  6
________________
 62
     7
 10
446.9341369744854
 20
221.9082347230719
 30
0.0
  0
VERTEX
  5
363
  8
0
  6
________________
 62
     7
 10
447.0389982157382
 20
222.043650574489
 30
0.0
  0
VERTEX
  5
364
  8
0
  6
________________
 62
     7
 10
447.1422569239206
 20
222.1803764367378
 30
0.0
  0
VERTEX
  5
365
  8
0
  6
________________
 62
     7
 10
447.243899795659
 20
222.3183990162018
 30
0.0
  0
VERTEX
  5
366
  8
0
  6
________________
 62
     7
 10
447.3439135275798
 20
222.4577050192647
 30
0.0
  0
VERTEX
  5
367
  8
0
  6
________________
 62
     7
 10
447.4422848163096
 20
222.5982811523101
 30
0.0
  0
VERTEX
  5
368
  8
0
  6
________________
 62
     7
 10
447.5390003584745
 20
222.7401141217218
 30
0.0
  0
VERTEX
  5
369
  8
0
  6
________________
 62
     7
 10
447.6340569237342
 20
222.8832110283755
 30
0.0
  0
VERTEX
  5
36A
  8
0
  6
________________
 62
     7
 10
447.7274553056833
 20
223.0275876213344
 30
0.0
  0
VERTEX
  5
36B
  8
0
  6
________________
 62
     7
 10
447.8191629126217
 20
223.1731925261026
 30
0.0
  0
VERTEX
  5
36C
  8
0
  6
________________
 62
     7
 10
447.9091458188068
 20
223.3199716774253
 30
0.0
  0
VERTEX
  5
36D
  8
0
  6
________________
 62
     7
 10
447.9973700984962
 20
223.4678710100474
 30
0.0
  0
VERTEX
  5
36E
  8
0
  6
________________
 62
     7
 10
448.0838018259474
 20
223.6168364587141
 30
0.0
  0
VERTEX
  5
36F
  8
0
  6
________________
 62
     7
 10
448.1684070754177
 20
223.7668139581702
 30
0.0
  0
VERTEX
  5
370
  8
0
  6
________________
 62
     7
 10
448.251151921165
 20
223.9177494431609
 30
0.0
  0
VERTEX
  5
371
  8
0
  6
________________
 62
     7
 10
448.3320055813386
 20
224.0695891439952
 30
0.0
  0
VERTEX
  5
372
  8
0
  6
________________
 62
     7
 10
448.4109587215439
 20
224.2222958720048
 30
0.0
  0
VERTEX
  5
373
  8
0
  6
________________
 62
     7
 10
448.488006884334
 20
224.3758506504365
 30
0.0
  0
VERTEX
  5
374
  8
0
  6
________________
 62
     7
 10
448.5631451605369
 20
224.530235235705
 30
0.0
  0
VERTEX
  5
375
  8
0
  6
________________
 62
     7
 10
448.6363686409804
 20
224.6854313842244
 30
0.0
  0
VERTEX
  5
376
  8
0
  6
________________
 62
     7
 10
448.7076724164925
 20
224.8414208524093
 30
0.0
  0
VERTEX
  5
377
  8
0
  6
________________
 62
     7
 10
448.7770515779011
 20
224.9981853966738
 30
0.0
  0
VERTEX
  5
378
  8
0
  6
________________
 62
     7
 10
448.8445012160342
 20
225.1557067734325
 30
0.0
  0
VERTEX
  5
379
  8
0
  6
________________
 62
     7
 10
448.9100164353845
 20
225.3139667782273
 30
0.0
  0
VERTEX
  5
37A
  8
0
  6
________________
 62
     7
 10
448.9735924249264
 20
225.4729474308587
 30
0.0
  0
VERTEX
  5
37B
  8
0
  6
________________
 62
     7
 10
449.0352243304446
 20
225.63263060001
 30
0.0
  0
VERTEX
  5
37C
  8
0
  6
________________
 62
     7
 10
449.094907285854
 20
225.7929981184172
 30
0.0
  0
VERTEX
  5
37D
  8
0
  6
________________
 62
     7
 10
449.1526364250699
 20
225.9540318188162
 30
0.0
  0
VERTEX
  5
37E
  8
0
  6
________________
 62
     7
 10
449.2084068820074
 20
226.1157135339428
 30
0.0
  0
VERTEX
  5
37F
  8
0
  6
________________
 62
     7
 10
449.2622137905814
 20
226.278025096533
 30
0.0
  0
VERTEX
  5
380
  8
0
  6
________________
 62
     7
 10
449.3140522847069
 20
226.4409483393225
 30
0.0
  0
VERTEX
  5
381
  8
0
  6
________________
 62
     7
 10
449.3639174982992
 20
226.6044650950473
 30
0.0
  0
VERTEX
  5
382
  8
0
  6
________________
 62
     7
 10
449.4118045652732
 20
226.7685571964433
 30
0.0
  0
VERTEX
  5
383
  8
0
  6
________________
 62
     7
 10
449.457708619544
 20
226.9332064762464
 30
0.0
  0
VERTEX
  5
384
  8
0
  6
________________
 62
     7
 10
449.5016247950268
 20
227.0983947671924
 30
0.0
  0
VERTEX
  5
385
  8
0
  6
________________
 62
     7
 10
449.5435482256365
 20
227.2641039020172
 30
0.0
  0
VERTEX
  5
386
  8
0
  6
________________
 62
     7
 10
449.5834740452883
 20
227.4303157134568
 30
0.0
  0
VERTEX
  5
387
  8
0
  6
________________
 62
     7
 10
449.6213973878972
 20
227.5970120342469
 30
0.0
  0
VERTEX
  5
388
  8
0
  6
________________
 62
     7
 10
449.6573133873782
 20
227.7641746971235
 30
0.0
  0
VERTEX
  5
389
  8
0
  6
________________
 62
     7
 10
449.6912171776465
 20
227.9317855348224
 30
0.0
  0
VERTEX
  5
38A
  8
0
  6
________________
 62
     7
 10
449.7231038926172
 20
228.0998263800795
 30
0.0
  0
VERTEX
  5
38B
  8
0
  6
________________
 62
     7
 10
449.7529686662053
 20
228.2682790656308
 30
0.0
  0
VERTEX
  5
38C
  8
0
  6
________________
 62
     7
 10
449.7808066323258
 20
228.4371254242121
 30
0.0
  0
VERTEX
  5
38D
  8
0
  6
________________
 62
     7
 10
449.8066129248938
 20
228.6063472885593
 30
0.0
  0
VERTEX
  5
38E
  8
0
  6
________________
 62
     7
 10
449.8303826778245
 20
228.7759264914082
 30
0.0
  0
VERTEX
  5
38F
  8
0
  6
________________
 62
     7
 10
449.8521110250329
 20
228.9458448654948
 30
0.0
  0
VERTEX
  5
390
  8
0
  6
________________
 62
     7
 10
449.871793100434
 20
229.1160842435549
 30
0.0
  0
VERTEX
  5
391
  8
0
  6
________________
 62
     7
 10
449.8894240379429
 20
229.2866264583245
 30
0.0
  0
VERTEX
  5
392
  8
0
  6
________________
 62
     7
 10
449.9049989714748
 20
229.4574533425393
 30
0.0
  0
VERTEX
  5
393
  8
0
  6
________________
 62
     7
 10
449.9185130349446
 20
229.6285467289353
 30
0.0
  0
VERTEX
  5
394
  8
0
  6
________________
 62
     7
 10
449.9299613622675
 20
229.7998884502483
 30
0.0
  0
VERTEX
  5
395
  8
0
  6
________________
 62
     7
 10
449.9393390873584
 20
229.9714603392143
 30
0.0
  0
VERTEX
  5
396
  8
0
  6
________________
 62
     7
 10
449.9466413441326
 20
230.1432442285692
 30
0.0
  0
VERTEX
  5
397
  8
0
  6
________________
 62
     7
 10
449.951863266505
 20
230.3152219510487
 30
0.0
  0
VERTEX
  5
398
  8
0
  6
________________
 62
     7
 10
449.9549999883907
 20
230.4873753393888
 30
0.0
  0
SEQEND
  5
399
  8
0
  6
________________
 62
     7
  0
TEXT
  5
125
  8
0
 62
     7
 10
405.7991050583356
 20
143.4713437134058
 30
0.0
 40
3.0
  1
DPTS-20
  7
EXPLODED0
  0
LINE
  5
126
  8
0
  6
________________0
 62
     1
 10
450.9139875191638
 20
230.6554984784121
 30
0.0
 11
420.6214862011519
 21
230.6554984784118
 31
0.0
  0
LINE
  5
128
  8
0
  6
________________0
 62
     1
 10
435.7677368601576
 20
264.2707266234898
 30
0.0
 11
435.7677368601581
 21
195.910918399159
 31
0.0
  0
LINE
  5
129
  8
0
  6
________________0
 62
     1
 10
326.3067351958319
 20
135.6091936800655
 30
0.0
 11
375.5348566758128
 21
135.6091936800655
 31
0.0
  0
LINE
  5
12A
  8
0
  6
________________0
 62
     1
 10
341.4529858548378
 20
120.4629430210596
 30
0.0
 11
341.4529858548378
 21
150.7554443390715
 31
0.0
  0
LINE
  5
12B
  8
0
  6
________________0
 62
     1
 10
374.9852867844594
 20
230.7024015739957
 30
0.0
 11
341.4529858548378
 21
230.0
 31
0.0
  0
LINE
  5
12C
  8
0
  6
________________0
 62
     1
 10
341.4529858548378
 20
265.0
 30
0.0
 11
341.4529858548378
 21
195.0
 31
0.0
  0
ENDSEC
  0
EOF
