  0
SECTION
  2
HEADER
  9
$ACADVER
  1
AC1014
  9
$ACADMAINTVER
 70
     9
  9
$DWGCODEPAGE
  3
ANSI_932
  9
$INSBASE
 10
0.0
 20
0.0
 30
0.0
  9
$EXTMIN
 10
534.0
 20
124.7125109416031
 30
0.0
  9
$EXTMAX
 10
825.9999999999998
 20
198.5
 30
0.0
  9
$LIMMIN
 10
0.0
 20
0.0
  9
$LIMMAX
 10
12.0
 20
9.0
  9
$ORTHOMODE
 70
     0
  9
$REGENMODE
 70
     1
  9
$FILLMODE
 70
     1
  9
$QTEXTMODE
 70
     0
  9
$MIRRTEXT
 70
     1
  9
$DRAGMODE
 70
     2
  9
$LTSCALE
 40
1.0
  9
$OSMODE
 70
    37
  9
$ATTMODE
 70
     1
  9
$TEXTSIZE
 40
0.2
  9
$TRACEWID
 40
0.05
  9
$TEXTSTYLE
  7
STANDARD
  9
$CLAYER
  8
0
  9
$CELTYPE
  6
BYLAYER
  9
$CECOLOR
 62
   256
  9
$CELTSCALE
 40
1.0
  9
$DELOBJ
 70
     1
  9
$DISPSILH
 70
     0
  9
$DIMSCALE
 40
1.0
  9
$DIMASZ
 40
3.0
  9
$DIMEXO
 40
0.0625
  9
$DIMDLI
 40
0.38
  9
$DIMRND
 40
0.0
  9
$DIMDLE
 40
0.0
  9
$DIMEXE
 40
1.5
  9
$DIMTP
 40
0.0
  9
$DIMTM
 40
0.0
  9
$DIMTXT
 40
3.0
  9
$DIMCEN
 40
0.09
  9
$DIMTSZ
 40
0.0
  9
$DIMTOL
 70
     0
  9
$DIMLIM
 70
     0
  9
$DIMTIH
 70
     1
  9
$DIMTOH
 70
     1
  9
$DIMSE1
 70
     0
  9
$DIMSE2
 70
     0
  9
$DIMTAD
 70
     1
  9
$DIMZIN
 70
     0
  9
$DIMBLK
  1

  9
$DIMASO
 70
     1
  9
$DIMSHO
 70
     1
  9
$DIMPOST
  1

  9
$DIMAPOST
  1

  9
$DIMALT
 70
     0
  9
$DIMALTD
 70
     2
  9
$DIMALTF
 40
25.4
  9
$DIMLFAC
 40
1.0
  9
$DIMTOFL
 70
     0
  9
$DIMTVP
 40
0.0
  9
$DIMTIX
 70
     0
  9
$DIMSOXD
 70
     0
  9
$DIMSAH
 70
     0
  9
$DIMBLK1
  1

  9
$DIMBLK2
  1

  9
$DIMSTYLE
  2
STANDARD
  9
$DIMCLRD
 70
     0
  9
$DIMCLRE
 70
     0
  9
$DIMCLRT
 70
     0
  9
$DIMTFAC
 40
1.0
  9
$DIMGAP
 40
1.5
  9
$DIMJUST
 70
     0
  9
$DIMSD1
 70
     0
  9
$DIMSD2
 70
     0
  9
$DIMTOLJ
 70
     1
  9
$DIMTZIN
 70
     0
  9
$DIMALTZ
 70
     0
  9
$DIMALTTZ
 70
     0
  9
$DIMFIT
 70
     3
  9
$DIMUPT
 70
     0
  9
$DIMUNIT
 70
     2
  9
$DIMDEC
 70
     2
  9
$DIMTDEC
 70
     4
  9
$DIMALTU
 70
     2
  9
$DIMALTTD
 70
     2
  9
$DIMTXSTY
  7
ＭＳ_ゴシック
  9
$DIMAUNIT
 70
     0
  9
$LUNITS
 70
     2
  9
$LUPREC
 70
     4
  9
$SKETCHINC
 40
0.1
  9
$FILLETRAD
 40
0.5
  9
$AUNITS
 70
     0
  9
$AUPREC
 70
     0
  9
$MENU
  1
.
  9
$ELEVATION
 40
0.0
  9
$PELEVATION
 40
0.0
  9
$THICKNESS
 40
0.0
  9
$LIMCHECK
 70
     0
  9
$CHAMFERA
 40
0.0
  9
$CHAMFERB
 40
0.0
  9
$CHAMFERC
 40
0.0
  9
$CHAMFERD
 40
0.0
  9
$SKPOLY
 70
     0
  9
$TDCREATE
 40
2459310.450761887
  9
$TDUPDATE
 40
2459310.450762245
  9
$TDINDWG
 40
0.0000000116
  9
$TDUSRTIMER
 40
0.0000000116
  9
$USRTIMER
 70
     1
  9
$ANGBASE
 50
0.0
  9
$ANGDIR
 70
     0
  9
$PDMODE
 70
     0
  9
$PDSIZE
 40
0.0
  9
$PLINEWID
 40
0.0
  9
$COORDS
 70
     1
  9
$SPLFRAME
 70
     0
  9
$SPLINETYPE
 70
     6
  9
$SPLINESEGS
 70
     8
  9
$ATTDIA
 70
     0
  9
$ATTREQ
 70
     1
  9
$HANDLING
 70
     1
  9
$HANDSEED
  5
3E9
  9
$SURFTAB1
 70
     6
  9
$SURFTAB2
 70
     6
  9
$SURFTYPE
 70
     6
  9
$SURFU
 70
     6
  9
$SURFV
 70
     6
  9
$UCSNAME
  2

  9
$UCSORG
 10
0.0
 20
0.0
 30
0.0
  9
$UCSXDIR
 10
1.0
 20
0.0
 30
0.0
  9
$UCSYDIR
 10
0.0
 20
1.0
 30
0.0
  9
$PUCSNAME
  2

  9
$PUCSORG
 10
0.0
 20
0.0
 30
0.0
  9
$PUCSXDIR
 10
1.0
 20
0.0
 30
0.0
  9
$PUCSYDIR
 10
0.0
 20
1.0
 30
0.0
  9
$USERI1
 70
     0
  9
$USERI2
 70
     0
  9
$USERI3
 70
     0
  9
$USERI4
 70
     0
  9
$USERI5
 70
     0
  9
$USERR1
 40
0.0
  9
$USERR2
 40
0.0
  9
$USERR3
 40
0.0
  9
$USERR4
 40
0.0
  9
$USERR5
 40
0.0
  9
$WORLDVIEW
 70
     1
  9
$SHADEDGE
 70
     3
  9
$SHADEDIF
 70
    70
  9
$TILEMODE
 70
     1
  9
$MAXACTVP
 70
    64
  9
$PINSBASE
 10
0.0
 20
0.0
 30
0.0
  9
$PLIMCHECK
 70
     0
  9
$PEXTMIN
 10
1.000000000000000E+20
 20
1.000000000000000E+20
 30
1.000000000000000E+20
  9
$PEXTMAX
 10
-1.000000000000000E+20
 20
-1.000000000000000E+20
 30
-1.000000000000000E+20
  9
$PLIMMIN
 10
0.0
 20
0.0
  9
$PLIMMAX
 10
12.0
 20
9.0
  9
$UNITMODE
 70
     0
  9
$VISRETAIN
 70
     1
  9
$PLINEGEN
 70
     0
  9
$PSLTSCALE
 70
     1
  9
$TREEDEPTH
 70
  3020
  9
$PICKSTYLE
 70
     1
  9
$CMLSTYLE
  2
STANDARD
  9
$CMLJUST
 70
     0
  9
$CMLSCALE
 40
1.0
  9
$PROXYGRAPHICS
 70
     1
  9
$MEASUREMENT
 70
     1
  0
ENDSEC
  0
SECTION
  2
CLASSES
  0
CLASS
  1
ACDBDICTIONARYWDFLT
  2
AcDbDictionaryWithDefault
  3
ObjectDBX Classes
 90
        0
280
     0
281
     0
  0
CLASS
  1
VISUALSTYLE
  2
AcDbVisualStyle
  3
ObjectDBX Classes
 90
     4095
280
     0
281
     0
  0
CLASS
  1
MATERIAL
  2
AcDbMaterial
  3
ObjectDBX Classes
 90
     1153
280
     0
281
     0
  0
CLASS
  1
SCALE
  2
AcDbScale
  3
ObjectDBX Classes
 90
     1153
280
     0
281
     0
  0
CLASS
  1
TABLESTYLE
  2
AcDbTableStyle
  3
ObjectDBX Classes
 90
     4095
280
     0
281
     0
  0
CLASS
  1
MLEADERSTYLE
  2
AcDbMLeaderStyle
  3
ACDB_MLEADERSTYLE_CLASS
 90
     4095
280
     0
281
     0
  0
CLASS
  1
SUN
  2
AcDbSun
  3
SCENEOE
 90
     1153
280
     0
281
     0
  0
CLASS
  1
DICTIONARYVAR
  2
AcDbDictionaryVar
  3
ObjectDBX Classes
 90
        0
280
     0
281
     0
  0
CLASS
  1
XRECORD
  2
AcDbXrecord
  3
ObjectDBX Classes
 90
        0
280
     0
281
     0
  0
CLASS
  1
LWPOLYLINE
  2
AcDbPolyline
  3
ObjectDBX Classes
 90
        0
280
     0
281
     1
  0
CLASS
  1
HATCH
  2
AcDbHatch
  3
ObjectDBX Classes
 90
        0
280
     0
281
     1
  0
CLASS
  1
ACDBPLACEHOLDER
  2
AcDbPlaceHolder
  3
ObjectDBX Classes
 90
        0
280
     0
281
     0
  0
CLASS
  1
LAYOUT
  2
AcDbLayout
  3
ObjectDBX Classes
 90
        0
280
     0
281
     0
  0
ENDSEC
  0
SECTION
  2
TABLES
  0
TABLE
  2
VPORT
  5
8
102
{ACAD_XDICTIONARY
360
3DE
102
}
330
0
100
AcDbSymbolTable
 70
     1
  0
VPORT
  5
29
330
8
100
AcDbSymbolTableRecord
100
AcDbViewportTableRecord
  2
*ACTIVE
 70
     0
 10
0.0
 20
0.0
 11
1.0
 21
1.0
 12
679.9999999999999
 22
161.6062554708015
 13
0.0
 23
0.0
 14
0.5
 24
0.5
 15
0.5
 25
0.5
 16
0.0
 26
0.0
 36
1.0
 17
0.0
 27
0.0
 37
0.0
 40
73.78748905839687
 41
1.6
 42
50.0
 43
0.0
 44
0.0
 50
0.0
 51
0.0
 71
     0
 72
   100
 73
     1
 74
     3
 75
     0
 76
     0
 77
     0
 78
     0
  0
ENDTAB
  0
TABLE
  2
LTYPE
  5
5
330
0
100
AcDbSymbolTable
 70
     1
  0
LTYPE
  5
14
330
5
100
AcDbSymbolTableRecord
100
AcDbLinetypeTableRecord
  2
BYBLOCK
 70
     0
  3

 72
    65
 73
     0
 40
0.0
  0
LTYPE
  5
15
330
5
100
AcDbSymbolTableRecord
100
AcDbLinetypeTableRecord
  2
BYLAYER
 70
     0
  3

 72
    65
 73
     0
 40
0.0
  0
LTYPE
  5
16
330
5
100
AcDbSymbolTableRecord
100
AcDbLinetypeTableRecord
  2
CONTINUOUS
 70
     0
  3
Solid line
 72
    65
 73
     0
 40
0.0
  0
ENDTAB
  0
TABLE
  2
LAYER
  5
2
330
0
100
AcDbSymbolTable
 70
     1
  0
LAYER
  5
10
330
2
100
AcDbSymbolTableRecord
100
AcDbLayerTableRecord
  2
0
 70
     0
 62
     7
  6
CONTINUOUS
  0
ENDTAB
  0
TABLE
  2
STYLE
  5
3
330
0
100
AcDbSymbolTable
 70
     2
  0
STYLE
  5
11
330
3
100
AcDbSymbolTableRecord
100
AcDbTextStyleTableRecord
  2
STANDARD
 70
     0
 40
0.0
 41
1.0
 50
0.0
 71
     0
 42
0.2
  3
txt
  4

  0
STYLE
  5
6E
330
3
100
AcDbSymbolTableRecord
100
AcDbTextStyleTableRecord
  2
ＭＳ_ゴシック
 70
     0
 40
0.0
 41
1.0
 50
0.0
 71
     0
 42
0.2
  3
ＭＳ ゴシック.shx
  4

  0
ENDTAB
  0
TABLE
  2
VIEW
  5
6
330
0
100
AcDbSymbolTable
 70
     0
  0
ENDTAB
  0
TABLE
  2
UCS
  5
7
330
0
100
AcDbSymbolTable
 70
     0
  0
ENDTAB
  0
TABLE
  2
APPID
  5
9
330
0
100
AcDbSymbolTable
 70
     2
  0
APPID
  5
12
330
9
100
AcDbSymbolTableRecord
100
AcDbRegAppTableRecord
  2
ACAD
 70
     0
  0
APPID
  5
3E8
330
9
100
AcDbSymbolTableRecord
100
AcDbRegAppTableRecord
  2
ACAD_MLEADERVER
 70
     0
  0
ENDTAB
  0
TABLE
  2
DIMSTYLE
  5
A
330
0
100
AcDbSymbolTable
 70
     1
  0
DIMSTYLE
105
27
330
A
100
AcDbSymbolTableRecord
100
AcDbDimStyleTableRecord
  2
STANDARD
 70
     0
  3

  4

  5

  6

  7

 40
1.0
 41
0.18
 42
0.0625
 43
0.38
 44
0.18
 45
0.0
 46
0.0
 47
0.0
 48
0.0
140
0.18
141
0.09
142
0.0
143
25.4
144
1.0
145
0.0
146
1.0
147
0.09
 71
     0
 72
     0
 73
     1
 74
     1
 75
     0
 76
     0
 77
     0
 78
     0
170
     0
171
     2
172
     0
173
     0
174
     0
175
     0
176
     0
177
     0
178
     0
270
     2
271
     4
272
     4
273
     2
274
     2
340
11
275
     0
280
     0
281
     0
282
     0
283
     1
284
     0
285
     0
286
     0
287
     3
288
     0
  0
ENDTAB
  0
TABLE
  2
BLOCK_RECORD
  5
1
330
0
100
AcDbSymbolTable
 70
     0
  0
BLOCK_RECORD
  5
1F
330
1
100
AcDbSymbolTableRecord
100
AcDbBlockTableRecord
  2
*MODEL_SPACE
  0
BLOCK_RECORD
  5
1B
330
1
100
AcDbSymbolTableRecord
100
AcDbBlockTableRecord
  2
*PAPER_SPACE
  0
ENDTAB
  0
ENDSEC
  0
SECTION
  2
BLOCKS
  0
BLOCK
  5
20
330
1F
100
AcDbEntity
  8
0
100
AcDbBlockBegin
  2
*MODEL_SPACE
 70
     0
 10
0.0
 20
0.0
 30
0.0
  3
*MODEL_SPACE
  1

  0
ENDBLK
  5
21
330
1F
100
AcDbEntity
  8
0
100
AcDbBlockEnd
  0
BLOCK
  5
1C
330
1B
100
AcDbEntity
 67
     1
  8
0
100
AcDbBlockBegin
  2
*PAPER_SPACE
 70
     0
 10
0.0
 20
0.0
 30
0.0
  3
*PAPER_SPACE
  1

  0
ENDBLK
  5
1D
330
1B
100
AcDbEntity
 67
     1
  8
0
100
AcDbBlockEnd
  0
ENDSEC
  0
SECTION
  2
ENTITIES
  0
MTEXT
  5
6F
330
1F
100
AcDbEntity
  8
0
 62
     4
100
AcDbMText
 10
667.7110166312367
 20
127.371601850694
 30
0.0
 40
3.0
 41
0.0
 71
     1
 72
     1
  1
{\fＭＳ ゴシック;FEEP-30DDB}
  0
LINE
  5
70
330
1F
100
AcDbEntity
  8
0
  6
CONTINUOUS
 62
   253
100
AcDbLine
 10
735.5000000000165
 20
195.45
 30
0.0
 11
735.5000000000165
 21
193.45
 31
0.0
  0
LINE
  5
71
330
1F
100
AcDbEntity
  8
0
  6
CONTINUOUS
 62
     7
100
AcDbLine
 10
735.5000000000165
 20
193.45
 30
0.0
 11
734.5000000000165
 21
193.45
 31
0.0
  0
LINE
  5
72
330
1F
100
AcDbEntity
  8
0
  6
CONTINUOUS
 62
   253
100
AcDbLine
 10
734.5000000000166
 20
193.45
 30
0.0
 11
734.5000000000166
 21
195.45
 31
0.0
  0
LINE
  5
73
330
1F
100
AcDbEntity
  8
0
  6
CONTINUOUS
 62
     7
100
AcDbLine
 10
734.5000000000166
 20
195.45
 30
0.0
 11
735.5000000000166
 21
195.45
 31
0.0
  0
LINE
  5
74
330
1F
100
AcDbEntity
  8
0
  6
CONTINUOUS
 62
   253
100
AcDbLine
 10
739.0000000000165
 20
193.45
 30
0.0
 11
739.0000000000165
 21
195.45
 31
0.0
  0
LINE
  5
75
330
1F
100
AcDbEntity
  8
0
  6
CONTINUOUS
 62
     7
100
AcDbLine
 10
739.0000000000165
 20
195.45
 30
0.0
 11
735.5000000000166
 21
195.45
 31
0.0
  0
LINE
  5
76
330
1F
100
AcDbEntity
  8
0
  6
CONTINUOUS
 62
     7
100
AcDbLine
 10
739.0000000000165
 20
193.45
 30
0.0
 11
735.5000000000166
 21
193.45
 31
0.0
  0
LINE
  5
77
330
1F
100
AcDbEntity
  8
0
  6
CONTINUOUS
 62
   253
100
AcDbLine
 10
731.0000000000165
 20
195.45
 30
0.0
 11
731.0000000000165
 21
193.45
 31
0.0
  0
LINE
  5
78
330
1F
100
AcDbEntity
  8
0
  6
CONTINUOUS
 62
     7
100
AcDbLine
 10
734.5000000000166
 20
195.45
 30
0.0
 11
731.0000000000165
 21
195.45
 31
0.0
  0
LINE
  5
79
330
1F
100
AcDbEntity
  8
0
  6
CONTINUOUS
 62
     7
100
AcDbLine
 10
734.5000000000166
 20
193.45
 30
0.0
 11
731.0000000000165
 21
193.45
 31
0.0
  0
LINE
  5
7A
330
1F
100
AcDbEntity
  8
0
  6
CONTINUOUS
 62
     7
100
AcDbLine
 10
734.4000000000163
 20
195.95
 30
0.0
 11
734.4000000000163
 21
197.3903344967256
 31
0.0
  0
LINE
  5
7B
330
1F
100
AcDbEntity
  8
0
  6
CONTINUOUS
 62
     7
100
AcDbLine
 10
735.6000000000164
 20
195.95
 30
0.0
 11
734.4000000000163
 21
195.95
 31
0.0
  0
LINE
  5
7C
330
1F
100
AcDbEntity
  8
0
  6
CONTINUOUS
 62
     7
100
AcDbLine
 10
735.6000000000164
 20
197.3903344967257
 30
0.0
 11
735.6000000000164
 21
195.95
 31
0.0
  0
ARC
  5
7D
330
1F
100
AcDbEntity
  8
0
  6
CONTINUOUS
 62
     7
100
AcDbCircle
 10
735.1203075163293
 20
192.2961938255911
 30
0.0
 40
5.116676074974125
100
AcDbArc
 50
68.44674096793631
 51
84.62057487594394
  0
LINE
  5
7E
330
1F
100
AcDbEntity
  8
0
  6
CONTINUOUS
 62
     7
100
AcDbLine
 10
737.0000000000165
 20
197.0550939320215
 30
0.0
 11
737.0000000000165
 21
197.0913036132688
 31
0.0
  0
LINE
  5
7F
330
1F
100
AcDbEntity
  8
0
  6
CONTINUOUS
 62
     7
100
AcDbLine
 10
733.0000000000165
 20
197.0550939320215
 30
0.0
 11
733.0000000000165
 21
197.0913036132688
 31
0.0
  0
ARC
  5
80
330
1F
100
AcDbEntity
  8
0
  6
CONTINUOUS
 62
     7
100
AcDbCircle
 10
734.8782707387129
 20
192.3021311828102
 30
0.0
 40
5.110631650122599
100
AcDbArc
 50
95.36979646126416
 51
111.5628876948541
  0
LINE
  5
81
330
1F
100
AcDbEntity
  8
0
  6
CONTINUOUS
 62
   253
100
AcDbLine
 10
737.8618033988915
 20
193.17360679775
 30
0.0
 11
732.1381966011415
 21
193.17360679775
 31
0.0
  0
LINE
  5
82
330
1F
100
AcDbEntity
  8
0
  6
CONTINUOUS
 62
   253
100
AcDbLine
 10
738.0000000000164
 20
189.798612181134
 30
0.0
 11
732.0000000000164
 21
189.798612181134
 31
0.0
  0
LINE
  5
83
330
1F
100
AcDbEntity
  8
0
  6
CONTINUOUS
 62
   253
100
AcDbLine
 10
732.0839748528476
 20
190.0759622792466
 30
0.0
 11
737.9160251471853
 21
190.0759622792466
 31
0.0
  0
LINE
  5
84
330
1F
100
AcDbEntity
  8
0
  6
CONTINUOUS
 62
   253
100
AcDbLine
 10
737.1609525121665
 20
191.2085712317751
 30
0.0
 11
732.8390474878667
 21
191.2085712317751
 31
0.0
  0
LINE
  5
85
330
1F
100
AcDbEntity
  8
0
  6
CONTINUOUS
 62
     7
100
AcDbLine
 10
739.5000000000165
 20
195.45
 30
0.0
 11
739.5000000000165
 21
193.45
 31
0.0
  0
LINE
  5
86
330
1F
100
AcDbEntity
  8
0
  6
CONTINUOUS
 62
     7
100
AcDbLine
 10
739.0000000000165
 20
195.45
 30
0.0
 11
739.5000000000165
 21
195.45
 31
0.0
  0
LINE
  5
87
330
1F
100
AcDbEntity
  8
0
  6
CONTINUOUS
 62
     7
100
AcDbLine
 10
739.5000000000165
 20
193.45
 30
0.0
 11
739.0000000000164
 21
193.45
 31
0.0
  0
LINE
  5
88
330
1F
100
AcDbEntity
  8
0
  6
CONTINUOUS
 62
     7
100
AcDbLine
 10
730.5000000000166
 20
193.45
 30
0.0
 11
730.5000000000166
 21
195.45
 31
0.0
  0
LINE
  5
89
330
1F
100
AcDbEntity
  8
0
  6
CONTINUOUS
 62
     7
100
AcDbLine
 10
730.5000000000166
 20
195.45
 30
0.0
 11
731.0000000000165
 21
195.45
 31
0.0
  0
LINE
  5
8A
330
1F
100
AcDbEntity
  8
0
  6
CONTINUOUS
 62
     7
100
AcDbLine
 10
731.0000000000165
 20
193.45
 30
0.0
 11
730.5000000000166
 21
193.45
 31
0.0
  0
LINE
  5
8B
330
1F
100
AcDbEntity
  8
0
  6
CONTINUOUS
 62
   253
100
AcDbLine
 10
732.8702359361976
 20
191.7095281276377
 30
0.0
 11
737.1297640638353
 21
191.7095281276377
 31
0.0
  0
ARC
  5
8C
330
1F
100
AcDbEntity
  8
0
  6
CONTINUOUS
 62
   253
100
AcDbCircle
 10
734.9999999999834
 20
201.3418509940692
 30
0.0
 40
15.54059471256641
100
AcDbArc
 50
253.3864325503129
 51
286.613567449687
  0
LINE
  5
8D
330
1F
100
AcDbEntity
  8
0
  6
CONTINUOUS
 62
   253
100
AcDbLine
 10
719.4999999999834
 20
186.45
 30
0.0
 11
719.4999999999834
 21
170.0
 31
0.0
  0
LINE
  5
8E
330
1F
100
AcDbEntity
  8
0
  6
CONTINUOUS
 62
     7
100
AcDbLine
 10
742.4999999999833
 20
153.55
 30
0.0
 11
742.4999999999833
 21
186.45
 31
0.0
  0
LINE
  5
8F
330
1F
100
AcDbEntity
  8
0
  6
CONTINUOUS
 62
   253
100
AcDbLine
 10
719.4999999999834
 20
170.0
 30
0.0
 11
719.4999999999834
 21
153.55
 31
0.0
  0
LINE
  5
90
330
1F
100
AcDbEntity
  8
0
  6
CONTINUOUS
 62
     7
100
AcDbLine
 10
718.9999999999834
 20
154.05
 30
0.0
 11
718.9999999999834
 21
170.0
 31
0.0
  0
LINE
  5
91
330
1F
100
AcDbEntity
  8
0
  6
CONTINUOUS
 62
     7
100
AcDbLine
 10
718.9999999999834
 20
170.0
 30
0.0
 11
718.9999999999834
 21
185.95
 31
0.0
  0
LINE
  5
92
330
1F
100
AcDbEntity
  8
0
  6
CONTINUOUS
 62
     7
100
AcDbLine
 10
742.9999999999834
 20
185.95
 30
0.0
 11
742.9999999999834
 21
154.05
 31
0.0
  0
LINE
  5
93
330
1F
100
AcDbEntity
  8
0
  6
CONTINUOUS
 62
   253
100
AcDbLine
 10
718.4999999999835
 20
155.15
 30
0.0
 11
718.4999999999835
 21
170.0
 31
0.0
  0
LINE
  5
94
330
1F
100
AcDbEntity
  8
0
  6
CONTINUOUS
 62
   253
100
AcDbLine
 10
718.4999999999835
 20
170.0
 30
0.0
 11
718.4999999999835
 21
184.85
 31
0.0
  0
LINE
  5
95
330
1F
100
AcDbEntity
  8
0
  6
CONTINUOUS
 62
     7
100
AcDbLine
 10
705.9999999999833
 20
184.85
 30
0.0
 11
705.9999999999833
 21
170.0
 31
0.0
  0
LINE
  5
96
330
1F
100
AcDbEntity
  8
0
  6
CONTINUOUS
 62
     7
100
AcDbLine
 10
705.9999999999833
 20
170.0
 30
0.0
 11
705.9999999999833
 21
155.15
 31
0.0
  0
ARC
  5
97
330
1F
100
AcDbEntity
  8
0
  6
CONTINUOUS
 62
   253
100
AcDbCircle
 10
734.9999999999848
 20
198.2750979928945
 30
0.0
 40
12.18086240108485
100
AcDbArc
 50
250.9303345039531
 51
289.0696654964082
  0
LINE
  5
98
330
1F
100
AcDbEntity
  8
0
  6
CONTINUOUS
 62
   253
100
AcDbLine
 10
738.6263376688455
 20
187.637303296708
 30
0.0
 11
731.3736623311212
 21
187.637303296708
 31
0.0
  0
LINE
  5
99
330
1F
100
AcDbEntity
  8
0
  6
CONTINUOUS
 62
   253
100
AcDbLine
 10
700.4999999999349
 20
168.585786432617
 30
0.0
 11
705.4999999999325
 21
168.5857864322979
 31
0.0
  0
LINE
  5
9A
330
1F
100
AcDbEntity
  8
0
  6
CONTINUOUS
 62
   253
100
AcDbLine
 10
700.5000000001152
 20
171.4142135573631
 30
0.0
 11
705.5000000001129
 21
171.414213557044
 31
0.0
  0
LINE
  5
9B
330
1F
100
AcDbEntity
  8
0
  6
CONTINUOUS
 62
     7
100
AcDbLine
 10
700.4999999999349
 20
168.5857864326179
 30
0.0
 11
700.5000000001153
 21
171.4142135573615
 31
0.0
  0
LINE
  5
9C
330
1F
100
AcDbEntity
  8
0
  6
CONTINUOUS
 62
     7
100
AcDbLine
 10
705.4999999999325
 20
168.5857864322988
 30
0.0
 11
705.500000000113
 21
171.4142135570424
 31
0.0
  0
LINE
  5
9D
330
1F
100
AcDbEntity
  8
0
  6
CONTINUOUS
 62
     7
100
AcDbLine
 10
700.5000000002186
 20
173.0339126873692
 30
0.0
 11
705.5000000002162
 21
173.0339126870501
 31
0.0
  0
LINE
  5
9E
330
1F
100
AcDbEntity
  8
0
  6
CONTINUOUS
 62
     7
100
AcDbLine
 10
700.5000000001152
 20
171.4142135573631
 30
0.0
 11
700.5000000002185
 21
173.0339126873692
 31
0.0
  0
LINE
  5
9F
330
1F
100
AcDbEntity
  8
0
  6
CONTINUOUS
 62
     7
100
AcDbLine
 10
705.500000000113
 20
171.414213557044
 30
0.0
 11
705.5000000002163
 21
173.0339126870501
 31
0.0
  0
LINE
  5
A0
330
1F
100
AcDbEntity
  8
0
  6
CONTINUOUS
 62
     7
100
AcDbLine
 10
700.4999999998312
 20
166.9660873026109
 30
0.0
 11
705.4999999998289
 21
166.9660873022918
 31
0.0
  0
LINE
  5
A1
330
1F
100
AcDbEntity
  8
0
  6
CONTINUOUS
 62
     7
100
AcDbLine
 10
700.4999999998312
 20
166.9660873026109
 30
0.0
 11
700.4999999999346
 21
168.585786432617
 31
0.0
  0
LINE
  5
A2
330
1F
100
AcDbEntity
  8
0
  6
CONTINUOUS
 62
     7
100
AcDbLine
 10
705.499999999829
 20
166.9660873022918
 30
0.0
 11
705.4999999999325
 21
168.5857864322979
 31
0.0
  0
LINE
  5
A3
330
1F
100
AcDbEntity
  8
0
  6
CONTINUOUS
 62
     7
100
AcDbLine
 10
700.5000000008943
 20
183.6193020950687
 30
0.0
 11
705.5000000008919
 21
183.6193020947496
 31
0.0
  0
LINE
  5
A4
330
1F
100
AcDbEntity
  8
0
  6
CONTINUOUS
 62
     7
100
AcDbLine
 10
700.500000000894
 20
183.6193020950602
 30
0.0
 11
700.5000000002186
 21
173.0339126873718
 31
0.0
  0
LINE
  5
A5
330
1F
100
AcDbEntity
  8
0
  6
CONTINUOUS
 62
     7
100
AcDbLine
 10
705.5000000008918
 20
183.6193020947412
 30
0.0
 11
705.5000000002162
 21
173.0339126870527
 31
0.0
  0
LINE
  5
A6
330
1F
100
AcDbEntity
  8
0
  6
CONTINUOUS
 62
     7
100
AcDbLine
 10
700.4999999991556
 20
156.3806978949114
 30
0.0
 11
705.4999999991534
 21
156.3806978945923
 31
0.0
  0
LINE
  5
A7
330
1F
100
AcDbEntity
  8
0
  6
CONTINUOUS
 62
     7
100
AcDbLine
 10
700.4999999998312
 20
166.9660873026123
 30
0.0
 11
700.4999999991556
 21
156.3806978949249
 31
0.0
  0
LINE
  5
A8
330
1F
100
AcDbEntity
  8
0
  6
CONTINUOUS
 62
     7
100
AcDbLine
 10
705.499999999829
 20
166.9660873022932
 30
0.0
 11
705.4999999991535
 21
156.3806978946057
 31
0.0
  0
LINE
  5
A9
330
1F
100
AcDbEntity
  8
0
  6
CONTINUOUS
 62
   253
100
AcDbLine
 10
700.5000000010403
 20
185.9099025716872
 30
0.0
 11
705.5000000010381
 21
185.9099025713681
 31
0.0
  0
LINE
  5
AA
330
1F
100
AcDbEntity
  8
0
  6
CONTINUOUS
 62
     7
100
AcDbLine
 10
700.5000000008943
 20
183.6193020950687
 30
0.0
 11
700.5000000010405
 21
185.9099025716873
 31
0.0
  0
LINE
  5
AB
330
1F
100
AcDbEntity
  8
0
  6
CONTINUOUS
 62
     7
100
AcDbLine
 10
705.5000000008918
 20
183.6193020947496
 30
0.0
 11
705.5000000010381
 21
185.9099025713681
 31
0.0
  0
LINE
  5
AC
330
1F
100
AcDbEntity
  8
0
  6
CONTINUOUS
 62
     7
100
AcDbLine
 10
700.500000001168
 20
187.9099025716872
 30
0.0
 11
705.5000000011657
 21
187.9099025713681
 31
0.0
  0
LINE
  5
AD
330
1F
100
AcDbEntity
  8
0
  6
CONTINUOUS
 62
     7
100
AcDbLine
 10
700.5000000010403
 20
185.9099025716872
 30
0.0
 11
700.500000001168
 21
187.9099025716845
 31
0.0
  0
LINE
  5
AE
330
1F
100
AcDbEntity
  8
0
  6
CONTINUOUS
 62
     7
100
AcDbLine
 10
705.5000000010381
 20
185.9099025713681
 30
0.0
 11
705.5000000011659
 21
187.9099025713654
 31
0.0
  0
LINE
  5
AF
330
1F
100
AcDbEntity
  8
0
  6
CONTINUOUS
 62
     7
100
AcDbLine
 10
700.4999999988819
 20
152.0900974182929
 30
0.0
 11
705.4999999988797
 21
152.0900974179738
 31
0.0
  0
LINE
  5
B0
330
1F
100
AcDbEntity
  8
0
  6
CONTINUOUS
 62
   253
100
AcDbLine
 10
700.4999999990096
 20
154.0900974182929
 30
0.0
 11
705.4999999990075
 21
154.0900974179738
 31
0.0
  0
LINE
  5
B1
330
1F
100
AcDbEntity
  8
0
  6
CONTINUOUS
 62
     7
100
AcDbLine
 10
700.4999999988819
 20
152.0900974182947
 30
0.0
 11
700.4999999990096
 21
154.0900974182929
 31
0.0
  0
LINE
  5
B2
330
1F
100
AcDbEntity
  8
0
  6
CONTINUOUS
 62
     7
100
AcDbLine
 10
705.4999999988797
 20
152.0900974179756
 30
0.0
 11
705.4999999990076
 21
154.0900974179737
 31
0.0
  0
LINE
  5
B3
330
1F
100
AcDbEntity
  8
0
  6
CONTINUOUS
 62
     7
100
AcDbLine
 10
700.4999999990096
 20
154.0900974182929
 30
0.0
 11
700.4999999991558
 21
156.3806978949114
 31
0.0
  0
LINE
  5
B4
330
1F
100
AcDbEntity
  8
0
  6
CONTINUOUS
 62
     7
100
AcDbLine
 10
705.4999999990073
 20
154.0900974179738
 30
0.0
 11
705.4999999991535
 21
156.3806978945923
 31
0.0
  0
LINE
  5
B5
330
1F
100
AcDbEntity
  8
0
  6
CONTINUOUS
 62
     7
100
AcDbLine
 10
700.5000000014478
 20
192.2945144273569
 30
0.0
 11
705.5000000014454
 21
192.2945144270377
 31
0.0
  0
LINE
  5
B6
330
1F
100
AcDbEntity
  8
0
  6
CONTINUOUS
 62
     7
100
AcDbLine
 10
700.5000000014478
 20
192.294514427337
 30
0.0
 11
700.5000000011679
 21
187.9099025716747
 31
0.0
  0
LINE
  5
B7
330
1F
100
AcDbEntity
  8
0
  6
CONTINUOUS
 62
     7
100
AcDbLine
 10
705.5000000014455
 20
192.2945144270179
 30
0.0
 11
705.5000000011656
 21
187.9099025713556
 31
0.0
  0
LINE
  5
B8
330
1F
100
AcDbEntity
  8
0
  6
CONTINUOUS
 62
     7
100
AcDbLine
 10
700.4999999986021
 20
147.7054855626232
 30
0.0
 11
705.4999999985998
 21
147.7054855623041
 31
0.0
  0
LINE
  5
B9
330
1F
100
AcDbEntity
  8
0
  6
CONTINUOUS
 62
     7
100
AcDbLine
 10
700.4999999988819
 20
152.0900974183061
 30
0.0
 11
700.4999999986021
 21
147.7054855626462
 31
0.0
  0
LINE
  5
BA
330
1F
100
AcDbEntity
  8
0
  6
CONTINUOUS
 62
     7
100
AcDbLine
 10
705.4999999988796
 20
152.090097417987
 30
0.0
 11
705.4999999985998
 21
147.7054855623271
 31
0.0
  0
LINE
  5
BB
330
1F
100
AcDbEntity
  8
0
  6
CONTINUOUS
 62
   253
100
AcDbLine
 10
700.5000000015511
 20
193.914213557363
 30
0.0
 11
705.5000000015489
 21
193.9142135570438
 31
0.0
  0
LINE
  5
BC
330
1F
100
AcDbEntity
  8
0
  6
CONTINUOUS
 62
     7
100
AcDbLine
 10
700.5000000014478
 20
192.2945144273569
 30
0.0
 11
700.5000000015511
 21
193.914213557363
 31
0.0
  0
LINE
  5
BD
330
1F
100
AcDbEntity
  8
0
  6
CONTINUOUS
 62
     7
100
AcDbLine
 10
705.5000000014455
 20
192.2945144270377
 30
0.0
 11
705.5000000015489
 21
193.9142135570438
 31
0.0
  0
LINE
  5
BE
330
1F
100
AcDbEntity
  8
0
  6
CONTINUOUS
 62
   253
100
AcDbLine
 10
700.4999999984989
 20
146.0857864326171
 30
0.0
 11
705.4999999984965
 21
146.0857864322981
 31
0.0
  0
LINE
  5
BF
330
1F
100
AcDbEntity
  8
0
  6
CONTINUOUS
 62
     7
100
AcDbLine
 10
700.4999999984989
 20
146.0857864326171
 30
0.0
 11
700.4999999986021
 21
147.7054855626232
 31
0.0
  0
LINE
  5
C0
330
1F
100
AcDbEntity
  8
0
  6
CONTINUOUS
 62
     7
100
AcDbLine
 10
705.4999999984965
 20
146.0857864322981
 30
0.0
 11
705.4999999986
 21
147.7054855623041
 31
0.0
  0
LINE
  5
C1
330
1F
100
AcDbEntity
  8
0
  6
CONTINUOUS
 62
     7
100
AcDbLine
 10
700.5000000015511
 20
193.914213557362
 30
0.0
 11
700.5000000015885
 21
194.4999999949876
 31
0.0
  0
LINE
  5
C2
330
1F
100
AcDbEntity
  8
0
  6
CONTINUOUS
 62
     7
100
AcDbLine
 10
705.500000001549
 20
193.9142135570429
 30
0.0
 11
705.5000000015864
 21
194.4999999946685
 31
0.0
  0
LINE
  5
C3
330
1F
100
AcDbEntity
  8
0
  6
CONTINUOUS
 62
     7
100
AcDbLine
 10
700.4999999984614
 20
145.4999999949921
 30
0.0
 11
700.4999999984988
 21
146.0857864326181
 31
0.0
  0
LINE
  5
C4
330
1F
100
AcDbEntity
  8
0
  6
CONTINUOUS
 62
     7
100
AcDbLine
 10
705.499999998459
 20
145.499999994673
 30
0.0
 11
705.4999999984964
 21
146.085786432299
 31
0.0
  0
LINE
  5
C5
330
1F
100
AcDbEntity
  8
0
  6
CONTINUOUS
 62
   253
100
AcDbLine
 10
640.7895301510056
 20
198.0212198427791
 30
0.0
 11
640.7895301510056
 21
197.7903138282809
 31
0.0
  0
LINE
  5
C6
330
1F
100
AcDbEntity
  8
0
  6
CONTINUOUS
 62
     7
100
AcDbLine
 10
654.5000000000165
 20
141.5
 30
0.0
 11
654.5000000000165
 21
170.0
 31
0.0
  0
LINE
  5
C7
330
1F
100
AcDbEntity
  8
0
  6
CONTINUOUS
 62
   253
100
AcDbLine
 10
640.7895301510058
 20
142.2096861717191
 30
0.0
 11
640.7895301510058
 21
141.9787801572209
 31
0.0
  0
ARC
  5
C8
330
1F
100
AcDbEntity
  8
0
  6
CONTINUOUS
 62
   253
100
AcDbCircle
 10
639.0118747218887
 20
137.3039638636501
 30
0.0
 40
5.263687222647473
100
AcDbArc
 50
71.14197757442003
 51
89.55942628973366
  0
LINE
  5
C9
330
1F
100
AcDbEntity
  8
0
  6
CONTINUOUS
 62
   253
100
AcDbLine
 10
640.7132257336483
 20
142.2851091047214
 30
0.0
 11
640.7895301510058
 21
142.2096861717191
 31
0.0
  0
LINE
  5
CA
330
1F
100
AcDbEntity
  8
0
  6
CONTINUOUS
 62
     7
100
AcDbLine
 10
628.8372824593878
 20
143.0058933277614
 30
0.0
 11
639.0523492450703
 21
142.5674954718801
 31
0.0
  0
LINE
  5
CB
330
1F
100
AcDbEntity
  8
0
  6
CONTINUOUS
 62
   253
100
AcDbLine
 10
628.8372824593878
 20
146.8324504270991
 30
0.0
 11
628.8372824593878
 21
143.0058933277614
 31
0.0
  0
LINE
  5
CC
330
1F
100
AcDbEntity
  8
0
  6
CONTINUOUS
 62
   253
100
AcDbLine
 10
639.0523492450702
 20
146.7779995357898
 30
0.0
 11
628.8372824593878
 21
146.8324504270991
 31
0.0
  0
LWPOLYLINE
  5
CD
330
1F
100
AcDbEntity
  8
0
  6
CONTINUOUS
 62
   253
100
AcDbPolyline
 90
        7
 70
     0
 43
0.0
 10
-640.7895301510058
 20
147.8108540805242
 10
-640.7812450011193
 20
147.7041984988421
 10
-640.7565668840533
 20
147.5998016005985
 10
-640.7148178876134
 20
147.4970277095776
 10
-640.6566171172796
 20
147.398034243488
 10
-640.5827976300325
 20
147.3040681059288
 10
-640.4948679830544
 20
147.2169333148072
210
0.0
220
0.0
230
-1.0
  0
ARC
  5
CE
330
1F
100
AcDbEntity
  8
0
  6
CONTINUOUS
 62
   253
100
AcDbCircle
 10
639.1664143381432
 20
148.9929590542117
 30
0.0
 40
2.217894612849047
100
AcDbArc
 50
267.0520092118226
 51
306.7962071093081
  0
LINE
  5
CF
330
1F
100
AcDbEntity
  8
0
  6
CONTINUOUS
 62
   253
100
AcDbLine
 10
640.7895301510056
 20
152.8877072009163
 30
0.0
 11
640.7895301510056
 21
147.8108540805242
 31
0.0
  0
ARC
  5
D0
330
1F
100
AcDbEntity
  8
0
  6
CONTINUOUS
 62
   253
100
AcDbCircle
 10
638.9952616063297
 20
152.5312173757778
 30
0.0
 40
1.896222669321657
100
AcDbArc
 50
28.91944696148187
 51
88.27479381961274
  0
LWPOLYLINE
  5
D1
330
1F
100
AcDbEntity
  8
0
  6
CONTINUOUS
 62
   253
100
AcDbPolyline
 90
        5
 70
     0
 43
0.0
 10
-640.6550261507231
 20
153.4481917859028
 10
-640.7132257336483
 20
153.3115604470307
 10
-640.7553255649705
 20
153.1713509366856
 10
-640.7809061265833
 20
153.0294147897925
 10
-640.7895301510058
 20
152.8877072009163
210
0.0
220
0.0
230
-1.0
  0
LINE
  5
D2
330
1F
100
AcDbEntity
  8
0
  6
CONTINUOUS
 62
   253
100
AcDbLine
 10
628.8372824593878
 20
154.9921178128751
 30
0.0
 11
639.0523492450702
 21
154.4265805106816
 31
0.0
  0
LINE
  5
D3
330
1F
100
AcDbEntity
  8
0
  6
CONTINUOUS
 62
   253
100
AcDbLine
 10
628.8372824593878
 20
164.2302438592911
 30
0.0
 11
628.8372824593878
 21
154.9921178128751
 31
0.0
  0
LINE
  5
D4
330
1F
100
AcDbEntity
  8
0
  6
CONTINUOUS
 62
   253
100
AcDbLine
 10
639.0523492450702
 20
164.5916365261996
 30
0.0
 11
628.8372824593878
 21
164.2302438592911
 31
0.0
  0
ARC
  5
D5
330
1F
100
AcDbEntity
  8
0
  6
CONTINUOUS
 62
   253
100
AcDbCircle
 10
638.9785199848536
 20
166.4011633518436
 30
0.0
 40
1.811032327814655
100
AcDbArc
 50
272.3363898562096
 51
0.283449790703969
  0
LINE
  5
D6
330
1F
100
AcDbEntity
  8
0
  6
CONTINUOUS
 62
   253
100
AcDbLine
 10
640.7895301510056
 20
173.5898772685173
 30
0.0
 11
640.7895301510056
 21
166.4101227314826
 31
0.0
  0
ARC
  5
D7
330
1F
100
AcDbEntity
  8
0
  6
CONTINUOUS
 62
   253
100
AcDbCircle
 10
638.9785644649921
 20
173.5988791395687
 30
0.0
 40
1.810988058933871
100
AcDbArc
 50
359.7151989267043
 51
87.6649614263822
  0
LINE
  5
D8
330
1F
100
AcDbEntity
  8
0
  6
CONTINUOUS
 62
   253
100
AcDbLine
 10
628.8372824593878
 20
175.7697561407089
 30
0.0
 11
639.0523492450702
 21
175.4083634738004
 31
0.0
  0
LINE
  5
D9
330
1F
100
AcDbEntity
  8
0
  6
CONTINUOUS
 62
   253
100
AcDbLine
 10
628.8372824593878
 20
185.0078821871249
 30
0.0
 11
628.8372824593878
 21
175.7697561407089
 31
0.0
  0
LINE
  5
DA
330
1F
100
AcDbEntity
  8
0
  6
CONTINUOUS
 62
   253
100
AcDbLine
 10
639.0523492450702
 20
185.5734194893184
 30
0.0
 11
628.8372824593878
 21
185.0078821871249
 31
0.0
  0
LWPOLYLINE
  5
DB
330
1F
100
AcDbEntity
  8
0
  6
CONTINUOUS
 62
   253
100
AcDbPolyline
 90
        5
 70
     0
 43
0.0
 10
-640.7895301510058
 20
187.1122927990837
 10
-640.7812450011193
 20
186.9726146481067
 10
-640.7565668840533
 20
186.8331626223115
 10
-640.7148178876134
 20
186.6930536904677
 10
-640.6566171172798
 20
186.5553239152883
210
0.0
220
0.0
230
-1.0
  0
ARC
  5
DC
330
1F
100
AcDbEntity
  8
0
  6
CONTINUOUS
 62
   253
100
AcDbCircle
 10
638.9967089694063
 20
187.4658315319512
 30
0.0
 40
1.893229827405474
100
AcDbArc
 50
271.6841125224644
 51
331.2539580966966
  0
LINE
  5
DD
330
1F
100
AcDbEntity
  8
0
  6
CONTINUOUS
 62
   253
100
AcDbLine
 10
640.7895301510056
 20
192.1891459194758
 30
0.0
 11
640.7895301510056
 21
187.1122927990836
 31
0.0
  0
ARC
  5
DE
330
1F
100
AcDbEntity
  8
0
  6
CONTINUOUS
 62
   253
100
AcDbCircle
 10
639.1632671759171
 20
190.9952826368169
 30
0.0
 40
2.229478654352857
100
AcDbArc
 50
53.425964873738
 51
92.85167738359871
  0
LWPOLYLINE
  5
DF
330
1F
100
AcDbEntity
  8
0
  6
CONTINUOUS
 62
   253
100
AcDbPolyline
 90
        7
 70
     0
 43
0.0
 10
-640.4917265539805
 20
192.7857492662322
 10
-640.5808851390393
 20
192.6978967500675
 10
-640.6550261507231
 20
192.604490192857
 10
-640.7132257336483
 20
192.5063350308242
 10
-640.7553255649705
 20
192.4035076934916
 10
-640.7809061265833
 20
192.2973150033135
 10
-640.7895301510058
 20
192.1891459194758
210
0.0
220
0.0
230
-1.0
  0
LINE
  5
E0
330
1F
100
AcDbEntity
  8
0
  6
CONTINUOUS
 62
   253
100
AcDbLine
 10
628.8372824593878
 20
193.1675495729009
 30
0.0
 11
639.0523492450702
 21
193.2220004642101
 31
0.0
  0
LINE
  5
E1
330
1F
100
AcDbEntity
  8
0
  6
CONTINUOUS
 62
   253
100
AcDbLine
 10
628.8372824593878
 20
196.9941066722386
 30
0.0
 11
628.8372824593878
 21
193.1675495729009
 31
0.0
  0
LINE
  5
E2
330
1F
100
AcDbEntity
  8
0
  6
CONTINUOUS
 62
     7
100
AcDbLine
 10
639.0523492450702
 20
197.4325045281199
 30
0.0
 11
628.8372824593878
 21
196.9941066722386
 31
0.0
  0
LWPOLYLINE
  5
E3
330
1F
100
AcDbEntity
  8
0
  6
CONTINUOUS
 62
   253
100
AcDbPolyline
 90
        3
 70
     0
 43
0.0
 10
-640.7895301510058
 20
197.7903138282809
 10
-640.7148178876134
 20
197.7157757666515
 10
-640.6216076472091
 20
197.6744673119619
210
0.0
220
0.0
230
-1.0
  0
ARC
  5
E4
330
1F
100
AcDbEntity
  8
0
  6
CONTINUOUS
 62
   253
100
AcDbCircle
 10
638.959437696204
 20
203.2448082514726
 30
0.0
 40
5.813046286450296
100
AcDbArc
 50
270.9158135065086
 51
286.6149164748501
  0
LINE
  5
E5
330
1F
100
AcDbEntity
  8
0
  6
CONTINUOUS
 62
     7
100
AcDbLine
 10
654.5000000000165
 20
170.0
 30
0.0
 11
654.5000000000165
 21
198.5
 31
0.0
  0
LWPOLYLINE
  5
E6
330
1F
100
AcDbEntity
  8
0
  6
CONTINUOUS
 62
   253
100
AcDbPolyline
 90
        9
 70
     0
 43
0.0
 10
640.5000000000165
 20
166.4485331622106
 10
640.5055118449823
 20
166.4411996391273
 10
640.5218448436465
 20
166.4341355909926
 10
640.548398829633
 20
166.4276005907274
 10
640.5841980599149
 20
166.4218347710539
 10
640.6279270691113
 20
166.4170500006664
 10
640.6779790070938
 20
166.4134220989819
 10
640.7325146837134
 20
166.4110843755448
 10
640.7895301510058
 20
166.4101227314826
  0
LINE
  5
E7
330
1F
100
AcDbEntity
  8
0
  6
CONTINUOUS
 62
     7
100
AcDbLine
 10
640.5000000000165
 20
166.4485331622106
 30
0.0
 11
640.5000000000165
 21
173.5514668377894
 31
0.0
  0
LWPOLYLINE
  5
E8
330
1F
100
AcDbEntity
  8
0
  6
CONTINUOUS
 62
   253
100
AcDbPolyline
 90
        9
 70
     0
 43
0.0
 10
640.7895301510058
 20
173.5898772685173
 10
640.7325146837134
 20
173.5889156244552
 10
640.6779790070938
 20
173.586577901018
 10
640.6279270691113
 20
173.5829499993336
 10
640.5841980599149
 20
173.578165228946
 10
640.5483988296329
 20
173.5723994092725
 10
640.5218448436465
 20
173.5658644090074
 10
640.5055118449823
 20
173.5588003608727
 10
640.5000000000165
 20
173.5514668377894
  0
ARC
  5
E9
330
1F
100
AcDbEntity
  8
0
  6
CONTINUOUS
 62
     7
100
AcDbCircle
 10
638.9999778789107
 20
173.5514454756858
 30
0.0
 40
1.500022121257882
100
AcDbArc
 50
0.0008159602164939
 51
87.9991840397837
  0
LWPOLYLINE
  5
EA
330
1F
100
AcDbEntity
  8
0
  6
CONTINUOUS
 62
   253
100
AcDbPolyline
 90
       10
 70
     0
 43
0.0
 10
639.0523492450702
 20
175.4083634738004
 10
639.0500732698785
 20
175.3499680773416
 10
639.0482853563599
 20
175.2915880837596
 10
639.0470539670985
 20
175.2354589732308
 10
639.0464262543139
 20
175.1837300353697
 10
639.0464262543139
 20
175.1383820688719
 10
639.0470539670985
 20
175.101151532992
 10
639.0482853563598
 20
175.0734640552406
 10
639.0500732698786
 20
175.0563798414151
 10
639.0523492450702
 20
175.050553078318
  0
ARC
  5
EB
330
1F
100
AcDbEntity
  8
0
  6
CONTINUOUS
 62
     7
100
AcDbCircle
 10
638.9999791350838
 20
166.4485533112418
 30
0.0
 40
1.500020865067953
100
AcDbArc
 50
272.0007696255948
 51
359.999230374405
  0
LWPOLYLINE
  5
EC
330
1F
100
AcDbEntity
  8
0
  6
CONTINUOUS
 62
   253
100
AcDbPolyline
 90
       10
 70
     0
 43
0.0
 10
639.0523492450702
 20
164.949446921682
 10
639.0500732698786
 20
164.9436201585849
 10
639.0482853563598
 20
164.9265359447594
 10
639.0470539670985
 20
164.898848467008
 10
639.0464262543139
 20
164.8616179311281
 10
639.0464262543139
 20
164.8162699646303
 10
639.0470539670985
 20
164.7645410267692
 10
639.0482853563599
 20
164.7084119162404
 10
639.0500732698785
 20
164.6500319226584
 10
639.0523492450701
 20
164.5916365261996
  0
LINE
  5
ED
330
1F
100
AcDbEntity
  8
0
  6
CONTINUOUS
 62
     7
100
AcDbLine
 10
628.8372824593878
 20
164.5927289291164
 30
0.0
 11
639.0523492450702
 21
164.949446921682
 31
0.0
  0
LWPOLYLINE
  5
EE
330
1F
100
AcDbEntity
  8
0
  6
CONTINUOUS
 62
   253
100
AcDbPolyline
 90
       10
 70
     0
 43
0.0
 10
628.8372824593878
 20
164.5927289291164
 10
628.8349472222611
 20
164.586796403826
 10
628.8331111626284
 20
164.5694074433559
 10
628.8318458551457
 20
164.5412399172347
 10
628.8312006249807
 20
164.5033918731391
 10
628.8312006249807
 20
164.4573387319748
 10
628.8318458551457
 20
164.404875771909
 10
628.8331111626284
 20
164.3480481434878
 10
628.8349472222611
 20
164.2890711440399
 10
628.8372824593877
 20
164.2302438592911
  0
LINE
  5
EF
330
1F
100
AcDbEntity
  8
0
  6
CONTINUOUS
 62
     7
100
AcDbLine
 10
639.0523492450702
 20
175.050553078318
 30
0.0
 11
628.8372824593878
 21
175.4072710708836
 31
0.0
  0
LWPOLYLINE
  5
F0
330
1F
100
AcDbEntity
  8
0
  6
CONTINUOUS
 62
   253
100
AcDbPolyline
 90
       10
 70
     0
 43
0.0
 10
628.8372824593878
 20
175.7697561407089
 10
628.8349472222611
 20
175.7109288559601
 10
628.8331111626284
 20
175.6519518565122
 10
628.8318458551457
 20
175.595124228091
 10
628.8312006249807
 20
175.5426612680252
 10
628.8312006249807
 20
175.4966081268609
 10
628.8318458551457
 20
175.4587600827653
 10
628.8331111626284
 20
175.4305925566441
 10
628.8349472222613
 20
175.413203596174
 10
628.8372824593878
 20
175.4072710708836
  0
LWPOLYLINE
  5
F1
330
1F
100
AcDbEntity
  8
0
  6
CONTINUOUS
 62
     7
100
AcDbPolyline
 90
       33
 70
     0
 43
0.0
 10
-627.0050989499109
 20
164.1858053244212
 10
-627.0053824310796
 20
164.1959220186199
 10
-627.0062179216093
 20
164.2060379207764
 10
-627.007582991906
 20
164.2161219655639
 10
-627.0094552123999
 20
164.2261430876617
 10
-627.0118121535204
 20
164.2360702217488
 10
-627.0146313856976
 20
164.2458723025044
 10
-627.0178904793609
 20
164.2555182646077
 10
-627.0215670049406
 20
164.2649770427379
 10
-627.0270363392762
 20
164.2772067352726
 10
-627.0331630925026
 20
164.2891633665988
 10
-627.0398949083258
 20
164.3008261322535
 10
-627.0471794304515
 20
164.3121742277737
 10
-627.0549643025855
 20
164.3231868486966
 10
-627.0631971684338
 20
164.3338431905591
 10
-627.0757874333888
 20
164.3486004116814
 10
-627.0891915379473
 20
164.3627112210384
 10
-627.1033248730488
 20
164.376179112696
 10
-627.1181028296327
 20
164.3890075807199
 10
-627.1334407986379
 20
164.4012001191757
 10
-627.1492541710044
 20
164.4127602221293
 10
-627.1654583376711
 20
164.4236913836464
 10
-627.1971095688309
 20
164.4428102420269
 10
-627.229976473792
 20
164.4600469770637
 10
-627.2638544998196
 20
164.4754899347822
 10
-627.2985390941781
 20
164.4892274612082
 10
-627.3338257041326
 20
164.5013479023673
 10
-627.3695097769476
 20
164.5119396042854
 10
-627.4221152646952
 20
164.5248712217297
 10
-627.4754508866615
 20
164.5350609565873
 10
-627.5293036147616
 20
164.5426748098547
 10
-627.5834604209107
 20
164.5478787825286
 10
-627.6377082770236
 20
164.5508388756057
210
0.0
220
0.0
230
-1.0
  0
LINE
  5
F2
330
1F
100
AcDbEntity
  8
0
  6
CONTINUOUS
 62
     7
100
AcDbLine
 10
627.0050989499109
 20
164.1858053244212
 30
0.0
 11
627.0050989499109
 21
175.814194675579
 31
0.0
  0
LWPOLYLINE
  5
F3
330
1F
100
AcDbEntity
  8
0
  6
CONTINUOUS
 62
     7
100
AcDbPolyline
 90
       31
 70
     0
 43
0.0
 10
-627.6377082770239
 20
175.4491611243942
 10
-627.5842491890173
 20
175.4520486923097
 10
-627.5307489034369
 20
175.4571060738113
 10
-627.4774654416515
 20
175.4645146147194
 10
-627.4246568250288
 20
175.4744556608542
 10
-627.3725810749376
 20
175.487110558036
 10
-627.3214962127458
 20
175.502660652085
 10
-627.2716602598219
 20
175.5212872888216
 10
-627.2417111839601
 20
175.5343960923727
 10
-627.2123975123807
 20
175.5488929732611
 10
-627.1839040341865
 20
175.5648407797016
 10
-627.1564155384799
 20
175.5823023599089
 10
-627.1385932365303
 20
175.5949298212223
 10
-627.1213103508097
 20
175.6083575998291
 10
-627.1046909206417
 20
175.6225880005077
 10
-627.0888589853503
 20
175.6376233280367
 10
-627.0739385842592
 20
175.6534658871945
 10
-627.0600537566922
 20
175.6701179827597
 10
-627.0518698156935
 20
175.6810681536501
 10
-627.0441634175841
 20
175.6923872140771
 10
-627.0369906650875
 20
175.7040507961768
 10
-627.0304076609275
 20
175.7160345320848
 10
-627.0244705078276
 20
175.7283140539373
 10
-627.0192353085115
 20
175.7408649938699
 10
-627.0156396203914
 20
175.7509498441972
 10
-627.0125263421587
 20
175.7612278004636
 10
-627.0099212695433
 20
175.771661162803
 10
-627.0078501982752
 20
175.7822122313492
 10
-627.0063389240843
 20
175.792843306236
 10
-627.0054132427008
 20
175.8035166875972
 10
-627.0050989499109
 20
175.814194675579
210
0.0
220
0.0
230
-1.0
  0
LINE
  5
F4
330
1F
100
AcDbEntity
  8
0
  6
CONTINUOUS
 62
   253
100
AcDbLine
 10
627.0050989499109
 20
175.814194675579
 30
0.0
 11
628.8372824593877
 21
175.7697561407089
 31
0.0
  0
LINE
  5
F5
330
1F
100
AcDbEntity
  8
0
  6
CONTINUOUS
 62
     7
100
AcDbLine
 10
628.8372824593878
 20
175.4072710708836
 30
0.0
 11
627.6377082770239
 21
175.4491611243942
 31
0.0
  0
LINE
  5
F6
330
1F
100
AcDbEntity
  8
0
  6
CONTINUOUS
 62
     7
100
AcDbLine
 10
627.0050989499109
 20
143.103376420482
 30
0.0
 11
627.0050989499109
 21
143.7393164549596
 31
0.0
  0
LINE
  5
F7
330
1F
100
AcDbEntity
  8
0
  6
CONTINUOUS
 62
   253
100
AcDbLine
 10
626.2230575883854
 20
144.1264795396034
 30
0.0
 11
626.2230575883854
 21
195.8735204603967
 31
0.0
  0
LINE
  5
F8
330
1F
100
AcDbEntity
  8
0
  6
CONTINUOUS
 62
     7
100
AcDbLine
 10
627.0050989499109
 20
184.4578509310515
 30
0.0
 11
627.0050989499109
 21
192.6803638955326
 31
0.0
  0
ARC
  5
F9
330
1F
100
AcDbEntity
  8
0
  6
CONTINUOUS
 62
   253
100
AcDbCircle
 10
629.006971661364
 20
181.1160721645334
 30
0.0
 40
3.895507627666772
100
AcDbArc
 50
92.49660721588893
 51
120.9234664051742
  0
LINE
  5
FA
330
1F
100
AcDbEntity
  8
0
  6
CONTINUOUS
 62
   253
100
AcDbLine
 10
628.8372824593878
 20
164.2302438592911
 30
0.0
 11
627.005098949911
 21
164.1858053244212
 31
0.0
  0
ARC
  5
FB
330
1F
100
AcDbEntity
  8
0
  6
CONTINUOUS
 62
   253
100
AcDbCircle
 10
628.9980857555717
 20
158.85432840838
 30
0.0
 40
3.865556671954762
100
AcDbArc
 50
238.9640615255304
 51
267.6158648534002
  0
LINE
  5
FC
330
1F
100
AcDbEntity
  8
0
  6
CONTINUOUS
 62
     7
100
AcDbLine
 10
627.0050989499109
 20
147.3196361044675
 30
0.0
 11
627.0050989499109
 21
155.5421490689486
 31
0.0
  0
ARC
  5
FD
330
1F
100
AcDbEntity
  8
0
  6
CONTINUOUS
 62
   253
100
AcDbCircle
 10
628.8283678056933
 20
150.4877094988429
 30
0.0
 40
3.655269942509864
100
AcDbArc
 50
240.0789941783569
 51
270.1397359283662
  0
ARC
  5
FE
330
1F
100
AcDbEntity
  8
0
  6
CONTINUOUS
 62
   253
100
AcDbCircle
 10
628.9687896851855
 20
145.989639322788
 30
0.0
 40
2.986642649075
100
AcDbArc
 50
228.8911963901233
 51
267.4763482705426
  0
LINE
  5
FF
330
1F
100
AcDbEntity
  8
0
  6
CONTINUOUS
 62
     7
100
AcDbLine
 10
627.0050989499109
 20
196.2606835450404
 30
0.0
 11
627.0050989499109
 21
196.896623579518
 31
0.0
  0
ARC
  5
100
330
1F
100
AcDbEntity
  8
0
  6
CONTINUOUS
 62
   253
100
AcDbCircle
 10
628.9685625244528
 20
194.0109281533838
 30
0.0
 40
2.986065727816456
100
AcDbArc
 50
92.51977670461801
 51
131.1126786347149
  0
ARC
  5
101
330
1F
100
AcDbEntity
  8
0
  6
CONTINUOUS
 62
   253
100
AcDbCircle
 10
628.8201233017281
 20
189.543296018993
 30
0.0
 40
3.624294174002007
100
AcDbArc
 50
89.72873311611534
 51
120.0525367771577
  0
LINE
  5
102
330
1F
100
AcDbEntity
  8
0
  6
CONTINUOUS
 62
     7
100
AcDbLine
 10
627.6377082770236
 20
164.5508388756057
 30
0.0
 11
628.8372824593878
 21
164.5927289291163
 31
0.0
  0
LINE
  5
103
330
1F
100
AcDbEntity
  8
0
  6
CONTINUOUS
 62
   253
100
AcDbLine
 10
625.8524722064111
 20
195.0787975441133
 30
0.0
 11
625.8524722064111
 21
144.9212024558867
 31
0.0
  0
LINE
  5
104
330
1F
100
AcDbEntity
  8
0
  6
CONTINUOUS
 62
   253
100
AcDbLine
 10
624.7534827923566
 20
145.764486692794
 30
0.0
 11
624.7534827923566
 21
194.235513307206
 31
0.0
  0
LINE
  5
105
330
1F
100
AcDbEntity
  8
0
  6
CONTINUOUS
 62
     7
100
AcDbLine
 10
622.0000000000164
 20
146.25
 30
0.0
 11
622.0000000000164
 21
170.0
 31
0.0
  0
LINE
  5
106
330
1F
100
AcDbEntity
  8
0
  6
CONTINUOUS
 62
     7
100
AcDbLine
 10
622.0000000000164
 20
170.0
 30
0.0
 11
622.0000000000164
 21
193.75
 31
0.0
  0
LINE
  5
107
330
1F
100
AcDbEntity
  8
0
  6
CONTINUOUS
 62
     7
100
AcDbLine
 10
627.2418504410459
 20
155.2970684166836
 30
0.0
 11
627.0050989498544
 21
155.5421490689494
 31
0.0
  0
LWPOLYLINE
  5
108
330
1F
100
AcDbEntity
  8
0
  6
CONTINUOUS
 62
   253
100
AcDbPolyline
 90
        6
 70
     0
 43
0.0
 10
628.8372824593878
 20
154.9921178128745
 10
628.8349325521398
 20
154.9456229699368
 10
628.8330893859277
 20
154.9074093482269
 10
628.8318258176718
 20
154.8789874608828
 10
628.8311917938662
 20
154.8614807720597
 10
628.8312123762889
 20
154.8555812884894
  0
LWPOLYLINE
  5
109
330
1F
100
AcDbEntity
  8
0
  6
CONTINUOUS
 62
   253
100
AcDbPolyline
 90
        6
 70
     0
 43
0.0
 10
628.831212376156
 20
185.1444187115185
 10
628.83119179396
 20
185.1385192243634
 10
628.8318258178891
 20
185.1210125338532
 10
628.833089386165
 20
185.0925906466814
 10
628.8349325523
 20
185.0543770268267
 10
628.8372824593877
 20
185.0078821871249
  0
LINE
  5
10A
330
1F
100
AcDbEntity
  8
0
  6
CONTINUOUS
 62
     7
100
AcDbLine
 10
627.0050989498543
 20
184.4578509310507
 30
0.0
 11
627.1599224880473
 21
184.6623190287163
 31
0.0
  0
LINE
  5
10B
330
1F
100
AcDbEntity
  8
0
  6
CONTINUOUS
 62
     7
100
AcDbLine
 10
640.5000000000165
 20
153.0708027465274
 30
0.0
 11
640.505562483856
 21
153.0356864545205
 31
0.0
  0
LWPOLYLINE
  5
10C
330
1F
100
AcDbEntity
  8
0
  6
CONTINUOUS
 62
   253
100
AcDbPolyline
 90
        8
 70
     0
 43
0.0
 10
640.505562483856
 20
153.0356864545205
 10
640.5219299447833
 20
153.0020436485721
 10
640.5485018900307
 20
152.9709241317149
 10
640.5843031948281
 20
152.9434699133663
 10
640.6280200397023
 20
152.9206884955403
 10
640.6780481244076
 20
152.9034159000112
 10
640.7325515417816
 20
152.8922859883795
 10
640.7895301510058
 20
152.8877072009163
  0
LWPOLYLINE
  5
10D
330
1F
100
AcDbEntity
  8
0
  6
CONTINUOUS
 62
   253
100
AcDbPolyline
 90
        6
 70
     0
 43
0.0
 10
639.0523492450702
 20
154.4265805106817
 10
639.0500722963906
 20
154.381327715735
 10
639.0482839100071
 20
154.3442098769048
 10
639.0470526316188
 20
154.3166496555535
 10
639.0464256539572
 20
154.299703386406
 10
639.0464270079709
 20
154.2940205901001
  0
LWPOLYLINE
  5
10E
330
1F
100
AcDbEntity
  8
0
  6
CONTINUOUS
 62
   253
100
AcDbPolyline
 90
        8
 70
     0
 43
0.0
 10
640.7895301510058
 20
187.1122927990837
 10
640.7325461964546
 20
187.1077132583902
 10
640.6780381003396
 20
187.096581376191
 10
640.6280065553202
 20
187.0793057427064
 10
640.5842879444654
 20
187.0565204515033
 10
640.5484869377241
 20
187.0290618254053
 10
640.5219175933095
 20
186.9979377196775
 10
640.5055551258428
 20
186.9642905291985
  0
LWPOLYLINE
  5
10F
330
1F
100
AcDbEntity
  8
0
  6
CONTINUOUS
 62
   253
100
AcDbPolyline
 90
        6
 70
     0
 43
0.0
 10
639.0464262059437
 20
185.7059795203939
 10
639.0464262930207
 20
185.7002735219986
 10
639.0470540530691
 20
185.6833163042169
 10
639.0482854494396
 20
185.6557571512825
 10
639.0500733325192
 20
185.6186512907524
 10
639.0523492450702
 20
185.5734194893187
  0
LINE
  5
110
330
1F
100
AcDbEntity
  8
0
  6
CONTINUOUS
 62
     7
100
AcDbLine
 10
640.5055551258429
 20
186.9642905291985
 30
0.0
 11
640.5000000000165
 21
186.9291972534726
 31
0.0
  0
ARC
  5
111
330
1F
100
AcDbEntity
  8
0
  6
CONTINUOUS
 62
     7
100
AcDbCircle
 10
639.1340333886511
 20
149.3864060088324
 30
0.0
 40
1.867010428619698
100
AcDbArc
 50
267.4924344267196
 51
306.8600256294654
  0
LWPOLYLINE
  5
112
330
1F
100
AcDbEntity
  8
0
  6
CONTINUOUS
 62
     7
100
AcDbPolyline
 90
        6
 70
     0
 43
0.0
 10
640.2539822816894
 20
147.8926046774777
 10
640.3272097113344
 20
147.9649752398313
 10
640.4146000902243
 20
148.08319993571
 10
640.4721215738253
 20
148.2092605921156
 10
640.498243273381
 20
148.340063793509
 10
640.5000000000165
 20
148.3844202853594
  0
LINE
  5
113
330
1F
100
AcDbEntity
  8
0
  6
CONTINUOUS
 62
     7
100
AcDbLine
 10
627.6377082770043
 20
147.5105205460193
 30
0.0
 11
639.0523492450654
 21
147.5211833300988
 31
0.0
  0
LWPOLYLINE
  5
114
330
1F
100
AcDbEntity
  8
0
  6
CONTINUOUS
 62
     7
100
AcDbPolyline
 90
        3
 70
     0
 43
0.0
 10
-627.0050989499109
 20
147.3196361044675
 10
-627.0757874333888
 20
147.4082980946814
 10
-627.1971095688308
 20
147.4584272041651
210
0.0
220
0.0
230
-1.0
  0
ARC
  5
115
330
1F
100
AcDbEntity
  8
0
  6
CONTINUOUS
 62
     7
100
AcDbCircle
 10
627.610168569324
 20
145.854137863406
 30
0.0
 40
1.656611610113212
100
AcDbArc
 50
89.0474642949134
 51
104.4384410061004
  0
ARC
  5
116
330
1F
100
AcDbEntity
  8
0
  6
CONTINUOUS
 62
     7
100
AcDbCircle
 10
627.611024617654
 20
194.1696958810737
 30
0.0
 40
1.680428296462089
100
AcDbArc
 50
256.2776233402211
 51
270.9098426416304
  0
LWPOLYLINE
  5
117
330
1F
100
AcDbEntity
  8
0
  6
CONTINUOUS
 62
     7
100
AcDbPolyline
 90
        4
 70
     0
 43
0.0
 10
-627.2123975123807
 20
192.5372328063023
 10
-627.1046909206417
 20
192.5762428551652
 10
-627.0192353085115
 20
192.6401841803442
 10
-627.0050989499109
 20
192.6803638955326
210
0.0
220
0.0
230
-1.0
  0
LINE
  5
118
330
1F
100
AcDbEntity
  8
0
  6
CONTINUOUS
 62
     7
100
AcDbLine
 10
639.0523492450783
 20
192.4788166699012
 30
0.0
 11
627.6377082770168
 21
192.4894794539807
 31
0.0
  0
LWPOLYLINE
  5
119
330
1F
100
AcDbEntity
  8
0
  6
CONTINUOUS
 62
     7
100
AcDbPolyline
 90
        6
 70
     0
 43
0.0
 10
640.5000000000165
 20
191.6155797146406
 10
640.4838827615263
 20
191.7487059355014
 10
640.4363727961846
 20
191.8772825273891
 10
640.3584625173842
 20
191.9980251544984
 10
640.29015694038
 20
192.0735863616656
 10
640.2098300689552
 20
192.1441805108109
  0
ARC
  5
11A
330
1F
100
AcDbEntity
  8
0
  6
CONTINUOUS
 62
     7
100
AcDbCircle
 10
639.1161791743352
 20
190.5304626995044
 30
0.0
 40
1.949399254598916
100
AcDbArc
 50
55.87367124925181
 51
91.87639312791501
  0
LINE
  5
11B
330
1F
100
AcDbEntity
  8
0
  6
CONTINUOUS
 62
     7
100
AcDbLine
 10
640.5000000000165
 20
186.9291972534726
 30
0.0
 11
640.5000000000165
 21
191.9517298217926
 31
0.0
  0
LWPOLYLINE
  5
11C
330
1F
100
AcDbEntity
  8
0
  6
CONTINUOUS
 62
   253
100
AcDbPolyline
 90
        9
 70
     0
 43
0.0
 10
640.7895301510058
 20
192.1891459194758
 10
640.7325146837134
 20
192.1832019668498
 10
640.6779790070938
 20
192.1687524237076
 10
640.6279270691113
 20
192.1463282476601
 10
640.5841980599149
 20
192.1167534292528
 10
640.5483988296329
 20
192.0811147139122
 10
640.5218448436465
 20
192.0407216687966
 10
640.5055118449823
 20
191.9970585619215
 10
640.5000000000165
 20
191.9517298217926
  0
LWPOLYLINE
  5
11D
330
1F
100
AcDbEntity
  8
0
  6
CONTINUOUS
 62
   253
100
AcDbPolyline
 90
        9
 70
     0
 43
0.0
 10
640.5000000000165
 20
148.0482701782073
 10
640.5055118449823
 20
148.0029414380784
 10
640.5218448436465
 20
147.9592783312034
 10
640.5483988296329
 20
147.9188852860877
 10
640.5841980599149
 20
147.8832465707472
 10
640.6279270691113
 20
147.8536717523399
 10
640.6779790070938
 20
147.8312475762924
 10
640.7325146837134
 20
147.8167980331501
 10
640.7895301510058
 20
147.8108540805242
  0
LINE
  5
11E
330
1F
100
AcDbEntity
  8
0
  6
CONTINUOUS
 62
     7
100
AcDbLine
 10
640.5000000000165
 20
148.0482701782073
 30
0.0
 11
640.5000000000165
 21
153.0708027465274
 31
0.0
  0
LWPOLYLINE
  5
11F
330
1F
100
AcDbEntity
  8
0
  6
CONTINUOUS
 62
   253
100
AcDbPolyline
 90
        5
 70
     0
 43
0.0
 10
640.5000000000165
 20
191.9517298217926
 10
640.4838714520542
 20
192.080823581075
 10
640.4363861603375
 20
192.2044591263689
 10
640.3585774967129
 20
192.3196130567306
 10
640.2517461350918
 20
192.4250845265402
  0
ARC
  5
120
330
1F
100
AcDbEntity
  8
0
  6
CONTINUOUS
 62
   253
100
AcDbCircle
 10
639.1630920619376
 20
190.8471610411443
 30
0.0
 40
1.917031616004095
100
AcDbArc
 50
55.39710749218353
 51
93.31169832517085
  0
LWPOLYLINE
  5
121
330
1F
100
AcDbEntity
  8
0
  6
CONTINUOUS
 62
   253
100
AcDbPolyline
 90
       10
 70
     0
 43
0.0
 10
639.0523492450702
 20
193.2220004642101
 10
639.0500732698785
 20
193.1846499731726
 10
639.0482853563598
 20
193.1391947793523
 10
639.0470539670985
 20
193.0873754479406
 10
639.0464262543138
 20
193.0311762389728
 10
639.0464262543139
 20
192.972749126265
 10
639.0470539670985
 20
192.9143313942739
 10
639.0482853563598
 20
192.8581599682507
 10
639.0500732698785
 20
192.8063857581502
 10
639.0523492450701
 20
192.7609912962275
  0
ARC
  5
122
330
1F
100
AcDbEntity
  8
0
  6
CONTINUOUS
 62
   253
100
AcDbCircle
 10
639.1658567986048
 20
149.1416020552238
 30
0.0
 40
1.905976239541474
100
AcDbArc
 50
266.5858157013776
 51
304.8285825037042
  0
LWPOLYLINE
  5
123
330
1F
100
AcDbEntity
  8
0
  6
CONTINUOUS
 62
   253
100
AcDbPolyline
 90
        5
 70
     0
 43
0.0
 10
640.2544039221681
 20
147.5770540101072
 10
640.3599957572709
 20
147.6820928465874
 10
640.4376943994656
 20
147.7981725676511
 10
640.484501194575
 20
147.9211368431331
 10
640.5000000000164
 20
148.0482701782073
  0
LWPOLYLINE
  5
124
330
1F
100
AcDbEntity
  8
0
  6
CONTINUOUS
 62
   253
100
AcDbPolyline
 90
       10
 70
     0
 43
0.0
 10
639.0523492450702
 20
147.2390087037725
 10
639.0500732698785
 20
147.1936142418498
 10
639.0482853563598
 20
147.1418400317493
 10
639.0470539670985
 20
147.0856686057261
 10
639.0464262543139
 20
147.0272508737349
 10
639.0464262543138
 20
146.9688237610272
 10
639.0470539670985
 20
146.9126245520594
 10
639.0482853563598
 20
146.8608052206477
 10
639.0500732698785
 20
146.8153500268274
 10
639.0523492450701
 20
146.7779995357899
  0
LINE
  5
125
330
1F
100
AcDbEntity
  8
0
  6
CONTINUOUS
 62
   253
100
AcDbLine
 10
639.0523492450706
 20
192.4788166699012
 30
0.0
 11
639.0523492450701
 21
192.7609912962275
 31
0.0
  0
LINE
  5
126
330
1F
100
AcDbEntity
  8
0
  6
CONTINUOUS
 62
   253
100
AcDbLine
 10
639.0523492450702
 20
147.2390087037725
 30
0.0
 11
639.0523492450702
 21
147.5211833300988
 31
0.0
  0
LINE
  5
127
330
1F
100
AcDbEntity
  8
0
  6
CONTINUOUS
 62
   253
100
AcDbLine
 10
639.0523492450702
 20
192.7609912962275
 30
0.0
 11
628.8372824593878
 21
192.7039139682748
 31
0.0
  0
LWPOLYLINE
  5
128
330
1F
100
AcDbEntity
  8
0
  6
CONTINUOUS
 62
   253
100
AcDbPolyline
 90
       10
 70
     0
 43
0.0
 10
628.8372824593878
 20
193.1675495729009
 10
628.8349472222611
 20
193.1305537534645
 10
628.8331111626284
 20
193.0851907940883
 10
628.8318458551457
 20
193.0332290677541
 10
628.8312006249807
 20
192.9766941855381
 10
628.8312006249809
 20
192.9177900327162
 10
628.8318458551457
 20
192.8588128552524
 10
628.8331111626284
 20
192.802061745812
 10
628.8349472222611
 20
192.7497490188035
 10
628.8372824593877
 20
192.7039139682747
  0
LINE
  5
129
330
1F
100
AcDbEntity
  8
0
  6
CONTINUOUS
 62
   253
100
AcDbLine
 10
628.8372824593878
 20
147.2960860317252
 30
0.0
 11
639.0523492450702
 21
147.2390087037725
 31
0.0
  0
LWPOLYLINE
  5
12A
330
1F
100
AcDbEntity
  8
0
  6
CONTINUOUS
 62
   253
100
AcDbPolyline
 90
       10
 70
     0
 43
0.0
 10
628.8372824593878
 20
147.2960860317252
 10
628.8349472222611
 20
147.2502509811965
 10
628.8331111626284
 20
147.197938254188
 10
628.8318458551457
 20
147.1411871447476
 10
628.8312006249809
 20
147.0822099672838
 10
628.8312006249807
 20
147.0233058144619
 10
628.8318458551457
 20
146.9667709322458
 10
628.8331111626284
 20
146.9148092059117
 10
628.8349472222611
 20
146.8694462465355
 10
628.8372824593877
 20
146.8324504270991
  0
ARC
  5
12B
330
1F
100
AcDbEntity
  8
0
  6
CONTINUOUS
 62
   253
100
AcDbCircle
 10
628.8403705005605
 20
189.224135879012
 30
0.0
 40
3.479779459464649
100
AcDbArc
 50
90.0508456790011
 51
110.2193113833138
  0
ARC
  5
12C
330
1F
100
AcDbEntity
  8
0
  6
CONTINUOUS
 62
   253
100
AcDbCircle
 10
628.8435589233765
 20
150.7937005672563
 30
0.0
 40
3.497620167079107
100
AcDbArc
 50
249.8326600169081
 51
269.8971829207733
  0
LINE
  5
12D
330
1F
100
AcDbEntity
  8
0
  6
CONTINUOUS
 62
     7
100
AcDbLine
 10
627.0186823148481
 20
143.7231423162962
 30
0.0
 11
627.0050989498544
 21
143.7393164549611
 31
0.0
  0
LWPOLYLINE
  5
12E
330
1F
100
AcDbEntity
  8
0
  6
CONTINUOUS
 62
     7
100
AcDbPolyline
 90
        3
 70
     0
 43
0.0
 10
628.8338052592843
 20
143.0010059707733
 10
628.835392131543
 20
142.9997754268529
 10
628.8372824593878
 20
143.0058933277614
  0
LWPOLYLINE
  5
12F
330
1F
100
AcDbEntity
  8
0
  6
CONTINUOUS
 62
     7
100
AcDbPolyline
 90
        3
 70
     0
 43
0.0
 10
628.8372824593878
 20
196.9941066722386
 10
628.8353921320054
 20
197.0002245724972
 10
628.8338052600371
 20
196.9989940318271
  0
LINE
  5
130
330
1F
100
AcDbEntity
  8
0
  6
CONTINUOUS
 62
     7
100
AcDbLine
 10
627.0050989498543
 20
196.2606835450389
 30
0.0
 11
627.01780536702
 21
196.27631521938
 31
0.0
  0
LWPOLYLINE
  5
131
330
1F
100
AcDbEntity
  8
0
  6
CONTINUOUS
 62
   253
100
AcDbPolyline
 90
        5
 70
     0
 43
0.0
 10
640.5673415711215
 20
142.3191995714571
 10
640.6126737035999
 20
142.274637355635
 10
640.6664853268867
 20
142.2405947258254
 10
640.7263406101684
 20
142.2186126518338
 10
640.7895301510057
 20
142.2096861717191
  0
LWPOLYLINE
  5
132
330
1F
100
AcDbEntity
  8
0
  6
CONTINUOUS
 62
     7
100
AcDbPolyline
 90
        3
 70
     0
 43
0.0
 10
639.0490157501811
 20
142.5637854553079
 10
639.0505401920882
 20
142.5621696497896
 10
639.0523492450702
 20
142.5674954718801
  0
LWPOLYLINE
  5
133
330
1F
100
AcDbEntity
  8
0
  6
CONTINUOUS
 62
   253
100
AcDbPolyline
 90
        6
 70
     0
 43
0.0
 10
640.7895301510058
 20
197.7903138282809
 10
640.7367759027877
 20
197.7838127889104
 10
640.6860068767933
 20
197.7681792642307
 10
640.6388172088517
 20
197.7439041433486
 10
640.5966886437661
 20
197.7117496595196
 10
640.5609440088656
 20
197.6727254561974
  0
LWPOLYLINE
  5
134
330
1F
100
AcDbEntity
  8
0
  6
CONTINUOUS
 62
     7
100
AcDbPolyline
 90
        3
 70
     0
 43
0.0
 10
639.0523492450702
 20
197.4325045281199
 10
639.050540843044
 20
197.4378296252261
 10
639.0490168160421
 20
197.4362185010446
  0
LINE
  5
135
330
1F
100
AcDbEntity
  8
0
  6
CONTINUOUS
 62
     7
100
AcDbLine
 10
640.5000000000165
 20
197.6526751986309
 30
0.0
 11
640.5000000000165
 21
197.7214025946734
 31
0.0
  0
LINE
  5
136
330
1F
100
AcDbEntity
  8
0
  6
CONTINUOUS
 62
     7
100
AcDbLine
 10
640.5000000000165
 20
142.2785974053266
 30
0.0
 11
640.5000000000165
 21
142.3438695905766
 31
0.0
  0
LINE
  5
137
330
1F
100
AcDbEntity
  8
0
  6
CONTINUOUS
 62
     7
100
AcDbLine
 10
653.5000000000164
 20
141.5000000000001
 30
0.0
 11
653.5000000000164
 21
170.0
 31
0.0
  0
LINE
  5
138
330
1F
100
AcDbEntity
  8
0
  6
CONTINUOUS
 62
   253
100
AcDbLine
 10
655.4019237886632
 20
141.5
 30
0.0
 11
655.4019237886632
 21
198.5
 31
0.0
  0
LINE
  5
139
330
1F
100
AcDbEntity
  8
0
  6
CONTINUOUS
 62
     7
100
AcDbLine
 10
653.5000000000164
 20
170.0
 30
0.0
 11
653.5000000000164
 21
198.4999999999999
 31
0.0
  0
LINE
  5
13A
330
1F
100
AcDbEntity
  8
0
  6
CONTINUOUS
 62
   253
100
AcDbLine
 10
656.2679491924475
 20
198.0
 30
0.0
 11
656.2679491924475
 21
170.0
 31
0.0
  0
LINE
  5
13B
330
1F
100
AcDbEntity
  8
0
  6
CONTINUOUS
 62
   253
100
AcDbLine
 10
656.2679491924475
 20
170.0
 30
0.0
 11
656.2679491924475
 21
142.0
 31
0.0
  0
LINE
  5
13C
330
1F
100
AcDbEntity
  8
0
  6
CONTINUOUS
 62
   253
100
AcDbLine
 10
657.2927840272818
 20
143.7750660032992
 30
0.0
 11
657.2927840272818
 21
196.2249339967008
 31
0.0
  0
LINE
  5
13D
330
1F
100
AcDbEntity
  8
0
  6
CONTINUOUS
 62
   253
100
AcDbLine
 10
659.4142165206466
 20
194.9753147588098
 30
0.0
 11
659.4142165206466
 21
145.0246852411902
 31
0.0
  0
LINE
  5
13E
330
1F
100
AcDbEntity
  8
0
  6
CONTINUOUS
 62
   253
100
AcDbLine
 10
680.008726203235
 20
145.3841637448644
 30
0.0
 11
680.008726203235
 21
194.6158362551356
 31
0.0
  0
LINE
  5
13F
330
1F
100
AcDbEntity
  8
0
  6
CONTINUOUS
 62
     7
100
AcDbLine
 10
680.5000000000164
 20
194.1159124075573
 30
0.0
 11
680.5000000000164
 21
145.8840875924427
 31
0.0
  0
LINE
  5
140
330
1F
100
AcDbEntity
  8
0
  6
CONTINUOUS
 62
   253
100
AcDbLine
 10
696.3014011617065
 20
148.2411809548975
 30
0.0
 11
696.3014011617065
 21
191.4604589486704
 31
0.0
  0
LINE
  5
141
330
1F
100
AcDbEntity
  8
0
  6
CONTINUOUS
 62
     7
100
AcDbLine
 10
696.4810025293673
 20
191.8296521089615
 30
0.0
 11
696.3014011617064
 21
191.4604589486704
 31
0.0
  0
LWPOLYLINE
  5
142
330
1F
100
AcDbEntity
  8
0
  6
CONTINUOUS
 62
     7
100
AcDbPolyline
 90
        5
 70
     0
 43
0.0
 10
697.2673269879954
 20
192.281212288442
 10
697.1503212320338
 20
192.2626296955808
 10
697.0388399702525
 20
192.231864999445
 10
696.9289345861645
 20
192.1884373600227
 10
696.8070168971842
 20
192.1234864492373
  0
ARC
  5
143
330
1F
100
AcDbEntity
  8
0
  6
CONTINUOUS
 62
     7
100
AcDbCircle
 10
697.4343608349395
 20
191.0996608107402
 30
0.0
 40
1.200741168729813
100
AcDbArc
 50
121.4976719614805
 51
142.5585358813904
  0
LINE
  5
144
330
1F
100
AcDbEntity
  8
0
  6
CONTINUOUS
 62
   253
100
AcDbLine
 10
697.2673269879954
 20
192.2812122884419
 30
0.0
 11
697.2673269879954
 21
147.5
 31
0.0
  0
LINE
  5
145
330
1F
100
AcDbEntity
  8
0
  6
CONTINUOUS
 62
     7
100
AcDbLine
 10
700.5000000000165
 20
147.7054855626233
 30
0.0
 11
700.5000000000165
 21
152.0900974182929
 31
0.0
  0
LINE
  5
146
330
1F
100
AcDbEntity
  8
0
  6
CONTINUOUS
 62
     7
100
AcDbLine
 10
700.5000000000165
 20
156.3806978949114
 30
0.0
 11
700.5000000000165
 21
166.9660873026109
 31
0.0
  0
LINE
  5
147
330
1F
100
AcDbEntity
  8
0
  6
CONTINUOUS
 62
     7
100
AcDbLine
 10
688.9581655870252
 20
192.5
 30
0.0
 11
688.9587156841479
 21
192.4999198312742
 31
0.0
  0
ARC
  5
148
330
1F
100
AcDbEntity
  8
0
  6
CONTINUOUS
 62
     7
100
AcDbCircle
 10
692.0110925859249
 20
213.6902915545344
 30
0.0
 40
21.409082139767
100
AcDbArc
 50
261.8031584822585
 51
269.9703136089302
  0
ARC
  5
149
330
1F
100
AcDbEntity
  8
0
  6
CONTINUOUS
 62
     7
100
AcDbCircle
 10
692.0000000000164
 20
214.9321944308092
 30
0.0
 40
22.50035215239143
100
AcDbArc
 50
265.5392262600744
 51
274.4607737399255
  0
LINE
  5
14A
330
1F
100
AcDbEntity
  8
0
  6
CONTINUOUS
 62
     7
100
AcDbLine
 10
700.5000000000165
 20
173.0339126873692
 30
0.0
 11
700.5000000000165
 21
183.6193020950687
 31
0.0
  0
LINE
  5
14B
330
1F
100
AcDbEntity
  8
0
  6
CONTINUOUS
 62
     7
100
AcDbLine
 10
700.5000000000165
 20
187.9099025716872
 30
0.0
 11
700.5000000000165
 21
192.2945144273568
 31
0.0
  0
LINE
  5
14C
330
1F
100
AcDbEntity
  8
0
  6
CONTINUOUS
 62
   253
100
AcDbLine
 10
692.0000000000164
 20
192.281212288442
 30
0.0
 11
697.2673269879954
 21
192.281212288442
 31
0.0
  0
LINE
  5
14D
330
1F
100
AcDbEntity
  8
0
  6
CONTINUOUS
 62
     7
100
AcDbLine
 10
696.3014011617065
 20
191.4604589486704
 30
0.0
 11
696.2273246955588
 21
191.175871391168
 31
0.0
  0
LINE
  5
14E
330
1F
100
AcDbEntity
  8
0
  6
CONTINUOUS
 62
   253
100
AcDbLine
 10
696.2273246955588
 20
191.175871391168
 30
0.0
 11
696.2273246955588
 21
148.517638090205
 31
0.0
  0
LINE
  5
14F
330
1F
100
AcDbEntity
  8
0
  6
CONTINUOUS
 62
   253
100
AcDbLine
 10
694.2954730429808
 20
150.0
 30
0.0
 11
694.2954730429808
 21
189.6453396974325
 31
0.0
  0
ARC
  5
150
330
1F
100
AcDbEntity
  8
0
  6
CONTINUOUS
 62
     7
100
AcDbCircle
 10
694.2721133227457
 20
191.6592911649555
 30
0.0
 40
2.014086937067838
100
AcDbArc
 50
270.6645410205212
 51
346.1123194487457
  0
ARC
  5
151
330
1F
100
AcDbEntity
  8
0
  6
CONTINUOUS
 62
     7
100
AcDbCircle
 10
692.0272934750362
 20
209.6048168039244
 30
0.0
 40
19.95949576763789
100
AcDbArc
 50
259.1825278991082
 51
269.9216512565027
  0
LINE
  5
152
330
1F
100
AcDbEntity
  8
0
  6
CONTINUOUS
 62
     7
100
AcDbLine
 10
692.0000000000164
 20
189.6453396974325
 30
0.0
 11
694.2954730429807
 21
189.6453396974325
 31
0.0
  0
ARC
  5
153
330
1F
100
AcDbEntity
  8
0
  6
CONTINUOUS
 62
   253
100
AcDbCircle
 10
692.0144193280921
 20
221.463689271237
 30
0.0
 40
29.63404067035324
100
AcDbArc
 50
263.1112739959762
 51
269.9721210251432
  0
LINE
  5
154
330
1F
100
AcDbEntity
  8
0
  6
CONTINUOUS
 62
   253
100
AcDbLine
 10
692.0000000000164
 20
191.8296521089615
 30
0.0
 11
692.0000000000164
 21
189.6453396974325
 31
0.0
  0
LINE
  5
155
330
1F
100
AcDbEntity
  8
0
  6
CONTINUOUS
 62
   253
100
AcDbLine
 10
696.4810025293673
 20
191.8296521089615
 30
0.0
 11
692.0000000000164
 21
191.8296521089615
 31
0.0
  0
LINE
  5
156
330
1F
100
AcDbEntity
  8
0
  6
CONTINUOUS
 62
   253
100
AcDbLine
 10
692.0000000000164
 20
192.281212288442
 30
0.0
 11
692.0000000000164
 21
191.8296521089615
 31
0.0
  0
LINE
  5
157
330
1F
100
AcDbEntity
  8
0
  6
CONTINUOUS
 62
   132
100
AcDbLine
 10
738.2805000000166
 20
187.9359361425289
 30
0.0
 11
738.2805000000166
 21
187.95
 31
0.0
  0
LINE
  5
158
330
1F
100
AcDbEntity
  8
0
  6
CONTINUOUS
 62
   132
100
AcDbLine
 10
731.7195000000165
 20
187.95
 30
0.0
 11
731.7195000000165
 21
187.935936142545
 31
0.0
  0
LWPOLYLINE
  5
159
330
1F
100
AcDbEntity
  8
0
  6
CONTINUOUS
 62
     7
100
AcDbPolyline
 90
        6
 70
     0
 43
0.0
 10
738.5000000000164
 20
195.45
 10
738.4353708721192
 20
195.8325700292765
 10
738.2438703022405
 20
196.2010113914948
 10
737.9325705845647
 20
196.5417172044142
 10
737.5129683072452
 20
196.8421048854297
 10
737.0005597727088
 20
197.0910808380527
  0
LWPOLYLINE
  5
15A
330
1F
100
AcDbEntity
  8
0
  6
CONTINUOUS
 62
     7
100
AcDbPolyline
 90
        6
 70
     0
 43
0.0
 10
732.999440227324
 20
197.0910808380527
 10
732.4870316927876
 20
196.8421048854297
 10
732.0674294154683
 20
196.5417172044142
 10
731.7561296977925
 20
196.2010113914948
 10
731.5646291279138
 20
195.8325700292765
 10
731.5000000000165
 20
195.45
  0
ARC
  5
15B
330
1F
100
AcDbEntity
  8
0
  6
CONTINUOUS
 62
     7
100
AcDbCircle
 10
738.3090169943915
 20
192.95
 30
0.0
 40
0.4999999999999449
100
AcDbArc
 50
90.0
 51
153.4349488229217
  0
ARC
  5
15C
330
1F
100
AcDbEntity
  8
0
  6
CONTINUOUS
 62
     7
100
AcDbCircle
 10
731.6909830056414
 20
192.95
 30
0.0
 40
0.500000000000167
100
AcDbArc
 50
26.56505117707832
 51
90.0
  0
LINE
  5
15D
330
1F
100
AcDbEntity
  8
0
  6
CONTINUOUS
 62
     7
100
AcDbLine
 10
738.0000000000164
 20
187.95
 30
0.0
 11
738.0000000000164
 21
189.798612181134
 31
0.0
  0
LINE
  5
15E
330
1F
100
AcDbEntity
  8
0
  6
CONTINUOUS
 62
     7
100
AcDbLine
 10
732.0000000000164
 20
189.798612181134
 30
0.0
 11
732.0000000000164
 21
187.95
 31
0.0
  0
ARC
  5
15F
330
1F
100
AcDbEntity
  8
0
  6
CONTINUOUS
 62
     7
100
AcDbCircle
 10
732.5000000000166
 20
189.798612181134
 30
0.0
 40
0.4999999999999449
100
AcDbArc
 50
146.3099324740195
 51
180.0
  0
ARC
  5
160
330
1F
100
AcDbEntity
  8
0
  6
CONTINUOUS
 62
     7
100
AcDbCircle
 10
737.5000000000165
 20
189.798612181134
 30
0.0
 40
0.500000000000167
100
AcDbArc
 50
0.0
 51
33.69006752598045
  0
LINE
  5
161
330
1F
100
AcDbEntity
  8
0
  6
CONTINUOUS
 62
     7
100
AcDbLine
 10
737.9160251471855
 20
190.0759622792466
 30
0.0
 11
737.1609525121665
 21
191.2085712317751
 31
0.0
  0
LINE
  5
162
330
1F
100
AcDbEntity
  8
0
  6
CONTINUOUS
 62
     7
100
AcDbLine
 10
732.8390474878665
 20
191.2085712317751
 30
0.0
 11
732.0839748528476
 21
190.0759622792466
 31
0.0
  0
LINE
  5
163
330
1F
100
AcDbEntity
  8
0
  6
CONTINUOUS
 62
     7
100
AcDbLine
 10
732.1381966011415
 20
193.17360679775
 30
0.0
 11
732.8702359361976
 21
191.7095281276377
 31
0.0
  0
LINE
  5
164
330
1F
100
AcDbEntity
  8
0
  6
CONTINUOUS
 62
     7
100
AcDbLine
 10
737.1297640638354
 20
191.7095281276377
 30
0.0
 11
737.8618033988915
 21
193.17360679775
 31
0.0
  0
ARC
  5
165
330
1F
100
AcDbEntity
  8
0
  6
CONTINUOUS
 62
     7
100
AcDbCircle
 10
737.5769776593353
 20
191.4859213298878
 30
0.0
 40
0.4999999999999449
100
AcDbArc
 50
153.4349488229217
 51
213.6900675259805
  0
ARC
  5
166
330
1F
100
AcDbEntity
  8
0
  6
CONTINUOUS
 62
     7
100
AcDbCircle
 10
732.4230223406978
 20
191.4859213298878
 30
0.0
 40
0.4999999999999449
100
AcDbArc
 50
326.3099324740196
 51
26.56505117707838
  0
LINE
  5
167
330
1F
100
AcDbEntity
  8
0
  6
CONTINUOUS
 62
     7
100
AcDbLine
 10
719.4999999999834
 20
153.55
 30
0.0
 11
742.4999999999834
 21
153.55
 31
0.0
  0
LINE
  5
168
330
1F
100
AcDbEntity
  8
0
  6
CONTINUOUS
 62
     7
100
AcDbLine
 10
730.5567064028094
 20
186.45
 30
0.0
 11
719.4999999999833
 21
186.45
 31
0.0
  0
LINE
  5
169
330
1F
100
AcDbEntity
  8
0
  6
CONTINUOUS
 62
     7
100
AcDbLine
 10
742.4999999999833
 20
186.45
 30
0.0
 11
739.4432935971572
 21
186.45
 31
0.0
  0
LINE
  5
16A
330
1F
100
AcDbEntity
  8
0
  6
CONTINUOUS
 62
     7
100
AcDbLine
 10
739.4432935971573
 20
186.45
 30
0.0
 11
739.4421946457438
 21
186.45
 31
0.0
  0
ARC
  5
16B
330
1F
100
AcDbEntity
  8
0
  6
CONTINUOUS
 62
     7
100
AcDbCircle
 10
719.4999999999834
 20
154.05
 30
0.0
 40
0.500000000000167
100
AcDbArc
 50
180.0
 51
270.0
  0
ARC
  5
16C
330
1F
100
AcDbEntity
  8
0
  6
CONTINUOUS
 62
     7
100
AcDbCircle
 10
719.4999999999834
 20
185.95
 30
0.0
 40
0.500000000000167
100
AcDbArc
 50
90.0
 51
180.0
  0
LINE
  5
16D
330
1F
100
AcDbEntity
  8
0
  6
CONTINUOUS
 62
     7
100
AcDbLine
 10
742.4999999999833
 20
153.55
 30
0.0
 11
742.9999999999833
 21
154.05
 31
0.0
  0
LINE
  5
16E
330
1F
100
AcDbEntity
  8
0
  6
CONTINUOUS
 62
     7
100
AcDbLine
 10
742.9999999999834
 20
185.95
 30
0.0
 11
742.4999999999835
 21
186.45
 31
0.0
  0
ARC
  5
16F
330
1F
100
AcDbEntity
  8
0
  6
CONTINUOUS
 62
     7
100
AcDbCircle
 10
718.4999999999835
 20
154.65
 30
0.0
 40
0.4999999999999449
100
AcDbArc
 50
0.0
 51
90.0
  0
ARC
  5
170
330
1F
100
AcDbEntity
  8
0
  6
CONTINUOUS
 62
     7
100
AcDbCircle
 10
718.4999999999835
 20
185.35
 30
0.0
 40
0.4999999999999449
100
AcDbArc
 50
270.0
 51
0.0
  0
LINE
  5
171
330
1F
100
AcDbEntity
  8
0
  6
CONTINUOUS
 62
     7
100
AcDbLine
 10
705.9999999999833
 20
184.85
 30
0.0
 11
705.4999999999833
 21
184.35
 31
0.0
  0
LINE
  5
172
330
1F
100
AcDbEntity
  8
0
  6
CONTINUOUS
 62
     7
100
AcDbLine
 10
705.4999999999835
 20
155.65
 30
0.0
 11
705.9999999999835
 21
155.15
 31
0.0
  0
LINE
  5
173
330
1F
100
AcDbEntity
  8
0
  6
CONTINUOUS
 62
     7
100
AcDbLine
 10
705.9999999999833
 20
155.15
 30
0.0
 11
718.4999999999834
 21
155.15
 31
0.0
  0
LINE
  5
174
330
1F
100
AcDbEntity
  8
0
  6
CONTINUOUS
 62
     7
100
AcDbLine
 10
718.4999999999835
 20
184.85
 30
0.0
 11
705.9999999999835
 21
184.85
 31
0.0
  0
ARC
  5
175
330
1F
100
AcDbEntity
  8
0
  6
CONTINUOUS
 62
     7
100
AcDbCircle
 10
739.4432935971573
 20
186.95
 30
0.0
 40
0.500000000000167
100
AcDbArc
 50
201.9999999999998
 51
270.0
  0
ARC
  5
176
330
1F
100
AcDbEntity
  8
0
  6
CONTINUOUS
 62
     7
100
AcDbCircle
 10
730.5567064028094
 20
186.95
 30
0.0
 40
0.4999999999999449
100
AcDbArc
 50
270.0
 51
337.9999999999998
  0
LINE
  5
177
330
1F
100
AcDbEntity
  8
0
  6
CONTINUOUS
 62
     7
100
AcDbLine
 10
738.9796812426858
 20
186.7627472623567
 30
0.0
 11
738.6263376688455
 21
187.637303296708
 31
0.0
  0
LINE
  5
178
330
1F
100
AcDbEntity
  8
0
  6
CONTINUOUS
 62
     7
100
AcDbLine
 10
731.3736623311211
 20
187.637303296708
 30
0.0
 11
731.0203011899747
 21
186.7627037817483
 31
0.0
  0
ARC
  5
179
330
1F
100
AcDbEntity
  8
0
  6
CONTINUOUS
 62
     7
100
AcDbCircle
 10
738.1627457415623
 20
187.45
 30
0.0
 40
0.4999999999999449
100
AcDbArc
 50
22.00000000000068
 51
76.37840000827968
  0
ARC
  5
17A
330
1F
100
AcDbEntity
  8
0
  6
CONTINUOUS
 62
     7
100
AcDbCircle
 10
731.8372542584046
 20
187.45
 30
0.0
 40
0.4999999999999449
100
AcDbArc
 50
103.6215999839102
 51
157.9999999999993
  0
LINE
  5
17B
330
1F
100
AcDbEntity
  8
0
  6
CONTINUOUS
 62
     7
100
AcDbLine
 10
705.5000000015863
 20
194.4999999946708
 30
0.0
 11
700.5000000015885
 21
194.4999999949898
 31
0.0
  0
LINE
  5
17C
330
1F
100
AcDbEntity
  8
0
  6
CONTINUOUS
 62
     7
100
AcDbLine
 10
700.4999999984614
 20
145.4999999949903
 30
0.0
 11
705.4999999984591
 21
145.4999999946712
 31
0.0
  0
LINE
  5
17D
330
1F
100
AcDbEntity
  8
0
  6
CONTINUOUS
 62
     7
100
AcDbLine
 10
653.5000000000164
 20
198.4650792305083
 30
0.0
 11
640.7895301510056
 21
198.0212198427791
 31
0.0
  0
LINE
  5
17E
330
1F
100
AcDbEntity
  8
0
  6
CONTINUOUS
 62
     7
100
AcDbLine
 10
640.7895301510056
 20
141.9787801572209
 30
0.0
 11
653.5000000000164
 21
141.5349207694917
 31
0.0
  0
ARC
  5
17F
330
1F
100
AcDbEntity
  8
0
  6
CONTINUOUS
 62
     7
100
AcDbCircle
 10
628.9419809494954
 20
194.6056656751746
 30
0.0
 40
3.000000000000003
100
AcDbArc
 50
130.2127270658873
 51
155.0
  0
ARC
  5
180
330
1F
100
AcDbEntity
  8
0
  6
CONTINUOUS
 62
     7
100
AcDbCircle
 10
628.9419809494954
 20
145.3943343248254
 30
0.0
 40
3.000000000000003
100
AcDbArc
 50
204.9999999999999
 51
229.7872729341126
  0
LINE
  5
181
330
1F
100
AcDbEntity
  8
0
  6
CONTINUOUS
 62
     7
100
AcDbLine
 10
626.2230575883854
 20
195.8735204603967
 30
0.0
 11
625.8524722064111
 21
195.0787975441133
 31
0.0
  0
LINE
  5
182
330
1F
100
AcDbEntity
  8
0
  6
CONTINUOUS
 62
     7
100
AcDbLine
 10
625.8524722064111
 20
144.9212024558867
 30
0.0
 11
626.2230575883854
 21
144.1264795396033
 31
0.0
  0
ARC
  5
183
330
1F
100
AcDbEntity
  8
0
  6
CONTINUOUS
 62
     7
100
AcDbCircle
 10
624.4930105258562
 20
144.2872750632756
 30
0.0
 40
1.499999999999946
100
AcDbArc
 50
25.00000000000017
 51
80.00000000000063
  0
ARC
  5
184
330
1F
100
AcDbEntity
  8
0
  6
CONTINUOUS
 62
     7
100
AcDbCircle
 10
624.4930105258562
 20
195.7127249367244
 30
0.0
 40
1.499999999999946
100
AcDbArc
 50
279.9999999999993
 51
334.9999999999998
  0
LINE
  5
185
330
1F
100
AcDbEntity
  8
0
  6
CONTINUOUS
 62
     7
100
AcDbLine
 10
624.7534827923566
 20
194.235513307206
 30
0.0
 11
622.0000000000165
 21
193.75
 31
0.0
  0
LINE
  5
186
330
1F
100
AcDbEntity
  8
0
  6
CONTINUOUS
 62
     7
100
AcDbLine
 10
622.0000000000164
 20
146.25
 30
0.0
 11
624.7534827923565
 21
145.764486692794
 31
0.0
  0
ARC
  5
187
330
1F
100
AcDbEntity
  8
0
  6
CONTINUOUS
 62
     7
100
AcDbCircle
 10
629.0195223875768
 20
158.6507646062871
 30
0.0
 40
3.799852243937307
100
AcDbArc
 50
241.3885277213834
 51
267.1594184830636
  0
ARC
  5
188
330
1F
100
AcDbEntity
  8
0
  6
CONTINUOUS
 62
     7
100
AcDbCircle
 10
629.0179773621942
 20
181.3590337141418
 30
0.0
 40
3.789989543254935
100
AcDbArc
 50
92.82459383768764
 51
119.3581520577506
  0
ARC
  5
189
330
1F
100
AcDbEntity
  8
0
  6
CONTINUOUS
 62
     7
100
AcDbCircle
 10
638.9743831150565
 20
152.5942347740028
 30
0.0
 40
1.701311714857545
100
AcDbArc
 50
42.67937330798832
 51
87.5730576144046
  0
LWPOLYLINE
  5
18A
330
1F
100
AcDbEntity
  8
0
  6
CONTINUOUS
 62
     7
100
AcDbPolyline
 90
        7
 70
     0
 43
0.0
 10
-640.2251172023871
 20
153.7475455707531
 10
-640.3108258424246
 20
153.637290455066
 10
-640.3898620542157
 20
153.5060820999216
 10
-640.4363523148215
 20
153.4036597601612
 10
-640.477238756829
 20
153.2760021745964
 10
-640.5013555046588
 20
153.1360652509978
 10
-640.5055118449823
 20
153.0358451742029
210
0.0
220
0.0
230
-1.0
  0
LWPOLYLINE
  5
18B
330
1F
100
AcDbEntity
  8
0
  6
CONTINUOUS
 62
     7
100
AcDbPolyline
 90
        6
 70
     0
 43
0.0
 10
-640.5055118449823
 20
186.9641548257971
 10
-640.5006720045552
 20
186.8578284141061
 10
-640.484927438585
 20
186.7579073292987
 10
-640.4427678592477
 20
186.6133811165133
 10
-640.4021154075572
 20
186.5185245158873
 10
-640.330633892089
 20
186.3922296465475
210
0.0
220
0.0
230
-1.0
  0
ARC
  5
18C
330
1F
100
AcDbEntity
  8
0
  6
CONTINUOUS
 62
     7
100
AcDbCircle
 10
638.9938535050585
 20
187.3490810317753
 30
0.0
 40
1.643942327626435
100
AcDbArc
 50
271.8326028497422
 51
324.405366607474
  0
LINE
  5
18D
330
1F
100
AcDbEntity
  8
0
  6
CONTINUOUS
 62
     7
100
AcDbLine
 10
639.0464265563609
 20
185.705979481137
 30
0.0
 11
628.8312115936095
 21
185.1444187284075
 31
0.0
  0
LINE
  5
18E
330
1F
100
AcDbEntity
  8
0
  6
CONTINUOUS
 62
     7
100
AcDbLine
 10
628.8312115936096
 20
154.8555812715925
 30
0.0
 11
639.0464265563609
 21
154.2940205188629
 31
0.0
  0
ARC
  5
18F
330
1F
100
AcDbEntity
  8
0
  6
CONTINUOUS
 62
     7
100
AcDbCircle
 10
628.9674836812966
 20
145.9740554604927
 30
0.0
 40
2.976053293857639
100
AcDbArc
 50
228.7499671933583
 51
267.4255208165485
  0
ARC
  5
190
330
1F
100
AcDbEntity
  8
0
  6
CONTINUOUS
 62
     7
100
AcDbCircle
 10
628.9675346585627
 20
194.025682237146
 30
0.0
 40
2.97631762152617
100
AcDbArc
 50
92.57523272178553
 51
131.5616154328875
  0
LINE
  5
191
330
1F
100
AcDbEntity
  8
0
  6
CONTINUOUS
 62
     7
100
AcDbLine
 10
627.0050989499109
 20
143.103376420482
 30
0.0
 11
628.3245058089146
 21
143.0688265359543
 31
0.0
  0
LINE
  5
192
330
1F
100
AcDbEntity
  8
0
  6
CONTINUOUS
 62
     7
100
AcDbLine
 10
628.3244763528631
 20
196.9311726927119
 30
0.0
 11
627.0050989499109
 21
196.896623579518
 31
0.0
  0
ARC
  5
193
330
1F
100
AcDbEntity
  8
0
  6
CONTINUOUS
 62
     7
100
AcDbCircle
 10
638.9149469007573
 20
136.7386708333387
 30
0.0
 40
5.826641275048505
100
AcDbArc
 50
73.51252772173768
 51
88.68148634243364
  0
ARC
  5
194
330
1F
100
AcDbEntity
  8
0
  6
CONTINUOUS
 62
     7
100
AcDbCircle
 10
638.9548698839527
 20
202.9350431469059
 30
0.0
 40
5.499618470885759
100
AcDbArc
 50
270.9809177053573
 51
287.1752514426778
  0
ARC
  5
195
330
1F
100
AcDbEntity
  8
0
  6
CONTINUOUS
 62
     7
100
AcDbCircle
 10
640.8000000000166
 20
197.7214025946734
 30
0.0
 40
0.300000000000078
100
AcDbArc
 50
92.00000000001648
 51
180.0
  0
ARC
  5
196
330
1F
100
AcDbEntity
  8
0
  6
CONTINUOUS
 62
     7
100
AcDbCircle
 10
640.8000000000166
 20
142.2785974053266
 30
0.0
 40
0.300000000000078
100
AcDbArc
 50
180.0
 51
267.9999999999835
  0
LINE
  5
197
330
1F
100
AcDbEntity
  8
0
  6
CONTINUOUS
 62
     7
100
AcDbLine
 10
640.42810777669
 20
142.3736096944597
 30
0.0
 11
640.5001720413509
 21
142.3506646133329
 31
0.0
  0
LINE
  5
198
330
1F
100
AcDbEntity
  8
0
  6
CONTINUOUS
 62
     7
100
AcDbLine
 10
653.5000000000164
 20
141.5
 30
0.0
 11
654.5000000000164
 21
141.5
 31
0.0
  0
LINE
  5
199
330
1F
100
AcDbEntity
  8
0
  6
CONTINUOUS
 62
     7
100
AcDbLine
 10
654.5000000000165
 20
141.5
 30
0.0
 11
655.4019237886631
 21
141.5
 31
0.0
  0
LINE
  5
19A
330
1F
100
AcDbEntity
  8
0
  6
CONTINUOUS
 62
     7
100
AcDbLine
 10
655.4019237886632
 20
198.5
 30
0.0
 11
654.5000000000165
 21
198.5
 31
0.0
  0
LINE
  5
19B
330
1F
100
AcDbEntity
  8
0
  6
CONTINUOUS
 62
     7
100
AcDbLine
 10
654.5000000000165
 20
198.5
 30
0.0
 11
653.5000000000165
 21
198.5
 31
0.0
  0
ARC
  5
19C
330
1F
100
AcDbEntity
  8
0
  6
CONTINUOUS
 62
     7
100
AcDbCircle
 10
655.4019237886632
 20
197.5
 30
0.0
 40
0.9999999999998899
100
AcDbArc
 50
29.99999999999974
 51
90.00000000000001
  0
ARC
  5
19D
330
1F
100
AcDbEntity
  8
0
  6
CONTINUOUS
 62
     7
100
AcDbCircle
 10
655.4019237886632
 20
142.5
 30
0.0
 40
0.9999999999998899
100
AcDbArc
 50
270.0
 51
330.0000000000002
  0
LINE
  5
19E
330
1F
100
AcDbEntity
  8
0
  6
CONTINUOUS
 62
     7
100
AcDbLine
 10
656.2679491924475
 20
142.0
 30
0.0
 11
657.2927840272818
 21
143.7750660032992
 31
0.0
  0
LINE
  5
19F
330
1F
100
AcDbEntity
  8
0
  6
CONTINUOUS
 62
     7
100
AcDbLine
 10
657.2927840272818
 20
196.2249339967008
 30
0.0
 11
656.2679491924475
 21
198.0
 31
0.0
  0
ARC
  5
1A0
330
1F
100
AcDbEntity
  8
0
  6
CONTINUOUS
 62
     7
100
AcDbCircle
 10
659.4578475367429
 20
142.5250660032992
 30
0.0
 40
2.500000000000058
100
AcDbArc
 50
91.00000000007054
 51
149.9999999999999
  0
ARC
  5
1A1
330
1F
100
AcDbEntity
  8
0
  6
CONTINUOUS
 62
     7
100
AcDbCircle
 10
659.4578475367429
 20
197.4749339967008
 30
0.0
 40
2.500000000000058
100
AcDbArc
 50
210.0
 51
268.9999999999295
  0
LINE
  5
1A2
330
1F
100
AcDbEntity
  8
0
  6
CONTINUOUS
 62
     7
100
AcDbLine
 10
659.4142165206466
 20
145.0246852411902
 30
0.0
 11
680.008726203235
 21
145.3841637448646
 31
0.0
  0
LINE
  5
1A3
330
1F
100
AcDbEntity
  8
0
  6
CONTINUOUS
 62
     7
100
AcDbLine
 10
680.008726203235
 20
194.6158362551354
 30
0.0
 11
659.4142165206466
 21
194.9753147588098
 31
0.0
  0
ARC
  5
1A4
330
1F
100
AcDbEntity
  8
0
  6
CONTINUOUS
 62
     7
100
AcDbCircle
 10
680.0000000000164
 20
145.8840875924427
 30
0.0
 40
0.500000000000056
100
AcDbArc
 50
271.0000000000002
 51
359.9999999999987
  0
ARC
  5
1A5
330
1F
100
AcDbEntity
  8
0
  6
CONTINUOUS
 62
     7
100
AcDbCircle
 10
680.0000000000164
 20
194.1159124075573
 30
0.0
 40
0.500000000000056
100
AcDbArc
 50
0.0000000000011927
 51
88.99999999999976
  0
ARC
  5
1A6
330
1F
100
AcDbEntity
  8
0
  6
CONTINUOUS
 62
     7
100
AcDbCircle
 10
697.2673269879954
 20
148.5
 30
0.0
 40
1.000000000000112
100
AcDbArc
 50
195.0000000000002
 51
270.0
  0
LINE
  5
1A7
330
1F
100
AcDbEntity
  8
0
  6
CONTINUOUS
 62
     7
100
AcDbLine
 10
697.2673269879954
 20
147.5
 30
0.0
 11
700.5000000000165
 21
147.5
 31
0.0
  0
LINE
  5
1A8
330
1F
100
AcDbEntity
  8
0
  6
CONTINUOUS
 62
     7
100
AcDbLine
 10
690.2500000000165
 20
192.5
 30
0.0
 11
688.9588319872249
 21
192.5
 31
0.0
  0
LINE
  5
1A9
330
1F
100
AcDbEntity
  8
0
  6
CONTINUOUS
 62
     7
100
AcDbLine
 10
700.5000000000165
 20
192.5
 30
0.0
 11
693.749632729589
 21
192.5
 31
0.0
  0
LINE
  5
1AA
330
1F
100
AcDbEntity
  8
0
  6
CONTINUOUS
 62
     7
100
AcDbLine
 10
696.2273246955588
 20
148.517638090205
 30
0.0
 11
696.3014011617065
 21
148.2411809548975
 31
0.0
  0
ARC
  5
1AB
330
1F
100
AcDbEntity
  8
0
  6
CONTINUOUS
 62
     7
100
AcDbCircle
 10
694.2954730429808
 20
148.0
 30
0.0
 40
2.000000000000002
100
AcDbArc
 50
14.99999999999988
 51
90.0
  0
LINE
  5
1AC
330
1F
100
AcDbEntity
  8
0
  6
CONTINUOUS
 62
     7
100
AcDbLine
 10
688.2820663344253
 20
190.0
 30
0.0
 11
688.2812783412016
 21
190.0
 31
0.0
  0
LINE
  5
1AD
330
1F
100
AcDbEntity
  8
0
  6
CONTINUOUS
 62
     7
100
AcDbLine
 10
688.2812783412016
 20
190.0
 30
0.0
 11
680.5000000000165
 21
190.0
 31
0.0
  0
LINE
  5
1AE
330
1F
100
AcDbEntity
  8
0
  6
CONTINUOUS
 62
     7
100
AcDbLine
 10
680.5000000000165
 20
150.0
 30
0.0
 11
694.2954730429809
 21
150.0
 31
0.0
  0
LINE
  5
1AF
330
1F
100
AcDbEntity
  8
0
  6
CONTINUOUS
 62
     7
100
AcDbLine
 10
688.460065697916
 20
192.0435488383173
 30
0.0
 11
688.2812783412016
 21
190.0
 31
0.0
  0
ARC
  5
1B0
330
1F
100
AcDbEntity
  8
0
  6
CONTINUOUS
 62
     7
100
AcDbCircle
 10
688.9581655870252
 20
192.0
 30
0.0
 40
0.4999999999999449
100
AcDbArc
 50
90.0
 51
175.0
  0
LINE
  5
1B1
330
1F
100
AcDbEntity
  8
0
  6
CONTINUOUS
 62
     7
100
AcDbLine
 10
799.5207259421637
 20
195.45
 30
0.0
 11
800.3867513459481
 21
195.45
 31
0.0
  0
LINE
  5
1B2
330
1F
100
AcDbEntity
  8
0
  6
CONTINUOUS
 62
     7
100
AcDbLine
 10
800.3867513459481
 20
193.45
 30
0.0
 11
799.5207259421637
 21
193.45
 31
0.0
  0
LINE
  5
1B3
330
1F
100
AcDbEntity
  8
0
  6
CONTINUOUS
 62
     7
100
AcDbLine
 10
799.5207259421637
 20
195.45
 30
0.0
 11
795.4792740578363
 21
195.45
 31
0.0
  0
LINE
  5
1B4
330
1F
100
AcDbEntity
  8
0
  6
CONTINUOUS
 62
     7
100
AcDbLine
 10
799.5207259421637
 20
193.45
 30
0.0
 11
795.4792740578363
 21
193.45
 31
0.0
  0
LINE
  5
1B5
330
1F
100
AcDbEntity
  8
0
  6
CONTINUOUS
 62
     7
100
AcDbLine
 10
794.6132486540517
 20
195.45
 30
0.0
 11
795.4792740578363
 21
195.45
 31
0.0
  0
LINE
  5
1B6
330
1F
100
AcDbEntity
  8
0
  6
CONTINUOUS
 62
     7
100
AcDbLine
 10
795.4792740578363
 20
193.45
 30
0.0
 11
794.6132486540517
 21
193.45
 31
0.0
  0
LINE
  5
1B7
330
1F
100
AcDbEntity
  8
0
  6
CONTINUOUS
 62
     7
100
AcDbLine
 10
794.6132486540517
 20
195.45
 30
0.0
 11
792.5925227118881
 21
195.45
 31
0.0
  0
LINE
  5
1B8
330
1F
100
AcDbEntity
  8
0
  6
CONTINUOUS
 62
     7
100
AcDbLine
 10
794.6132486540517
 20
193.45
 30
0.0
 11
792.5925227118881
 21
193.45
 31
0.0
  0
LINE
  5
1B9
330
1F
100
AcDbEntity
  8
0
  6
CONTINUOUS
 62
     7
100
AcDbLine
 10
802.4074772881117
 20
195.45
 30
0.0
 11
800.3867513459481
 21
195.45
 31
0.0
  0
LINE
  5
1BA
330
1F
100
AcDbEntity
  8
0
  6
CONTINUOUS
 62
     7
100
AcDbLine
 10
802.4074772881117
 20
193.45
 30
0.0
 11
800.3867513459481
 21
193.45
 31
0.0
  0
LINE
  5
1BB
330
1F
100
AcDbEntity
  8
0
  6
CONTINUOUS
 62
     7
100
AcDbLine
 10
800.8888604279314
 20
195.95
 30
0.0
 11
800.8353223232543
 21
195.95
 31
0.0
  0
LINE
  5
1BC
330
1F
100
AcDbEntity
  8
0
  6
CONTINUOUS
 62
     7
100
AcDbLine
 10
794.1646776767454
 20
195.95
 30
0.0
 11
794.1111395720685
 21
195.95
 31
0.0
  0
ARC
  5
1BD
330
1F
100
AcDbEntity
  8
0
  6
CONTINUOUS
 62
     7
100
AcDbCircle
 10
796.9181101580381
 20
194.0384652137149
 30
0.0
 40
3.351918207268323
100
AcDbArc
 50
90.30956622631538
 51
145.2301869440006
  0
LINE
  5
1BE
330
1F
100
AcDbEntity
  8
0
  6
CONTINUOUS
 62
     7
100
AcDbLine
 10
796.8999999999997
 20
197.3903344967257
 30
0.0
 11
796.8999999999997
 21
197.2292961322962
 31
0.0
  0
LINE
  5
1BF
330
1F
100
AcDbEntity
  8
0
  6
CONTINUOUS
 62
     7
100
AcDbLine
 10
796.8999999999997
 20
197.2292946136081
 30
0.0
 11
796.8999999999997
 21
197.0550939320215
 31
0.0
  0
LINE
  5
1C0
330
1F
100
AcDbEntity
  8
0
  6
CONTINUOUS
 62
     7
100
AcDbLine
 10
796.8999999999997
 20
197.0550939320215
 30
0.0
 11
798.0999999999999
 21
197.0550939320215
 31
0.0
  0
LINE
  5
1C1
330
1F
100
AcDbEntity
  8
0
  6
CONTINUOUS
 62
     7
100
AcDbLine
 10
798.1
 20
197.0550939320215
 30
0.0
 11
798.1
 21
197.1978879830066
 31
0.0
  0
LINE
  5
1C2
330
1F
100
AcDbEntity
  8
0
  6
CONTINUOUS
 62
     7
100
AcDbLine
 10
798.1
 20
197.1978879830066
 30
0.0
 11
798.1
 21
197.2490469181201
 31
0.0
  0
LINE
  5
1C3
330
1F
100
AcDbEntity
  8
0
  6
CONTINUOUS
 62
     7
100
AcDbLine
 10
798.1
 20
197.2490469181201
 30
0.0
 11
798.1
 21
197.3903344967257
 31
0.0
  0
LWPOLYLINE
  5
1C4
330
1F
100
AcDbEntity
  8
0
  6
CONTINUOUS
 62
     7
100
AcDbPolyline
 90
        3
 70
     0
 43
0.0
 10
800.8353223232544
 20
195.95
 10
800.7674756112643
 20
196.0794979812248
 10
800.6749273124586
 20
196.2187347818179
  0
ARC
  5
1C5
330
1F
100
AcDbEntity
  8
0
  6
CONTINUOUS
 62
     7
100
AcDbCircle
 10
798.0142047831156
 20
193.7864033317412
 30
0.0
 40
3.604952241179626
100
AcDbArc
 50
42.43236889441408
 51
88.63627375180386
  0
LINE
  5
1C6
330
1F
100
AcDbEntity
  8
0
  6
CONTINUOUS
 62
     7
100
AcDbLine
 10
794.9999999999999
 20
180.95
 30
0.0
 11
799.9999999999999
 21
180.95
 31
0.0
  0
LINE
  5
1C7
330
1F
100
AcDbEntity
  8
0
  6
CONTINUOUS
 62
     7
100
AcDbLine
 10
798.9999999999999
 20
179.95
 30
0.0
 11
797.4999999999999
 21
179.95
 31
0.0
  0
LINE
  5
1C8
330
1F
100
AcDbEntity
  8
0
  6
CONTINUOUS
 62
     7
100
AcDbLine
 10
797.4999999999999
 20
179.95
 30
0.0
 11
795.9999999999999
 21
179.95
 31
0.0
  0
LINE
  5
1C9
330
1F
100
AcDbEntity
  8
0
  6
CONTINUOUS
 62
     7
100
AcDbLine
 10
802.5414518843272
 20
193.45
 30
0.0
 11
802.4074772881116
 21
193.45
 31
0.0
  0
LINE
  5
1CA
330
1F
100
AcDbEntity
  8
0
  6
CONTINUOUS
 62
     7
100
AcDbLine
 10
802.4074772881117
 20
195.45
 30
0.0
 11
802.5414518843273
 21
195.45
 31
0.0
  0
LINE
  5
1CB
330
1F
100
AcDbEntity
  8
0
  6
CONTINUOUS
 62
     7
100
AcDbLine
 10
792.4585481156724
 20
195.45
 30
0.0
 11
792.592522711888
 21
195.45
 31
0.0
  0
LINE
  5
1CC
330
1F
100
AcDbEntity
  8
0
  6
CONTINUOUS
 62
     7
100
AcDbLine
 10
792.5925227118881
 20
193.45
 30
0.0
 11
792.4585481156726
 21
193.45
 31
0.0
  0
CIRCLE
  5
1CD
330
1F
100
AcDbEntity
  8
0
  6
CONTINUOUS
 62
     7
100
AcDbCircle
 10
797.4999999999999
 20
170.0
 30
0.0
 40
15.95000000000013
  0
CIRCLE
  5
1CE
330
1F
100
AcDbEntity
  8
0
  6
CONTINUOUS
 62
     7
100
AcDbCircle
 10
797.4999999999999
 20
170.0
 30
0.0
 40
13.95000000000013
  0
CIRCLE
  5
1CF
330
1F
100
AcDbEntity
  8
0
  6
CONTINUOUS
 62
     7
100
AcDbCircle
 10
797.4999999999999
 20
170.0
 30
0.0
 40
16.45000000000007
  0
CIRCLE
  5
1D0
330
1F
100
AcDbEntity
  8
0
  6
CONTINUOUS
 62
     7
100
AcDbCircle
 10
797.4999999999999
 20
170.0
 30
0.0
 40
12.95000000000002
  0
ARC
  5
1D1
330
1F
100
AcDbEntity
  8
0
  6
CONTINUOUS
 62
     7
100
AcDbCircle
 10
797.4999999999999
 20
170.0
 30
0.0
 40
11.14999999999999
100
AcDbArc
 50
180.0
 51
0.0
  0
ARC
  5
1D2
330
1F
100
AcDbEntity
  8
0
  6
CONTINUOUS
 62
     7
100
AcDbCircle
 10
797.4999999999999
 20
170.0
 30
0.0
 40
11.14999999999999
100
AcDbArc
 50
0.0
 51
77.40355151423756
  0
ARC
  5
1D3
330
1F
100
AcDbEntity
  8
0
  6
CONTINUOUS
 62
     7
100
AcDbCircle
 10
797.4999999999999
 20
170.0
 30
0.0
 40
11.14999999999999
100
AcDbArc
 50
102.5964484857625
 51
180.0
  0
LINE
  5
1D4
330
1F
100
AcDbEntity
  8
0
  6
CONTINUOUS
 62
     7
100
AcDbLine
 10
794.4660873076222
 20
192.2945144270377
 30
0.0
 11
794.8738576268613
 21
192.7022847462772
 31
0.0
  0
LINE
  5
1D5
330
1F
100
AcDbEntity
  8
0
  6
CONTINUOUS
 62
     7
100
AcDbLine
 10
800.1261423731385
 20
192.7022847462772
 30
0.0
 11
800.5339126923777
 21
192.2945144270377
 31
0.0
  0
ARC
  5
1D6
330
1F
100
AcDbEntity
  8
0
  6
CONTINUOUS
 62
     7
100
AcDbCircle
 10
797.4999999999999
 20
169.999999994671
 30
0.0
 40
22.49999999999996
100
AcDbArc
 50
52.749400587666
 51
82.25059941234949
  0
LINE
  5
1D7
330
1F
100
AcDbEntity
  8
0
  6
CONTINUOUS
 62
     7
100
AcDbLine
 10
811.1193021000727
 20
187.9099025713681
 30
0.0
 11
813.4099025766901
 21
187.9099025713681
 31
0.0
  0
ARC
  5
1D8
330
1F
100
AcDbEntity
  8
0
  6
CONTINUOUS
 62
     7
100
AcDbCircle
 10
813.4099025766901
 20
185.9099025713681
 30
0.0
 40
2.000000000000002
100
AcDbArc
 50
0.0
 51
90.00000000000011
  0
LINE
  5
1D9
330
1F
100
AcDbEntity
  8
0
  6
CONTINUOUS
 62
     7
100
AcDbLine
 10
815.4099025766892
 20
185.9099025713681
 30
0.0
 11
815.4099025766892
 21
183.6193020947496
 31
0.0
  0
ARC
  5
1DA
330
1F
100
AcDbEntity
  8
0
  6
CONTINUOUS
 62
     7
100
AcDbCircle
 10
797.4999999999999
 20
169.999999994671
 30
0.0
 40
22.50000000000018
100
AcDbArc
 50
7.749400587657199
 51
37.25059941235808
  0
LINE
  5
1DB
330
1F
100
AcDbEntity
  8
0
  6
CONTINUOUS
 62
     7
100
AcDbLine
 10
819.794514432357
 20
173.0339126870501
 30
0.0
 11
821.4142135623624
 21
171.414213557044
 31
0.0
  0
ARC
  5
1DC
330
1F
100
AcDbEntity
  8
0
  6
CONTINUOUS
 62
     7
100
AcDbCircle
 10
819.9999999999899
 20
169.999999994671
 30
0.0
 40
2.000000000000002
100
AcDbArc
 50
314.9999999999876
 51
45.00000000001256
  0
LINE
  5
1DD
330
1F
100
AcDbEntity
  8
0
  6
CONTINUOUS
 62
     7
100
AcDbLine
 10
821.4142135623623
 20
168.5857864322979
 30
0.0
 11
819.7945144323569
 21
166.9660873022918
 31
0.0
  0
ARC
  5
1DE
330
1F
100
AcDbEntity
  8
0
  6
CONTINUOUS
 62
     7
100
AcDbCircle
 10
797.4999999999999
 20
169.999999994671
 30
0.0
 40
22.49999999999996
100
AcDbArc
 50
322.7494005876418
 51
352.2505994123427
  0
LINE
  5
1DF
330
1F
100
AcDbEntity
  8
0
  6
CONTINUOUS
 62
     7
100
AcDbLine
 10
815.4099025766892
 20
156.3806978945923
 30
0.0
 11
815.4099025766892
 21
154.0900974179738
 31
0.0
  0
ARC
  5
1E0
330
1F
100
AcDbEntity
  8
0
  6
CONTINUOUS
 62
     7
100
AcDbCircle
 10
813.4099025766901
 20
154.0900974179738
 30
0.0
 40
2.000000000000002
100
AcDbArc
 50
270.0
 51
0.0000000000001137
  0
LINE
  5
1E1
330
1F
100
AcDbEntity
  8
0
  6
CONTINUOUS
 62
     7
100
AcDbLine
 10
813.4099025766901
 20
152.0900974179738
 30
0.0
 11
811.1193021000727
 21
152.0900974179738
 31
0.0
  0
ARC
  5
1E2
330
1F
100
AcDbEntity
  8
0
  6
CONTINUOUS
 62
     7
100
AcDbCircle
 10
797.4999999999999
 20
169.999999994671
 30
0.0
 40
22.50000000000018
100
AcDbArc
 50
277.7494005876506
 51
307.2505994123341
  0
LINE
  5
1E3
330
1F
100
AcDbEntity
  8
0
  6
CONTINUOUS
 62
     7
100
AcDbLine
 10
800.5339126923778
 20
147.7054855623041
 30
0.0
 11
798.9142135623724
 21
146.0857864322981
 31
0.0
  0
ARC
  5
1E4
330
1F
100
AcDbEntity
  8
0
  6
CONTINUOUS
 62
     7
100
AcDbCircle
 10
797.4999999999999
 20
147.4999999946711
 30
0.0
 40
2.000000000000002
100
AcDbArc
 50
225.0000000000126
 51
314.9999999999875
  0
LINE
  5
1E5
330
1F
100
AcDbEntity
  8
0
  6
CONTINUOUS
 62
     7
100
AcDbLine
 10
796.0857864376276
 20
146.0857864322981
 30
0.0
 11
794.4660873076222
 21
147.7054855623041
 31
0.0
  0
ARC
  5
1E6
330
1F
100
AcDbEntity
  8
0
  6
CONTINUOUS
 62
     7
100
AcDbCircle
 10
797.4999999999999
 20
169.999999994671
 30
0.0
 40
22.49999999999996
100
AcDbArc
 50
232.749400587666
 51
262.2505994123495
  0
LINE
  5
1E7
330
1F
100
AcDbEntity
  8
0
  6
CONTINUOUS
 62
     7
100
AcDbLine
 10
783.8806978999273
 20
152.0900974179738
 30
0.0
 11
781.5900974233098
 21
152.0900974179738
 31
0.0
  0
ARC
  5
1E8
330
1F
100
AcDbEntity
  8
0
  6
CONTINUOUS
 62
     7
100
AcDbCircle
 10
781.5900974233097
 20
154.0900974179738
 30
0.0
 40
2.000000000000002
100
AcDbArc
 50
180.0000000000001
 51
270.0
  0
LINE
  5
1E9
330
1F
100
AcDbEntity
  8
0
  6
CONTINUOUS
 62
     7
100
AcDbLine
 10
779.5900974233108
 20
154.0900974179738
 30
0.0
 11
779.5900974233108
 21
156.3806978945923
 31
0.0
  0
ARC
  5
1EA
330
1F
100
AcDbEntity
  8
0
  6
CONTINUOUS
 62
     7
100
AcDbCircle
 10
797.4999999999999
 20
169.999999994671
 30
0.0
 40
22.49999999999996
100
AcDbArc
 50
187.7494005876572
 51
217.250599412358
  0
LINE
  5
1EB
330
1F
100
AcDbEntity
  8
0
  6
CONTINUOUS
 62
     7
100
AcDbLine
 10
775.2054855676429
 20
166.9660873022918
 30
0.0
 11
773.5857864376374
 21
168.5857864322979
 31
0.0
  0
ARC
  5
1EC
330
1F
100
AcDbEntity
  8
0
  6
CONTINUOUS
 62
     7
100
AcDbCircle
 10
775.0000000000099
 20
169.9999999946709
 30
0.0
 40
2.000000000000002
100
AcDbArc
 50
134.9999999999876
 51
225.0000000000125
  0
LINE
  5
1ED
330
1F
100
AcDbEntity
  8
0
  6
CONTINUOUS
 62
     7
100
AcDbLine
 10
773.5857864376374
 20
171.414213557044
 30
0.0
 11
775.2054855676429
 21
173.0339126870501
 31
0.0
  0
ARC
  5
1EE
330
1F
100
AcDbEntity
  8
0
  6
CONTINUOUS
 62
     7
100
AcDbCircle
 10
797.4999999999999
 20
169.999999994671
 30
0.0
 40
22.49999999999996
100
AcDbArc
 50
142.7494005876419
 51
172.2505994123427
  0
LINE
  5
1EF
330
1F
100
AcDbEntity
  8
0
  6
CONTINUOUS
 62
     7
100
AcDbLine
 10
779.5900974233108
 20
183.6193020947496
 30
0.0
 11
779.5900974233108
 21
185.9099025713681
 31
0.0
  0
ARC
  5
1F0
330
1F
100
AcDbEntity
  8
0
  6
CONTINUOUS
 62
     7
100
AcDbCircle
 10
781.5900974233097
 20
185.9099025713681
 30
0.0
 40
2.000000000000002
100
AcDbArc
 50
90.00000000000011
 51
180.0
  0
LINE
  5
1F1
330
1F
100
AcDbEntity
  8
0
  6
CONTINUOUS
 62
     7
100
AcDbLine
 10
781.5900974233097
 20
187.9099025713681
 30
0.0
 11
783.8806978999272
 21
187.9099025713681
 31
0.0
  0
ARC
  5
1F2
330
1F
100
AcDbEntity
  8
0
  6
CONTINUOUS
 62
     7
100
AcDbCircle
 10
797.4999999999999
 20
169.999999994671
 30
0.0
 40
22.49999999999996
100
AcDbArc
 50
97.74940058765051
 51
127.2505994123341
  0
ARC
  5
1F3
330
1F
100
AcDbEntity
  8
0
  6
CONTINUOUS
 62
     7
100
AcDbCircle
 10
797.4999999999999
 20
170.0
 30
0.0
 40
28.49999999999997
100
AcDbArc
 50
90.0
 51
180.0
  0
ARC
  5
1F4
330
1F
100
AcDbEntity
  8
0
  6
CONTINUOUS
 62
     7
100
AcDbCircle
 10
797.4999999999999
 20
170.0
 30
0.0
 40
28.49999999999997
100
AcDbArc
 50
180.0
 51
0.0
  0
ARC
  5
1F5
330
1F
100
AcDbEntity
  8
0
  6
CONTINUOUS
 62
     7
100
AcDbCircle
 10
797.4999999999999
 20
170.0
 30
0.0
 40
28.49999999999997
100
AcDbArc
 50
90.0
 51
0.0
  0
ARC
  5
1F6
330
1F
100
AcDbEntity
  8
0
  6
CONTINUOUS
 62
     7
100
AcDbCircle
 10
797.4999999999999
 20
170.0
 30
0.0
 40
28.49999999999997
100
AcDbArc
 50
0.0
 51
90.0
  0
LINE
  5
1F7
330
1F
100
AcDbEntity
  8
0
  6
CONTINUOUS
 62
   132
100
AcDbLine
 10
800.7804999999998
 20
181.7305
 30
0.0
 11
800.7804999999998
 21
182.5276023144894
 31
0.0
  0
LINE
  5
1F8
330
1F
100
AcDbEntity
  8
0
  6
CONTINUOUS
 62
   132
100
AcDbLine
 10
800.7804999999998
 20
187.9359361425369
 30
0.0
 11
800.7804999999998
 21
187.95
 31
0.0
  0
LINE
  5
1F9
330
1F
100
AcDbEntity
  8
0
  6
CONTINUOUS
 62
   132
100
AcDbLine
 10
794.2194999999998
 20
187.95
 30
0.0
 11
794.2194999999998
 21
187.9359361425369
 31
0.0
  0
LINE
  5
1FA
330
1F
100
AcDbEntity
  8
0
  6
CONTINUOUS
 62
   132
100
AcDbLine
 10
794.2194999999998
 20
182.5276023144894
 30
0.0
 11
794.2194999999998
 21
181.7305
 31
0.0
  0
LINE
  5
1FB
330
1F
100
AcDbEntity
  8
0
  6
CONTINUOUS
 62
     7
100
AcDbLine
 10
800.9999999999999
 20
195.45
 30
0.0
 11
800.8888604279314
 21
195.95
 31
0.0
  0
LINE
  5
1FC
330
1F
100
AcDbEntity
  8
0
  6
CONTINUOUS
 62
     7
100
AcDbLine
 10
794.1111395720685
 20
195.95
 30
0.0
 11
794.0
 21
195.45
 31
0.0
  0
ARC
  5
1FD
330
1F
100
AcDbEntity
  8
0
  6
CONTINUOUS
 62
     7
100
AcDbCircle
 10
800.8090169943749
 20
192.95
 30
0.0
 40
0.4999999999999449
100
AcDbArc
 50
89.99999999999943
 51
153.4349488229217
  0
ARC
  5
1FE
330
1F
100
AcDbEntity
  8
0
  6
CONTINUOUS
 62
     7
100
AcDbCircle
 10
794.1909830056251
 20
192.95
 30
0.0
 40
0.4999999999999449
100
AcDbArc
 50
26.56505117707843
 51
90.00000000000068
  0
ARC
  5
1FF
330
1F
100
AcDbEntity
  8
0
  6
CONTINUOUS
 62
     7
100
AcDbCircle
 10
794.9999999999999
 20
189.798612181134
 30
0.0
 40
0.500000000000167
100
AcDbArc
 50
146.3099324740203
 51
180.0
  0
ARC
  5
200
330
1F
100
AcDbEntity
  8
0
  6
CONTINUOUS
 62
     7
100
AcDbCircle
 10
800.0
 20
189.798612181134
 30
0.0
 40
0.4999999999999449
100
AcDbArc
 50
0.0
 51
33.69006752597976
  0
LINE
  5
201
330
1F
100
AcDbEntity
  8
0
  6
CONTINUOUS
 62
     7
100
AcDbLine
 10
800.5
 20
187.95
 30
0.0
 11
800.5
 21
189.798612181134
 31
0.0
  0
LINE
  5
202
330
1F
100
AcDbEntity
  8
0
  6
CONTINUOUS
 62
     7
100
AcDbLine
 10
794.5
 20
189.798612181134
 30
0.0
 11
794.5
 21
187.95
 31
0.0
  0
LINE
  5
203
330
1F
100
AcDbEntity
  8
0
  6
CONTINUOUS
 62
     7
100
AcDbLine
 10
800.4160251471687
 20
190.0759622792466
 30
0.0
 11
799.6609525121497
 21
191.2085712317751
 31
0.0
  0
LINE
  5
204
330
1F
100
AcDbEntity
  8
0
  6
CONTINUOUS
 62
     7
100
AcDbLine
 10
795.33904748785
 20
191.2085712317751
 30
0.0
 11
794.583974852831
 21
190.0759622792466
 31
0.0
  0
LINE
  5
205
330
1F
100
AcDbEntity
  8
0
  6
CONTINUOUS
 62
     7
100
AcDbLine
 10
794.6381966011248
 20
193.17360679775
 30
0.0
 11
795.3702359361811
 21
191.7095281276377
 31
0.0
  0
LINE
  5
206
330
1F
100
AcDbEntity
  8
0
  6
CONTINUOUS
 62
     7
100
AcDbLine
 10
799.6297640638188
 20
191.7095281276377
 30
0.0
 11
800.3618033988748
 21
193.17360679775
 31
0.0
  0
LINE
  5
207
330
1F
100
AcDbEntity
  8
0
  6
CONTINUOUS
 62
     7
100
AcDbLine
 10
800.0
 20
180.95
 30
0.0
 11
800.0
 21
181.7305
 31
0.0
  0
LINE
  5
208
330
1F
100
AcDbEntity
  8
0
  6
CONTINUOUS
 62
     7
100
AcDbLine
 10
794.9999999999999
 20
181.7305
 30
0.0
 11
794.9999999999999
 21
180.95
 31
0.0
  0
LINE
  5
209
330
1F
100
AcDbEntity
  8
0
  6
CONTINUOUS
 62
     7
100
AcDbLine
 10
794.9999999999999
 20
180.95
 30
0.0
 11
796.0
 21
179.95
 31
0.0
  0
LINE
  5
20A
330
1F
100
AcDbEntity
  8
0
  6
CONTINUOUS
 62
     7
100
AcDbLine
 10
798.9999999999999
 20
179.95
 30
0.0
 11
799.9999999999999
 21
180.95
 31
0.0
  0
ARC
  5
20B
330
1F
100
AcDbEntity
  8
0
  6
CONTINUOUS
 62
     7
100
AcDbCircle
 10
800.0769776593188
 20
191.4859213298878
 30
0.0
 40
0.4999999999999449
100
AcDbArc
 50
153.4349488229217
 51
213.6900675259798
  0
ARC
  5
20C
330
1F
100
AcDbEntity
  8
0
  6
CONTINUOUS
 62
     7
100
AcDbCircle
 10
794.9230223406811
 20
191.4859213298878
 30
0.0
 40
0.4999999999999449
100
AcDbArc
 50
326.3099324740203
 51
26.56505117707838
  0
LINE
  5
20D
330
1F
100
AcDbEntity
  8
0
  6
CONTINUOUS
 62
     7
100
AcDbLine
 10
802.5414518843272
 20
193.45
 30
0.0
 11
802.5414518843272
 21
195.45
 31
0.0
  0
LINE
  5
20E
330
1F
100
AcDbEntity
  8
0
  6
CONTINUOUS
 62
     7
100
AcDbLine
 10
792.4585481156724
 20
195.45
 30
0.0
 11
792.4585481156724
 21
193.45
 31
0.0
  0
ARC
  5
20F
330
1F
100
AcDbEntity
  8
0
  6
CONTINUOUS
 62
     7
100
AcDbCircle
 10
792.7866044502873
 20
186.2814742081898
 30
0.0
 40
0.4999999999999449
100
AcDbArc
 50
286.1454337466491
 51
338.0
  0
LWPOLYLINE
  5
210
330
1F
100
AcDbEntity
  8
0
  6
CONTINUOUS
 62
     7
100
AcDbPolyline
 90
       21
 70
     0
 43
0.0
 10
-802.073875913029
 20
185.8013340934306
 10
-802.052340083605
 20
185.8081008709453
 10
-802.0311305124366
 20
185.8158380576382
 10
-802.0102907316577
 20
185.8245297335225
 10
-801.9898635101616
 20
185.8341580303254
 10
-801.9698907662815
 20
185.8447031681721
 10
-801.9504134822113
 20
185.856143496149
 10
-801.9314716203363
 20
185.8684555366635
 10
-801.9131040416468
 20
185.8816140335088
 10
-801.8953484263982
 20
185.8955920035369
 10
-801.8782411971794
 20
185.9103607918345
 10
-801.8618174445439
 20
185.9258901302893
 10
-801.8461108553568
 20
185.9421481994279
 10
-801.8311536439993
 20
185.9591016933999
 10
-801.8169764865756
 20
185.9767158879765
 10
-801.8036084582502
 20
185.994954711425
 10
-801.7910769738452
 20
186.0137808181164
 10
-801.7794077318188
 20
186.0331556647171
 10
-801.7686246617366
 20
186.053039588809
 10
-801.7587498753458
 20
186.0733918897809
 10
-801.7498036213466
 20
186.094170911825
210
0.0
220
0.0
230
-1.0
  0
LINE
  5
211
330
1F
100
AcDbEntity
  8
0
  6
CONTINUOUS
 62
     7
100
AcDbLine
 10
801.7495868410708
 20
186.0947074641716
 30
0.0
 11
801.1263376688622
 21
187.637303296708
 31
0.0
  0
LINE
  5
212
330
1F
100
AcDbEntity
  8
0
  6
CONTINUOUS
 62
     7
100
AcDbLine
 10
793.8736623311378
 20
187.637303296708
 30
0.0
 11
793.2502767381301
 21
186.0943698108454
 31
0.0
  0
ARC
  5
213
330
1F
100
AcDbEntity
  8
0
  6
CONTINUOUS
 62
     7
100
AcDbCircle
 10
800.6627457415786
 20
187.45
 30
0.0
 40
0.500000000000167
100
AcDbArc
 50
22.00000000000052
 51
76.37840001218473
  0
ARC
  5
214
330
1F
100
AcDbEntity
  8
0
  6
CONTINUOUS
 62
     7
100
AcDbCircle
 10
794.337254258421
 20
187.45
 30
0.0
 40
0.4999999999999449
100
AcDbArc
 50
103.6215999878153
 51
157.9999999999995
  0
ARC
  5
215
330
1F
100
AcDbEntity
  8
0
  6
CONTINUOUS
 62
     7
100
AcDbCircle
 10
797.4999999999999
 20
169.9999999959793
 30
0.0
 40
10.49999999999995
100
AcDbArc
 50
100.3158129123925
 51
270.0
  0
ARC
  5
216
330
1F
100
AcDbEntity
  8
0
  6
CONTINUOUS
 62
     7
100
AcDbCircle
 10
797.4999999999999
 20
169.9999999959793
 30
0.0
 40
10.49999999999995
100
AcDbArc
 50
269.9999999999999
 51
79.68418708760771
  0
LINE
  5
217
330
1F
100
AcDbEntity
  8
0
  6
CONTINUOUS
 62
     7
100
AcDbLine
 10
563.9999999999999
 20
179.95
 30
0.0
 11
560.9999999999999
 21
179.95
 31
0.0
  0
CIRCLE
  5
218
330
1F
100
AcDbEntity
  8
0
  6
CONTINUOUS
 62
     7
100
AcDbCircle
 10
562.5
 20
170.0
 30
0.0
 40
22.30672464063987
  0
CIRCLE
  5
219
330
1F
100
AcDbEntity
  8
0
  6
CONTINUOUS
 62
     7
100
AcDbCircle
 10
562.5
 20
170.0
 30
0.0
 40
23.74999999999994
  0
CIRCLE
  5
21A
330
1F
100
AcDbEntity
  8
0
  6
CONTINUOUS
 62
     7
100
AcDbCircle
 10
562.5
 20
170.0
 30
0.0
 40
21.79799810514149
  0
CIRCLE
  5
21B
330
1F
100
AcDbEntity
  8
0
  6
CONTINUOUS
 62
     7
100
AcDbCircle
 10
562.5
 20
170.0
 30
0.0
 40
21.74999999999994
  0
ARC
  5
21C
330
1F
100
AcDbEntity
  8
0
  6
CONTINUOUS
 62
     7
100
AcDbCircle
 10
562.5
 20
170.0
 30
0.0
 40
26.89662357951794
100
AcDbArc
 50
32.51592801494962
 51
57.48407198505071
  0
ARC
  5
21D
330
1F
100
AcDbEntity
  8
0
  6
CONTINUOUS
 62
     7
100
AcDbCircle
 10
562.5
 20
170.0
 30
0.0
 40
26.89662357951794
100
AcDbArc
 50
347.5159280149496
 51
12.48407198505066
  0
ARC
  5
21E
330
1F
100
AcDbEntity
  8
0
  6
CONTINUOUS
 62
     7
100
AcDbCircle
 10
562.5
 20
170.0
 30
0.0
 40
26.89662357951794
100
AcDbArc
 50
302.5159280149496
 51
327.4840719850507
  0
ARC
  5
21F
330
1F
100
AcDbEntity
  8
0
  6
CONTINUOUS
 62
     7
100
AcDbCircle
 10
562.5
 20
170.0
 30
0.0
 40
26.89662357951794
100
AcDbArc
 50
257.5159280149496
 51
282.4840719850507
  0
ARC
  5
220
330
1F
100
AcDbEntity
  8
0
  6
CONTINUOUS
 62
     7
100
AcDbCircle
 10
562.5
 20
170.0
 30
0.0
 40
26.89662357951794
100
AcDbArc
 50
212.5159280149496
 51
237.4840719850507
  0
ARC
  5
221
330
1F
100
AcDbEntity
  8
0
  6
CONTINUOUS
 62
     7
100
AcDbCircle
 10
562.5
 20
170.0
 30
0.0
 40
26.89662357951794
100
AcDbArc
 50
167.5159280149496
 51
192.4840719850507
  0
ARC
  5
222
330
1F
100
AcDbEntity
  8
0
  6
CONTINUOUS
 62
     7
100
AcDbCircle
 10
562.5
 20
170.0
 30
0.0
 40
26.89662357951794
100
AcDbArc
 50
122.5159280149496
 51
147.4840719850507
  0
ARC
  5
223
330
1F
100
AcDbEntity
  8
0
  6
CONTINUOUS
 62
     7
100
AcDbCircle
 10
562.5
 20
170.0
 30
0.0
 40
26.89662357951794
100
AcDbArc
 50
77.51592801494964
 51
102.4840719850507
  0
LINE
  5
224
330
1F
100
AcDbEntity
  8
0
  6
CONTINUOUS
 62
     7
100
AcDbLine
 10
567.9491611243942
 20
143.6442342698637
 30
0.0
 11
568.3141946755788
 21
143.7393164549596
 31
0.0
  0
LINE
  5
225
330
1F
100
AcDbEntity
  8
0
  6
CONTINUOUS
 62
     7
100
AcDbLine
 10
557.449446921682
 20
143.2607056776454
 30
0.0
 11
558.9485331622105
 21
142.9824208467879
 31
0.0
  0
LINE
  5
226
330
1F
100
AcDbEntity
  8
0
  6
CONTINUOUS
 62
     7
100
AcDbLine
 10
557.0508388756057
 20
143.6442342698634
 30
0.0
 11
557.4494469216821
 21
143.260705677645
 31
0.0
  0
LINE
  5
227
330
1F
100
AcDbEntity
  8
0
  6
CONTINUOUS
 62
     7
100
AcDbLine
 10
556.6858053244213
 20
143.7393164549596
 30
0.0
 11
557.0508388756057
 21
143.6442342698638
 31
0.0
  0
LINE
  5
228
330
1F
100
AcDbEntity
  8
0
  6
CONTINUOUS
 62
     7
100
AcDbLine
 10
567.5505530783178
 20
143.260705677645
 30
0.0
 11
567.949161124394
 21
143.6442342698633
 31
0.0
  0
LINE
  5
229
330
1F
100
AcDbEntity
  8
0
  6
CONTINUOUS
 62
     7
100
AcDbLine
 10
566.0514668377893
 20
142.9824208467879
 30
0.0
 11
567.550553078318
 21
143.2607056776453
 31
0.0
  0
ARC
  5
22A
330
1F
100
AcDbEntity
  8
0
  6
CONTINUOUS
 62
     7
100
AcDbCircle
 10
562.5
 20
170.0
 30
0.0
 40
27.25
100
AcDbArc
 50
262.5113922580707
 51
277.4886077419293
  0
LINE
  5
22B
330
1F
100
AcDbEntity
  8
0
  6
CONTINUOUS
 62
     7
100
AcDbLine
 10
588.8557657301363
 20
175.4491611243942
 30
0.0
 11
588.7606835450403
 21
175.814194675579
 31
0.0
  0
LINE
  5
22C
330
1F
100
AcDbEntity
  8
0
  6
CONTINUOUS
 62
     7
100
AcDbLine
 10
577.8362560090586
 20
147.5211833300988
 30
0.0
 11
579.0930471463205
 21
148.3844202853594
 31
0.0
  0
LINE
  5
22D
330
1F
100
AcDbEntity
  8
0
  6
CONTINUOUS
 62
     7
100
AcDbLine
 10
577.2832018883058
 20
147.5105205460193
 30
0.0
 11
577.8362560090586
 21
147.5211833300988
 31
0.0
  0
LINE
  5
22E
330
1F
100
AcDbEntity
  8
0
  6
CONTINUOUS
 62
     7
100
AcDbLine
 10
576.9578509310514
 20
147.3196361044675
 30
0.0
 11
577.283201888306
 21
147.5105205460194
 31
0.0
  0
LINE
  5
22F
330
1F
100
AcDbEntity
  8
0
  6
CONTINUOUS
 62
     7
100
AcDbLine
 10
584.9894794539807
 20
155.2167981116939
 30
0.0
 11
585.1803638955327
 21
155.5421490689486
 31
0.0
  0
LINE
  5
230
330
1F
100
AcDbEntity
  8
0
  6
CONTINUOUS
 62
     7
100
AcDbLine
 10
584.978816669901
 20
154.6637439909414
 30
0.0
 11
584.9894794539805
 21
155.2167981116939
 31
0.0
  0
LINE
  5
231
330
1F
100
AcDbEntity
  8
0
  6
CONTINUOUS
 62
     7
100
AcDbLine
 10
584.1155797146406
 20
153.4069528536794
 30
0.0
 11
584.978816669901
 21
154.6637439909413
 31
0.0
  0
ARC
  5
232
330
1F
100
AcDbEntity
  8
0
  6
CONTINUOUS
 62
     7
100
AcDbCircle
 10
562.5
 20
170.0
 30
0.0
 40
27.25
100
AcDbArc
 50
307.5113922580707
 51
322.4886077419293
  0
LINE
  5
233
330
1F
100
AcDbEntity
  8
0
  6
CONTINUOUS
 62
     7
100
AcDbLine
 10
589.2392943223546
 20
164.949446921682
 30
0.0
 11
589.517579153212
 21
166.4485331622106
 31
0.0
  0
LINE
  5
234
330
1F
100
AcDbEntity
  8
0
  6
CONTINUOUS
 62
     7
100
AcDbLine
 10
588.8557657301363
 20
164.5508388756057
 30
0.0
 11
589.2392943223547
 21
164.949446921682
 31
0.0
  0
LINE
  5
235
330
1F
100
AcDbEntity
  8
0
  6
CONTINUOUS
 62
     7
100
AcDbLine
 10
588.7606835450403
 20
164.1858053244212
 30
0.0
 11
588.8557657301363
 21
164.5508388756057
 31
0.0
  0
LINE
  5
236
330
1F
100
AcDbEntity
  8
0
  6
CONTINUOUS
 62
     7
100
AcDbLine
 10
589.2392943223548
 20
175.050553078318
 30
0.0
 11
588.8557657301366
 21
175.4491611243942
 31
0.0
  0
LINE
  5
237
330
1F
100
AcDbEntity
  8
0
  6
CONTINUOUS
 62
     7
100
AcDbLine
 10
589.5175791532121
 20
173.5514668377894
 30
0.0
 11
589.2392943223547
 21
175.050553078318
 31
0.0
  0
ARC
  5
238
330
1F
100
AcDbEntity
  8
0
  6
CONTINUOUS
 62
     7
100
AcDbCircle
 10
562.5
 20
170.0
 30
0.0
 40
27.25
100
AcDbArc
 50
352.5113922580707
 51
7.488607741929286
  0
LINE
  5
239
330
1F
100
AcDbEntity
  8
0
  6
CONTINUOUS
 62
     7
100
AcDbLine
 10
535.7607056776453
 20
175.050553078318
 30
0.0
 11
535.4824208467878
 21
173.5514668377894
 31
0.0
  0
LINE
  5
23A
330
1F
100
AcDbEntity
  8
0
  6
CONTINUOUS
 62
     7
100
AcDbLine
 10
536.1442342698639
 20
175.4491611243944
 30
0.0
 11
535.7607056776455
 21
175.0505530783181
 31
0.0
  0
LINE
  5
23B
330
1F
100
AcDbEntity
  8
0
  6
CONTINUOUS
 62
     7
100
AcDbLine
 10
536.2393164549595
 20
175.8141946755788
 30
0.0
 11
536.1442342698637
 21
175.4491611243943
 31
0.0
  0
LINE
  5
23C
330
1F
100
AcDbEntity
  8
0
  6
CONTINUOUS
 62
     7
100
AcDbLine
 10
536.1442342698637
 20
164.5508388756058
 30
0.0
 11
536.2393164549595
 21
164.185805324421
 31
0.0
  0
LINE
  5
23D
330
1F
100
AcDbEntity
  8
0
  6
CONTINUOUS
 62
     7
100
AcDbLine
 10
535.7607056776454
 20
164.9494469216819
 30
0.0
 11
536.1442342698639
 21
164.5508388756057
 31
0.0
  0
LINE
  5
23E
330
1F
100
AcDbEntity
  8
0
  6
CONTINUOUS
 62
     7
100
AcDbLine
 10
535.4824208467878
 20
166.4485331622106
 30
0.0
 11
535.7607056776454
 21
164.949446921682
 31
0.0
  0
ARC
  5
23F
330
1F
100
AcDbEntity
  8
0
  6
CONTINUOUS
 62
     7
100
AcDbCircle
 10
562.5
 20
170.0
 30
0.0
 40
27.25
100
AcDbArc
 50
172.5113922580707
 51
187.4886077419293
  0
LINE
  5
240
330
1F
100
AcDbEntity
  8
0
  6
CONTINUOUS
 62
     7
100
AcDbLine
 10
540.0211833300988
 20
154.6637439909414
 30
0.0
 11
540.8844202853592
 21
153.4069528536794
 31
0.0
  0
LINE
  5
241
330
1F
100
AcDbEntity
  8
0
  6
CONTINUOUS
 62
     7
100
AcDbLine
 10
540.0105205460193
 20
155.216798111694
 30
0.0
 11
540.0211833300988
 21
154.6637439909414
 31
0.0
  0
LINE
  5
242
330
1F
100
AcDbEntity
  8
0
  6
CONTINUOUS
 62
     7
100
AcDbLine
 10
539.8196361044675
 20
155.5421490689485
 30
0.0
 11
540.0105205460193
 21
155.2167981116939
 31
0.0
  0
LINE
  5
243
330
1F
100
AcDbEntity
  8
0
  6
CONTINUOUS
 62
     7
100
AcDbLine
 10
547.7167981116938
 20
147.5105205460193
 30
0.0
 11
548.0421490689484
 21
147.3196361044674
 31
0.0
  0
LINE
  5
244
330
1F
100
AcDbEntity
  8
0
  6
CONTINUOUS
 62
     7
100
AcDbLine
 10
547.1637439909414
 20
147.5211833300988
 30
0.0
 11
547.716798111694
 21
147.5105205460193
 31
0.0
  0
LINE
  5
245
330
1F
100
AcDbEntity
  8
0
  6
CONTINUOUS
 62
     7
100
AcDbLine
 10
545.9069528536793
 20
148.3844202853594
 30
0.0
 11
547.1637439909413
 21
147.5211833300988
 31
0.0
  0
ARC
  5
246
330
1F
100
AcDbEntity
  8
0
  6
CONTINUOUS
 62
     7
100
AcDbCircle
 10
562.5
 20
170.0
 30
0.0
 40
27.25
100
AcDbArc
 50
217.5113922580707
 51
232.4886077419293
  0
LINE
  5
247
330
1F
100
AcDbEntity
  8
0
  6
CONTINUOUS
 62
     7
100
AcDbLine
 10
584.978816669901
 20
185.3362560090586
 30
0.0
 11
584.1155797146406
 21
186.5930471463206
 31
0.0
  0
LINE
  5
248
330
1F
100
AcDbEntity
  8
0
  6
CONTINUOUS
 62
     7
100
AcDbLine
 10
584.9894794539807
 20
184.783201888306
 30
0.0
 11
584.9788166699011
 21
185.3362560090586
 31
0.0
  0
LINE
  5
249
330
1F
100
AcDbEntity
  8
0
  6
CONTINUOUS
 62
     7
100
AcDbLine
 10
585.1803638955324
 20
184.4578509310515
 30
0.0
 11
584.9894794539805
 21
184.7832018883061
 31
0.0
  0
LINE
  5
24A
330
1F
100
AcDbEntity
  8
0
  6
CONTINUOUS
 62
     7
100
AcDbLine
 10
577.2832018883062
 20
192.4894794539807
 30
0.0
 11
576.9578509310513
 21
192.6803638955326
 31
0.0
  0
LINE
  5
24B
330
1F
100
AcDbEntity
  8
0
  6
CONTINUOUS
 62
     7
100
AcDbLine
 10
577.8362560090586
 20
192.4788166699012
 30
0.0
 11
577.2832018883062
 21
192.4894794539807
 31
0.0
  0
LINE
  5
24C
330
1F
100
AcDbEntity
  8
0
  6
CONTINUOUS
 62
     7
100
AcDbLine
 10
579.0930471463205
 20
191.6155797146406
 30
0.0
 11
577.8362560090585
 21
192.4788166699012
 31
0.0
  0
ARC
  5
24D
330
1F
100
AcDbEntity
  8
0
  6
CONTINUOUS
 62
     7
100
AcDbCircle
 10
562.5
 20
170.0
 30
0.0
 40
27.25
100
AcDbArc
 50
37.5113922580706
 51
52.48860774192928
  0
LINE
  5
24E
330
1F
100
AcDbEntity
  8
0
  6
CONTINUOUS
 62
     7
100
AcDbLine
 10
557.0508388756057
 20
196.3557657301363
 30
0.0
 11
556.685805324421
 21
196.2606835450404
 31
0.0
  0
LINE
  5
24F
330
1F
100
AcDbEntity
  8
0
  6
CONTINUOUS
 62
     7
100
AcDbLine
 10
567.550553078318
 20
196.7392943223546
 30
0.0
 11
566.0514668377893
 21
197.0175791532121
 31
0.0
  0
LINE
  5
250
330
1F
100
AcDbEntity
  8
0
  6
CONTINUOUS
 62
     7
100
AcDbLine
 10
567.9491611243943
 20
196.3557657301359
 30
0.0
 11
567.5505530783181
 21
196.7392943223542
 31
0.0
  0
LINE
  5
251
330
1F
100
AcDbEntity
  8
0
  6
CONTINUOUS
 62
     7
100
AcDbLine
 10
568.3141946755787
 20
196.2606835450404
 30
0.0
 11
567.9491611243942
 21
196.3557657301362
 31
0.0
  0
LINE
  5
252
330
1F
100
AcDbEntity
  8
0
  6
CONTINUOUS
 62
     7
100
AcDbLine
 10
557.4494469216818
 20
196.7392943223543
 30
0.0
 11
557.0508388756055
 21
196.3557657301359
 31
0.0
  0
LINE
  5
253
330
1F
100
AcDbEntity
  8
0
  6
CONTINUOUS
 62
     7
100
AcDbLine
 10
558.9485331622105
 20
197.0175791532121
 30
0.0
 11
557.449446921682
 21
196.7392943223547
 31
0.0
  0
ARC
  5
254
330
1F
100
AcDbEntity
  8
0
  6
CONTINUOUS
 62
     7
100
AcDbCircle
 10
562.5
 20
170.0
 30
0.0
 40
27.25
100
AcDbArc
 50
82.51139225807073
 51
97.48860774192927
  0
LINE
  5
255
330
1F
100
AcDbEntity
  8
0
  6
CONTINUOUS
 62
     7
100
AcDbLine
 10
547.1637439909414
 20
192.4788166699012
 30
0.0
 11
545.9069528536795
 21
191.6155797146406
 31
0.0
  0
LINE
  5
256
330
1F
100
AcDbEntity
  8
0
  6
CONTINUOUS
 62
     7
100
AcDbLine
 10
547.7167981116942
 20
192.4894794539807
 30
0.0
 11
547.1637439909414
 21
192.4788166699012
 31
0.0
  0
LINE
  5
257
330
1F
100
AcDbEntity
  8
0
  6
CONTINUOUS
 62
     7
100
AcDbLine
 10
548.0421490689484
 20
192.6803638955325
 30
0.0
 11
547.7167981116937
 21
192.4894794539806
 31
0.0
  0
LINE
  5
258
330
1F
100
AcDbEntity
  8
0
  6
CONTINUOUS
 62
     7
100
AcDbLine
 10
540.0105205460193
 20
184.7832018883061
 30
0.0
 11
539.8196361044673
 21
184.4578509310514
 31
0.0
  0
LINE
  5
259
330
1F
100
AcDbEntity
  8
0
  6
CONTINUOUS
 62
     7
100
AcDbLine
 10
540.0211833300988
 20
185.3362560090586
 30
0.0
 11
540.0105205460193
 21
184.7832018883061
 31
0.0
  0
LINE
  5
25A
330
1F
100
AcDbEntity
  8
0
  6
CONTINUOUS
 62
     7
100
AcDbLine
 10
540.8844202853593
 20
186.5930471463206
 30
0.0
 11
540.0211833300989
 21
185.3362560090586
 31
0.0
  0
ARC
  5
25B
330
1F
100
AcDbEntity
  8
0
  6
CONTINUOUS
 62
     7
100
AcDbCircle
 10
562.5
 20
170.0
 30
0.0
 40
27.25
100
AcDbArc
 50
127.5113922580707
 51
142.4886077419293
  0
LINE
  5
25C
330
1F
100
AcDbEntity
  8
0
  6
CONTINUOUS
 62
     7
100
AcDbLine
 10
567.4675808576741
 20
149.0259120983207
 30
0.0
 11
567.381786896165
 21
149.512473832461
 31
0.0
  0
LINE
  5
25D
330
1F
100
AcDbEntity
  8
0
  6
CONTINUOUS
 62
     7
100
AcDbLine
 10
546.819697484775
 20
155.2109048310612
 30
0.0
 11
547.1981753262953
 21
155.5284854482897
 31
0.0
  0
LINE
  5
25E
330
1F
100
AcDbEntity
  8
0
  6
CONTINUOUS
 62
     7
100
AcDbLine
 10
577.8018246737046
 20
155.5284854482897
 30
0.0
 11
578.1803025152249
 21
155.2109048310612
 31
0.0
  0
LINE
  5
25F
330
1F
100
AcDbEntity
  8
0
  6
CONTINUOUS
 62
     7
100
AcDbLine
 10
574.3415596253712
 20
151.9898170880006
 30
0.0
 11
574.0945257587857
 21
152.4176922961172
 31
0.0
  0
LINE
  5
260
330
1F
100
AcDbEntity
  8
0
  6
CONTINUOUS
 62
     7
100
AcDbLine
 10
581.8285612115554
 20
161.6347568322066
 30
0.0
 11
582.292833014585
 21
161.4657757152948
 31
0.0
  0
LINE
  5
261
330
1F
100
AcDbEntity
  8
0
  6
CONTINUOUS
 62
     7
100
AcDbLine
 10
559.9883910069681
 20
148.5574944759009
 30
0.0
 11
560.1597022171449
 21
149.5290486276728
 31
0.0
  0
LINE
  5
262
330
1F
100
AcDbEntity
  8
0
  6
CONTINUOUS
 62
     7
100
AcDbLine
 10
571.9294622493245
 20
151.1676922961172
 30
0.0
 11
572.1764961159101
 21
150.7398170880006
 31
0.0
  0
LINE
  5
263
330
1F
100
AcDbEntity
  8
0
  6
CONTINUOUS
 62
     7
100
AcDbLine
 10
583.5239880081102
 20
168.75
 30
0.0
 11
584.0180557412816
 21
168.75
 31
0.0
  0
LINE
  5
264
330
1F
100
AcDbEntity
  8
0
  6
CONTINUOUS
 62
     7
100
AcDbLine
 10
542.7071669854149
 20
161.4657757152948
 30
0.0
 11
543.1714387884443
 21
161.6347568322066
 31
0.0
  0
LINE
  5
265
330
1F
100
AcDbEntity
  8
0
  6
CONTINUOUS
 62
     7
100
AcDbLine
 10
564.9197675136345
 20
149.0783533882937
 30
0.0
 11
565.0055614751437
 21
148.5917916541534
 31
0.0
  0
LINE
  5
266
330
1F
100
AcDbEntity
  8
0
  6
CONTINUOUS
 62
     7
100
AcDbLine
 10
567.3817868961651
 20
190.487526167539
 30
0.0
 11
567.4675808576742
 21
190.9740879016793
 31
0.0
  0
LINE
  5
267
330
1F
100
AcDbEntity
  8
0
  6
CONTINUOUS
 62
     7
100
AcDbLine
 10
545.591206302079
 20
157.4435965560871
 30
0.0
 11
545.2127284605588
 21
157.1260159388586
 31
0.0
  0
LINE
  5
268
330
1F
100
AcDbEntity
  8
0
  6
CONTINUOUS
 62
     7
100
AcDbLine
 10
583.1478833728992
 20
163.8150072672595
 30
0.0
 11
582.6836115698696
 21
163.9839883841714
 31
0.0
  0
LINE
  5
269
330
1F
100
AcDbEntity
  8
0
  6
CONTINUOUS
 62
     7
100
AcDbLine
 10
582.292833014585
 20
178.5342242847052
 30
0.0
 11
581.8285612115554
 21
178.3652431677934
 31
0.0
  0
LINE
  5
26A
330
1F
100
AcDbEntity
  8
0
  6
CONTINUOUS
 62
     7
100
AcDbLine
 10
550.9054742412143
 20
152.4176922961172
 30
0.0
 11
550.6584403746286
 21
151.9898170880006
 31
0.0
  0
LINE
  5
26B
330
1F
100
AcDbEntity
  8
0
  6
CONTINUOUS
 62
     7
100
AcDbLine
 10
550.6584403746286
 20
188.0101829119994
 30
0.0
 11
550.9054742412143
 21
187.5823077038828
 31
0.0
  0
LINE
  5
26C
330
1F
100
AcDbEntity
  8
0
  6
CONTINUOUS
 62
     7
100
AcDbLine
 10
542.3163884301302
 20
163.9839883841714
 30
0.0
 11
541.8521166271008
 21
163.8150072672595
 31
0.0
  0
LINE
  5
26D
330
1F
100
AcDbEntity
  8
0
  6
CONTINUOUS
 62
     7
100
AcDbLine
 10
579.4087936979209
 20
182.5564034439129
 30
0.0
 11
579.7872715394412
 21
182.8739840611414
 31
0.0
  0
LINE
  5
26E
330
1F
100
AcDbEntity
  8
0
  6
CONTINUOUS
 62
     7
100
AcDbLine
 10
582.6836115698696
 20
176.0160116158286
 30
0.0
 11
583.1478833728992
 21
176.1849927327405
 31
0.0
  0
LINE
  5
26F
330
1F
100
AcDbEntity
  8
0
  6
CONTINUOUS
 62
     7
100
AcDbLine
 10
543.1714387884443
 20
178.3652431677934
 30
0.0
 11
542.7071669854149
 21
178.5342242847052
 31
0.0
  0
LINE
  5
270
330
1F
100
AcDbEntity
  8
0
  6
CONTINUOUS
 62
     7
100
AcDbLine
 10
574.0945257587857
 20
187.5823077038828
 30
0.0
 11
574.3415596253714
 21
188.0101829119994
 31
0.0
  0
LINE
  5
271
330
1F
100
AcDbEntity
  8
0
  6
CONTINUOUS
 62
     7
100
AcDbLine
 10
557.5263716244376
 20
148.9916149200682
 30
0.0
 11
557.6976828346143
 21
149.9631690718402
 31
0.0
  0
LINE
  5
272
330
1F
100
AcDbEntity
  8
0
  6
CONTINUOUS
 62
     7
100
AcDbLine
 10
547.1981753262953
 20
184.4715145517103
 30
0.0
 11
546.819697484775
 21
184.7890951689388
 31
0.0
  0
LINE
  5
273
330
1F
100
AcDbEntity
  8
0
  6
CONTINUOUS
 62
     7
100
AcDbLine
 10
579.7872715394412
 20
157.1260159388586
 30
0.0
 11
579.4087936979209
 21
157.4435965560871
 31
0.0
  0
LINE
  5
274
330
1F
100
AcDbEntity
  8
0
  6
CONTINUOUS
 62
     7
100
AcDbLine
 10
560.0802324863654
 20
190.9216466117063
 30
0.0
 11
559.9944385248563
 21
191.4082083458466
 31
0.0
  0
LINE
  5
275
330
1F
100
AcDbEntity
  8
0
  6
CONTINUOUS
 62
     7
100
AcDbLine
 10
552.8235038840896
 20
150.7398170880006
 30
0.0
 11
553.0705377506753
 21
151.1676922961172
 31
0.0
  0
LINE
  5
276
330
1F
100
AcDbEntity
  8
0
  6
CONTINUOUS
 62
     7
100
AcDbLine
 10
557.5324191423258
 20
190.9740879016793
 30
0.0
 11
557.6182131038349
 21
190.487526167539
 31
0.0
  0
LINE
  5
277
330
1F
100
AcDbEntity
  8
0
  6
CONTINUOUS
 62
     7
100
AcDbLine
 10
578.180302515225
 20
184.7890951689388
 30
0.0
 11
577.8018246737047
 21
184.4715145517103
 31
0.0
  0
LINE
  5
278
330
1F
100
AcDbEntity
  8
0
  6
CONTINUOUS
 62
     7
100
AcDbLine
 10
545.2127284605587
 20
182.8739840611414
 30
0.0
 11
545.591206302079
 21
182.5564034439129
 31
0.0
  0
LINE
  5
279
330
1F
100
AcDbEntity
  8
0
  6
CONTINUOUS
 62
     7
100
AcDbLine
 10
584.0180557412815
 20
171.25
 30
0.0
 11
583.5239880081101
 21
171.25
 31
0.0
  0
LINE
  5
27A
330
1F
100
AcDbEntity
  8
0
  6
CONTINUOUS
 62
     7
100
AcDbLine
 10
540.9819442587184
 20
168.75
 30
0.0
 11
541.4760119918898
 21
168.75
 31
0.0
  0
LINE
  5
27B
330
1F
100
AcDbEntity
  8
0
  6
CONTINUOUS
 62
     7
100
AcDbLine
 10
565.0055614751437
 20
191.4082083458466
 30
0.0
 11
564.9197675136346
 21
190.9216466117063
 31
0.0
  0
LINE
  5
27C
330
1F
100
AcDbEntity
  8
0
  6
CONTINUOUS
 62
     7
100
AcDbLine
 10
541.4760119918898
 20
171.25
 30
0.0
 11
540.9819442587185
 21
171.25
 31
0.0
  0
LINE
  5
27D
330
1F
100
AcDbEntity
  8
0
  6
CONTINUOUS
 62
     7
100
AcDbLine
 10
553.0705377506753
 20
188.8323077038828
 30
0.0
 11
552.8235038840896
 21
189.2601829119994
 31
0.0
  0
LINE
  5
27E
330
1F
100
AcDbEntity
  8
0
  6
CONTINUOUS
 62
     7
100
AcDbLine
 10
572.1764961159101
 20
189.2601829119994
 30
0.0
 11
571.9294622493245
 21
188.8323077038828
 31
0.0
  0
LINE
  5
27F
330
1F
100
AcDbEntity
  8
0
  6
CONTINUOUS
 62
     7
100
AcDbLine
 10
541.8521166271008
 20
176.1849927327405
 30
0.0
 11
542.3163884301302
 21
176.0160116158286
 31
0.0
  0
LINE
  5
280
330
1F
100
AcDbEntity
  8
0
  6
CONTINUOUS
 62
     7
100
AcDbLine
 10
565.0055614751437
 20
148.5917916541534
 30
0.0
 11
565.0395956513452
 21
148.3987742494166
 31
0.0
  0
LINE
  5
281
330
1F
100
AcDbEntity
  8
0
  6
CONTINUOUS
 62
     7
100
AcDbLine
 10
567.5016150338756
 20
148.8328946935839
 30
0.0
 11
567.4675808576742
 21
149.0259120983207
 31
0.0
  0
LINE
  5
282
330
1F
100
AcDbEntity
  8
0
  6
CONTINUOUS
 62
     7
100
AcDbLine
 10
572.1764961159101
 20
150.7398170880006
 30
0.0
 11
572.2744936205737
 21
150.5700804309085
 31
0.0
  0
LINE
  5
283
330
1F
100
AcDbEntity
  8
0
  6
CONTINUOUS
 62
     7
100
AcDbLine
 10
582.292833014585
 20
161.4657757152948
 30
0.0
 11
582.4770080785604
 21
161.3987414741137
 31
0.0
  0
LINE
  5
284
330
1F
100
AcDbEntity
  8
0
  6
CONTINUOUS
 62
     7
100
AcDbLine
 10
574.4395571300347
 20
151.8200804309085
 30
0.0
 11
574.3415596253711
 21
151.9898170880006
 31
0.0
  0
LINE
  5
285
330
1F
100
AcDbEntity
  8
0
  6
CONTINUOUS
 62
     7
100
AcDbLine
 10
579.9374124272152
 20
157.0000327753029
 30
0.0
 11
579.7872715394413
 21
157.1260159388586
 31
0.0
  0
LINE
  5
286
330
1F
100
AcDbEntity
  8
0
  6
CONTINUOUS
 62
     7
100
AcDbLine
 10
578.1803025152249
 20
155.2109048310612
 30
0.0
 11
578.3304434029989
 21
155.0849216675055
 31
0.0
  0
LINE
  5
287
330
1F
100
AcDbEntity
  8
0
  6
CONTINUOUS
 62
     7
100
AcDbLine
 10
552.7255063794263
 20
150.5700804309085
 30
0.0
 11
552.8235038840896
 21
150.7398170880006
 31
0.0
  0
LINE
  5
288
330
1F
100
AcDbEntity
  8
0
  6
CONTINUOUS
 62
     7
100
AcDbLine
 10
546.669556597001
 20
155.0849216675055
 30
0.0
 11
546.819697484775
 21
155.2109048310612
 31
0.0
  0
LINE
  5
289
330
1F
100
AcDbEntity
  8
0
  6
CONTINUOUS
 62
     7
100
AcDbLine
 10
583.3320584368744
 20
163.7479730260784
 30
0.0
 11
583.1478833728992
 21
163.8150072672595
 31
0.0
  0
LINE
  5
28A
330
1F
100
AcDbEntity
  8
0
  6
CONTINUOUS
 62
     7
100
AcDbLine
 10
584.2140507506084
 20
171.25
 30
0.0
 11
584.0180557412816
 21
171.25
 31
0.0
  0
LINE
  5
28B
330
1F
100
AcDbEntity
  8
0
  6
CONTINUOUS
 62
     7
100
AcDbLine
 10
550.6584403746286
 20
151.9898170880006
 30
0.0
 11
550.5604428699651
 21
151.8200804309085
 31
0.0
  0
LINE
  5
28C
330
1F
100
AcDbEntity
  8
0
  6
CONTINUOUS
 62
     7
100
AcDbLine
 10
584.0180557412815
 20
168.75
 30
0.0
 11
584.2140507506083
 21
168.75
 31
0.0
  0
LINE
  5
28D
330
1F
100
AcDbEntity
  8
0
  6
CONTINUOUS
 62
     7
100
AcDbLine
 10
545.2127284605587
 20
157.1260159388586
 30
0.0
 11
545.0625875727847
 21
157.0000327753029
 31
0.0
  0
LINE
  5
28E
330
1F
100
AcDbEntity
  8
0
  6
CONTINUOUS
 62
     7
100
AcDbLine
 10
542.5229919214396
 20
161.3987414741137
 30
0.0
 11
542.707166985415
 21
161.4657757152948
 31
0.0
  0
LINE
  5
28F
330
1F
100
AcDbEntity
  8
0
  6
CONTINUOUS
 62
     7
100
AcDbLine
 10
541.8521166271008
 20
163.8150072672595
 30
0.0
 11
541.6679415631254
 21
163.7479730260785
 31
0.0
  0
LINE
  5
290
330
1F
100
AcDbEntity
  8
0
  6
CONTINUOUS
 62
     7
100
AcDbLine
 10
583.1478833728992
 20
176.1849927327405
 30
0.0
 11
583.3320584368744
 21
176.2520269739215
 31
0.0
  0
LINE
  5
291
330
1F
100
AcDbEntity
  8
0
  6
CONTINUOUS
 62
     7
100
AcDbLine
 10
557.4983849661244
 20
148.8328946935839
 30
0.0
 11
557.5263716244376
 21
148.9916149200682
 31
0.0
  0
LINE
  5
292
330
1F
100
AcDbEntity
  8
0
  6
CONTINUOUS
 62
     7
100
AcDbLine
 10
559.9604043486548
 20
148.3987742494166
 30
0.0
 11
559.9883910069682
 21
148.5574944759009
 31
0.0
  0
LINE
  5
293
330
1F
100
AcDbEntity
  8
0
  6
CONTINUOUS
 62
     7
100
AcDbLine
 10
540.7859492493914
 20
168.75
 30
0.0
 11
540.9819442587183
 21
168.75
 31
0.0
  0
LINE
  5
294
330
1F
100
AcDbEntity
  8
0
  6
CONTINUOUS
 62
     7
100
AcDbLine
 10
582.4770080785604
 20
178.6012585258863
 30
0.0
 11
582.2928330145851
 21
178.5342242847052
 31
0.0
  0
LINE
  5
295
330
1F
100
AcDbEntity
  8
0
  6
CONTINUOUS
 62
     7
100
AcDbLine
 10
578.3304434029989
 20
184.9150783324945
 30
0.0
 11
578.180302515225
 21
184.7890951689388
 31
0.0
  0
LINE
  5
296
330
1F
100
AcDbEntity
  8
0
  6
CONTINUOUS
 62
     7
100
AcDbLine
 10
541.6679415631254
 20
176.2520269739215
 30
0.0
 11
541.8521166271008
 21
176.1849927327405
 31
0.0
  0
LINE
  5
297
330
1F
100
AcDbEntity
  8
0
  6
CONTINUOUS
 62
     7
100
AcDbLine
 10
574.3415596253712
 20
188.0101829119994
 30
0.0
 11
574.4395571300348
 21
188.1799195690915
 31
0.0
  0
LINE
  5
298
330
1F
100
AcDbEntity
  8
0
  6
CONTINUOUS
 62
     7
100
AcDbLine
 10
572.2744936205737
 20
189.4299195690915
 30
0.0
 11
572.1764961159101
 21
189.2601829119994
 31
0.0
  0
LINE
  5
299
330
1F
100
AcDbEntity
  8
0
  6
CONTINUOUS
 62
     7
100
AcDbLine
 10
579.7872715394412
 20
182.8739840611414
 30
0.0
 11
579.9374124272151
 21
182.9999672246971
 31
0.0
  0
LINE
  5
29A
330
1F
100
AcDbEntity
  8
0
  6
CONTINUOUS
 62
     7
100
AcDbLine
 10
542.7071669854149
 20
178.5342242847052
 30
0.0
 11
542.5229919214395
 21
178.6012585258863
 31
0.0
  0
LINE
  5
29B
330
1F
100
AcDbEntity
  8
0
  6
CONTINUOUS
 62
     7
100
AcDbLine
 10
545.0625875727845
 20
182.9999672246971
 30
0.0
 11
545.2127284605585
 21
182.8739840611414
 31
0.0
  0
LINE
  5
29C
330
1F
100
AcDbEntity
  8
0
  6
CONTINUOUS
 62
     7
100
AcDbLine
 10
559.9944385248563
 20
191.4082083458466
 30
0.0
 11
559.9604043486548
 21
191.6012257505834
 31
0.0
  0
LINE
  5
29D
330
1F
100
AcDbEntity
  8
0
  6
CONTINUOUS
 62
     7
100
AcDbLine
 10
567.4675808576741
 20
190.9740879016793
 30
0.0
 11
567.5016150338755
 21
191.1671053064161
 31
0.0
  0
LINE
  5
29E
330
1F
100
AcDbEntity
  8
0
  6
CONTINUOUS
 62
     7
100
AcDbLine
 10
540.9819442587184
 20
171.25
 30
0.0
 11
540.7859492493914
 21
171.25
 31
0.0
  0
LINE
  5
29F
330
1F
100
AcDbEntity
  8
0
  6
CONTINUOUS
 62
     7
100
AcDbLine
 10
557.4983849661244
 20
191.1671053064161
 30
0.0
 11
557.5324191423258
 21
190.9740879016793
 31
0.0
  0
LINE
  5
2A0
330
1F
100
AcDbEntity
  8
0
  6
CONTINUOUS
 62
     7
100
AcDbLine
 10
565.039595651345
 20
191.6012257505834
 30
0.0
 11
565.0055614751437
 21
191.4082083458466
 31
0.0
  0
LINE
  5
2A1
330
1F
100
AcDbEntity
  8
0
  6
CONTINUOUS
 62
     7
100
AcDbLine
 10
550.5604428699651
 20
188.1799195690915
 30
0.0
 11
550.6584403746286
 21
188.0101829119994
 31
0.0
  0
LINE
  5
2A2
330
1F
100
AcDbEntity
  8
0
  6
CONTINUOUS
 62
     7
100
AcDbLine
 10
552.8235038840897
 20
189.2601829119994
 30
0.0
 11
552.7255063794262
 21
189.4299195690915
 31
0.0
  0
LINE
  5
2A3
330
1F
100
AcDbEntity
  8
0
  6
CONTINUOUS
 62
     7
100
AcDbLine
 10
546.819697484775
 20
184.7890951689388
 30
0.0
 11
546.669556597001
 21
184.9150783324945
 31
0.0
  0
LINE
  5
2A4
330
1F
100
AcDbEntity
  8
0
  6
CONTINUOUS
 62
     7
100
AcDbLine
 10
577.5056333893344
 20
155.7770194457625
 30
0.0
 11
577.8018246737046
 21
155.5284854482897
 31
0.0
  0
LINE
  5
2A5
330
1F
100
AcDbEntity
  8
0
  6
CONTINUOUS
 62
     7
100
AcDbLine
 10
553.0705377506753
 20
151.1676922961172
 30
0.0
 11
553.2638628815021
 21
151.5025412450889
 31
0.0
  0
LINE
  5
2A6
330
1F
100
AcDbEntity
  8
0
  6
CONTINUOUS
 62
     7
100
AcDbLine
 10
551.098799372041
 20
152.7525412450889
 30
0.0
 11
550.9054742412143
 21
152.4176922961172
 31
0.0
  0
LINE
  5
2A7
330
1F
100
AcDbEntity
  8
0
  6
CONTINUOUS
 62
     7
100
AcDbLine
 10
579.4087936979209
 20
157.4435965560871
 30
0.0
 11
579.1126024135509
 21
157.69213055356
 31
0.0
  0
LINE
  5
2A8
330
1F
100
AcDbEntity
  8
0
  6
CONTINUOUS
 62
     7
100
AcDbLine
 10
564.8526264003038
 20
149.4591295636742
 30
0.0
 11
564.9197675136345
 21
149.0783533882937
 31
0.0
  0
LINE
  5
2A9
330
1F
100
AcDbEntity
  8
0
  6
CONTINUOUS
 62
     7
100
AcDbLine
 10
567.3817868961651
 20
149.512473832461
 30
0.0
 11
567.3146457828344
 21
149.8932500078415
 31
0.0
  0
LINE
  5
2AA
330
1F
100
AcDbEntity
  8
0
  6
CONTINUOUS
 62
     7
100
AcDbLine
 10
581.4652288138549
 20
161.7669990101142
 30
0.0
 11
581.8285612115554
 21
161.6347568322066
 31
0.0
  0
LINE
  5
2AB
330
1F
100
AcDbEntity
  8
0
  6
CONTINUOUS
 62
     7
100
AcDbLine
 10
582.6836115698696
 20
163.9839883841714
 30
0.0
 11
582.3202791721691
 21
164.116230562079
 31
0.0
  0
LINE
  5
2AC
330
1F
100
AcDbEntity
  8
0
  6
CONTINUOUS
 62
     7
100
AcDbLine
 10
560.159702217145
 20
149.5290486276728
 30
0.0
 11
560.2267334450362
 21
149.9092016117592
 31
0.0
  0
LINE
  5
2AD
330
1F
100
AcDbEntity
  8
0
  6
CONTINUOUS
 62
     7
100
AcDbLine
 10
557.6976828346143
 20
149.9631690718402
 30
0.0
 11
557.7647140625055
 21
150.3433220559265
 31
0.0
  0
LINE
  5
2AE
330
1F
100
AcDbEntity
  8
0
  6
CONTINUOUS
 62
     7
100
AcDbLine
 10
571.7361371184978
 20
151.5025412450889
 30
0.0
 11
571.9294622493245
 21
151.1676922961172
 31
0.0
  0
LINE
  5
2AF
330
1F
100
AcDbEntity
  8
0
  6
CONTINUOUS
 62
     7
100
AcDbLine
 10
583.5239880081102
 20
171.25
 30
0.0
 11
583.1373377464568
 21
171.25
 31
0.0
  0
LINE
  5
2B0
330
1F
100
AcDbEntity
  8
0
  6
CONTINUOUS
 62
     7
100
AcDbLine
 10
581.8285612115554
 20
178.3652431677934
 30
0.0
 11
581.4652288138549
 21
178.2330009898858
 31
0.0
  0
LINE
  5
2B1
330
1F
100
AcDbEntity
  8
0
  6
CONTINUOUS
 62
     7
100
AcDbLine
 10
547.1981753262953
 20
155.5284854482897
 30
0.0
 11
547.4943666106655
 21
155.7770194457625
 31
0.0
  0
LINE
  5
2B2
330
1F
100
AcDbEntity
  8
0
  6
CONTINUOUS
 62
     7
100
AcDbLine
 10
582.320279172169
 20
175.883769437921
 30
0.0
 11
582.6836115698696
 21
176.0160116158286
 31
0.0
  0
LINE
  5
2B3
330
1F
100
AcDbEntity
  8
0
  6
CONTINUOUS
 62
     7
100
AcDbLine
 10
574.0945257587857
 20
152.4176922961172
 30
0.0
 11
573.9012006279589
 21
152.7525412450889
 31
0.0
  0
LINE
  5
2B4
330
1F
100
AcDbEntity
  8
0
  6
CONTINUOUS
 62
     7
100
AcDbLine
 10
583.1373377464568
 20
168.75
 30
0.0
 11
583.5239880081102
 21
168.75
 31
0.0
  0
LINE
  5
2B5
330
1F
100
AcDbEntity
  8
0
  6
CONTINUOUS
 62
     7
100
AcDbLine
 10
543.1714387884443
 20
161.6347568322066
 30
0.0
 11
543.534771186145
 21
161.7669990101142
 31
0.0
  0
LINE
  5
2B6
330
1F
100
AcDbEntity
  8
0
  6
CONTINUOUS
 62
     7
100
AcDbLine
 10
541.8626622535431
 20
171.25
 30
0.0
 11
541.4760119918898
 21
171.25
 31
0.0
  0
LINE
  5
2B7
330
1F
100
AcDbEntity
  8
0
  6
CONTINUOUS
 62
     7
100
AcDbLine
 10
545.887397586449
 20
157.69213055356
 30
0.0
 11
545.5912063020788
 21
157.4435965560871
 31
0.0
  0
LINE
  5
2B8
330
1F
100
AcDbEntity
  8
0
  6
CONTINUOUS
 62
     7
100
AcDbLine
 10
542.6797208278309
 20
164.116230562079
 30
0.0
 11
542.3163884301301
 21
163.9839883841714
 31
0.0
  0
LINE
  5
2B9
330
1F
100
AcDbEntity
  8
0
  6
CONTINUOUS
 62
     7
100
AcDbLine
 10
579.1126024135509
 20
182.30786944644
 30
0.0
 11
579.4087936979209
 21
182.5564034439129
 31
0.0
  0
LINE
  5
2BA
330
1F
100
AcDbEntity
  8
0
  6
CONTINUOUS
 62
     7
100
AcDbLine
 10
541.4760119918898
 20
168.75
 30
0.0
 11
541.8626622535431
 21
168.75
 31
0.0
  0
LINE
  5
2BB
330
1F
100
AcDbEntity
  8
0
  6
CONTINUOUS
 62
     7
100
AcDbLine
 10
577.8018246737046
 20
184.4715145517103
 30
0.0
 11
577.5056333893344
 21
184.2229805542375
 31
0.0
  0
LINE
  5
2BC
330
1F
100
AcDbEntity
  8
0
  6
CONTINUOUS
 62
     7
100
AcDbLine
 10
553.2638628815021
 20
188.4974587549111
 30
0.0
 11
553.0705377506753
 21
188.8323077038828
 31
0.0
  0
LINE
  5
2BD
330
1F
100
AcDbEntity
  8
0
  6
CONTINUOUS
 62
     7
100
AcDbLine
 10
573.9012006279589
 20
187.2474587549111
 30
0.0
 11
574.0945257587857
 21
187.5823077038828
 31
0.0
  0
LINE
  5
2BE
330
1F
100
AcDbEntity
  8
0
  6
CONTINUOUS
 62
     7
100
AcDbLine
 10
571.9294622493245
 20
188.8323077038828
 30
0.0
 11
571.7361371184977
 21
188.4974587549111
 31
0.0
  0
LINE
  5
2BF
330
1F
100
AcDbEntity
  8
0
  6
CONTINUOUS
 62
     7
100
AcDbLine
 10
550.9054742412143
 20
187.5823077038828
 30
0.0
 11
551.0987993720411
 21
187.2474587549111
 31
0.0
  0
LINE
  5
2C0
330
1F
100
AcDbEntity
  8
0
  6
CONTINUOUS
 62
     7
100
AcDbLine
 10
542.3163884301302
 20
176.0160116158286
 30
0.0
 11
542.679720827831
 21
175.883769437921
 31
0.0
  0
LINE
  5
2C1
330
1F
100
AcDbEntity
  8
0
  6
CONTINUOUS
 62
     7
100
AcDbLine
 10
557.6182131038349
 20
190.487526167539
 30
0.0
 11
557.6853542171656
 21
190.1067499921585
 31
0.0
  0
LINE
  5
2C2
330
1F
100
AcDbEntity
  8
0
  6
CONTINUOUS
 62
     7
100
AcDbLine
 10
567.3146457828344
 20
190.1067499921585
 30
0.0
 11
567.3817868961651
 21
190.487526167539
 31
0.0
  0
LINE
  5
2C3
330
1F
100
AcDbEntity
  8
0
  6
CONTINUOUS
 62
     7
100
AcDbLine
 10
543.5347711861451
 20
178.2330009898858
 30
0.0
 11
543.1714387884444
 21
178.3652431677934
 31
0.0
  0
LINE
  5
2C4
330
1F
100
AcDbEntity
  8
0
  6
CONTINUOUS
 62
     7
100
AcDbLine
 10
560.147373599696
 20
190.5408704363258
 30
0.0
 11
560.0802324863655
 21
190.9216466117063
 31
0.0
  0
LINE
  5
2C5
330
1F
100
AcDbEntity
  8
0
  6
CONTINUOUS
 62
     7
100
AcDbLine
 10
545.591206302079
 20
182.5564034439129
 30
0.0
 11
545.8873975864491
 21
182.30786944644
 31
0.0
  0
LINE
  5
2C6
330
1F
100
AcDbEntity
  8
0
  6
CONTINUOUS
 62
     7
100
AcDbLine
 10
564.9197675136345
 20
190.9216466117063
 30
0.0
 11
564.8526264003038
 21
190.5408704363258
 31
0.0
  0
LINE
  5
2C7
330
1F
100
AcDbEntity
  8
0
  6
CONTINUOUS
 62
     7
100
AcDbLine
 10
547.4943666106653
 20
184.2229805542375
 30
0.0
 11
547.1981753262952
 21
184.4715145517103
 31
0.0
  0
LINE
  5
2C8
330
1F
100
AcDbEntity
  8
0
  6
CONTINUOUS
 62
     7
100
AcDbLine
 10
564.6413588839367
 20
150.6572871883229
 30
0.0
 11
564.8421230056443
 21
149.5186972748508
 31
0.0
  0
LINE
  5
2C9
330
1F
100
AcDbEntity
  8
0
  6
CONTINUOUS
 62
     7
100
AcDbLine
 10
564.8421230056443
 20
149.5186972748508
 30
0.0
 11
564.852626400304
 21
149.4591295636741
 31
0.0
  0
LINE
  5
2CA
330
1F
100
AcDbEntity
  8
0
  6
CONTINUOUS
 62
     7
100
AcDbLine
 10
553.2638628815021
 20
151.5025412450889
 30
0.0
 11
553.293059897879
 21
151.553111960883
 31
0.0
  0
LINE
  5
2CB
330
1F
100
AcDbEntity
  8
0
  6
CONTINUOUS
 62
     7
100
AcDbLine
 10
553.293059897879
 20
151.553111960883
 30
0.0
 11
553.8721834501532
 21
152.5561833772818
 31
0.0
  0
LINE
  5
2CC
330
1F
100
AcDbEntity
  8
0
  6
CONTINUOUS
 62
     7
100
AcDbLine
 10
560.2267334450361
 20
149.9092016117592
 30
0.0
 11
560.2348378560038
 21
149.9551640103387
 31
0.0
  0
LINE
  5
2CD
330
1F
100
AcDbEntity
  8
0
  6
CONTINUOUS
 62
     7
100
AcDbLine
 10
560.2348378560038
 20
149.9551640103387
 30
0.0
 11
560.3954444066
 21
150.8660090208462
 31
0.0
  0
LINE
  5
2CE
330
1F
100
AcDbEntity
  8
0
  6
CONTINUOUS
 62
     7
100
AcDbLine
 10
557.7647140625056
 20
150.3433220559265
 30
0.0
 11
557.7728184734733
 21
150.3892844545061
 31
0.0
  0
LINE
  5
2CF
330
1F
100
AcDbEntity
  8
0
  6
CONTINUOUS
 62
     7
100
AcDbLine
 10
557.7728184734733
 20
150.3892844545061
 30
0.0
 11
557.9334250240693
 21
151.3001294650135
 31
0.0
  0
LINE
  5
2D0
330
1F
100
AcDbEntity
  8
0
  6
CONTINUOUS
 62
     7
100
AcDbLine
 10
547.4943666106653
 20
155.7770194457625
 30
0.0
 11
547.5390990349675
 21
155.8145544064962
 31
0.0
  0
LINE
  5
2D1
330
1F
100
AcDbEntity
  8
0
  6
CONTINUOUS
 62
     7
100
AcDbLine
 10
547.5390990349675
 20
155.8145544064962
 30
0.0
 11
548.4263677931656
 21
156.5590612942553
 31
0.0
  0
LINE
  5
2D2
330
1F
100
AcDbEntity
  8
0
  6
CONTINUOUS
 62
     7
100
AcDbLine
 10
582.320279172169
 20
164.116230562079
 30
0.0
 11
582.2654067304924
 21
164.1362024975308
 31
0.0
  0
LINE
  5
2D3
330
1F
100
AcDbEntity
  8
0
  6
CONTINUOUS
 62
     7
100
AcDbLine
 10
582.2654067304924
 20
164.1362024975308
 30
0.0
 11
581.1770104733016
 21
164.532346338235
 31
0.0
  0
LINE
  5
2D4
330
1F
100
AcDbEntity
  8
0
  6
CONTINUOUS
 62
     7
100
AcDbLine
 10
551.707119940692
 20
153.8061833772817
 30
0.0
 11
551.1290426916099
 21
152.8049242111719
 31
0.0
  0
LINE
  5
2D5
330
1F
100
AcDbEntity
  8
0
  6
CONTINUOUS
 62
     7
100
AcDbLine
 10
551.12904269161
 20
152.8049242111719
 30
0.0
 11
551.098799372041
 21
152.7525412450888
 31
0.0
  0
LINE
  5
2D6
330
1F
100
AcDbEntity
  8
0
  6
CONTINUOUS
 62
     7
100
AcDbLine
 10
579.1126024135509
 20
157.69213055356
 30
0.0
 11
579.0678699892487
 21
157.7296655142936
 31
0.0
  0
LINE
  5
2D7
330
1F
100
AcDbEntity
  8
0
  6
CONTINUOUS
 62
     7
100
AcDbLine
 10
579.0678699892486
 20
157.7296655142936
 30
0.0
 11
578.1806012310507
 21
158.4741724020527
 31
0.0
  0
LINE
  5
2D8
330
1F
100
AcDbEntity
  8
0
  6
CONTINUOUS
 62
     7
100
AcDbLine
 10
571.1278165498468
 20
152.5561833772817
 30
0.0
 11
571.705893798929
 21
151.5549242111719
 31
0.0
  0
LINE
  5
2D9
330
1F
100
AcDbEntity
  8
0
  6
CONTINUOUS
 62
     7
100
AcDbLine
 10
571.7058937989289
 20
151.5549242111719
 30
0.0
 11
571.7361371184978
 21
151.5025412450888
 31
0.0
  0
LINE
  5
2DA
330
1F
100
AcDbEntity
  8
0
  6
CONTINUOUS
 62
     7
100
AcDbLine
 10
576.5736322068342
 20
156.5590612942553
 30
0.0
 11
577.4592979355399
 21
155.8158995079519
 31
0.0
  0
LINE
  5
2DB
330
1F
100
AcDbEntity
  8
0
  6
CONTINUOUS
 62
     7
100
AcDbLine
 10
577.45929793554
 20
155.8158995079519
 30
0.0
 11
577.5056333893345
 21
155.7770194457625
 31
0.0
  0
LINE
  5
2DC
330
1F
100
AcDbEntity
  8
0
  6
CONTINUOUS
 62
     7
100
AcDbLine
 10
580.3219601149875
 20
162.1831147862702
 30
0.0
 11
581.4083899654008
 21
161.7876866591014
 31
0.0
  0
LINE
  5
2DD
330
1F
100
AcDbEntity
  8
0
  6
CONTINUOUS
 62
     7
100
AcDbLine
 10
581.4083899654008
 20
161.7876866591014
 30
0.0
 11
581.4652288138549
 21
161.7669990101142
 31
0.0
  0
LINE
  5
2DE
330
1F
100
AcDbEntity
  8
0
  6
CONTINUOUS
 62
     7
100
AcDbLine
 10
567.3146457828344
 20
149.8932500078415
 30
0.0
 11
567.3045057654601
 21
149.950756904027
 31
0.0
  0
LINE
  5
2DF
330
1F
100
AcDbEntity
  8
0
  6
CONTINUOUS
 62
     7
100
AcDbLine
 10
567.30450576546
 20
149.950756904027
 30
0.0
 11
567.1033782664672
 21
151.0914076324903
 31
0.0
  0
LINE
  5
2E0
330
1F
100
AcDbEntity
  8
0
  6
CONTINUOUS
 62
     7
100
AcDbLine
 10
583.1373377464568
 20
171.25
 30
0.0
 11
583.0789437137032
 21
171.25
 31
0.0
  0
LINE
  5
2E1
330
1F
100
AcDbEntity
  8
0
  6
CONTINUOUS
 62
     7
100
AcDbLine
 10
583.0789437137031
 20
171.25
 30
0.0
 11
581.9206966091546
 21
171.25
 31
0.0
  0
LINE
  5
2E2
330
1F
100
AcDbEntity
  8
0
  6
CONTINUOUS
 62
     7
100
AcDbLine
 10
581.1770104733016
 20
175.467653661765
 30
0.0
 11
582.2634403237148
 21
175.8630817889338
 31
0.0
  0
LINE
  5
2E3
330
1F
100
AcDbEntity
  8
0
  6
CONTINUOUS
 62
     7
100
AcDbLine
 10
582.2634403237149
 20
175.8630817889338
 30
0.0
 11
582.3202791721691
 21
175.883769437921
 31
0.0
  0
LINE
  5
2E4
330
1F
100
AcDbEntity
  8
0
  6
CONTINUOUS
 62
     7
100
AcDbLine
 10
573.9012006279589
 20
152.7525412450889
 30
0.0
 11
573.872003611582
 21
152.803111960883
 31
0.0
  0
LINE
  5
2E5
330
1F
100
AcDbEntity
  8
0
  6
CONTINUOUS
 62
     7
100
AcDbLine
 10
573.872003611582
 20
152.803111960883
 30
0.0
 11
573.2928800593078
 21
153.8061833772817
 31
0.0
  0
LINE
  5
2E6
330
1F
100
AcDbEntity
  8
0
  6
CONTINUOUS
 62
     7
100
AcDbLine
 10
581.4652288138549
 20
178.2330009898858
 30
0.0
 11
581.4103563721783
 21
178.213029054434
 31
0.0
  0
LINE
  5
2E7
330
1F
100
AcDbEntity
  8
0
  6
CONTINUOUS
 62
     7
100
AcDbLine
 10
581.4103563721782
 20
178.213029054434
 30
0.0
 11
580.3219601149874
 21
177.8168852137298
 31
0.0
  0
LINE
  5
2E8
330
1F
100
AcDbEntity
  8
0
  6
CONTINUOUS
 62
     7
100
AcDbLine
 10
581.9206966091546
 20
168.75
 30
0.0
 11
583.0768511073188
 21
168.75
 31
0.0
  0
LINE
  5
2E9
330
1F
100
AcDbEntity
  8
0
  6
CONTINUOUS
 62
     7
100
AcDbLine
 10
583.0768511073188
 20
168.75
 30
0.0
 11
583.1373377464568
 21
168.75
 31
0.0
  0
LINE
  5
2EA
330
1F
100
AcDbEntity
  8
0
  6
CONTINUOUS
 62
     7
100
AcDbLine
 10
548.4263677931656
 20
183.4409387057447
 30
0.0
 11
547.5407020644598
 21
184.1841004920481
 31
0.0
  0
LINE
  5
2EB
330
1F
100
AcDbEntity
  8
0
  6
CONTINUOUS
 62
     7
100
AcDbLine
 10
547.5407020644598
 20
184.1841004920481
 30
0.0
 11
547.4943666106653
 21
184.2229805542375
 31
0.0
  0
LINE
  5
2EC
330
1F
100
AcDbEntity
  8
0
  6
CONTINUOUS
 62
     7
100
AcDbLine
 10
546.8193987689493
 20
158.4741724020527
 30
0.0
 11
545.9337330402436
 21
157.7310106157494
 31
0.0
  0
LINE
  5
2ED
330
1F
100
AcDbEntity
  8
0
  6
CONTINUOUS
 62
     7
100
AcDbLine
 10
545.9337330402436
 20
157.7310106157494
 30
0.0
 11
545.8873975864491
 21
157.6921305535599
 31
0.0
  0
LINE
  5
2EE
330
1F
100
AcDbEntity
  8
0
  6
CONTINUOUS
 62
     7
100
AcDbLine
 10
541.8626622535431
 20
168.75
 30
0.0
 11
541.9210562862968
 21
168.75
 31
0.0
  0
LINE
  5
2EF
330
1F
100
AcDbEntity
  8
0
  6
CONTINUOUS
 62
     7
100
AcDbLine
 10
541.9210562862968
 20
168.75
 30
0.0
 11
543.0793033908453
 21
168.75
 31
0.0
  0
LINE
  5
2F0
330
1F
100
AcDbEntity
  8
0
  6
CONTINUOUS
 62
     7
100
AcDbLine
 10
543.8229895266984
 20
164.532346338235
 30
0.0
 11
542.736559676285
 21
164.1369182110662
 31
0.0
  0
LINE
  5
2F1
330
1F
100
AcDbEntity
  8
0
  6
CONTINUOUS
 62
     7
100
AcDbLine
 10
542.736559676285
 20
164.1369182110662
 30
0.0
 11
542.6797208278309
 21
164.116230562079
 31
0.0
  0
LINE
  5
2F2
330
1F
100
AcDbEntity
  8
0
  6
CONTINUOUS
 62
     7
100
AcDbLine
 10
543.5347711861451
 20
161.7669990101142
 30
0.0
 11
543.5896436278218
 21
161.786970945566
 31
0.0
  0
LINE
  5
2F3
330
1F
100
AcDbEntity
  8
0
  6
CONTINUOUS
 62
     7
100
AcDbLine
 10
543.5896436278217
 20
161.786970945566
 30
0.0
 11
544.6780398850124
 21
162.1831147862702
 31
0.0
  0
LINE
  5
2F4
330
1F
100
AcDbEntity
  8
0
  6
CONTINUOUS
 62
     7
100
AcDbLine
 10
577.5056333893344
 20
184.2229805542375
 30
0.0
 11
577.4609009650322
 21
184.1854455935038
 31
0.0
  0
LINE
  5
2F5
330
1F
100
AcDbEntity
  8
0
  6
CONTINUOUS
 62
     7
100
AcDbLine
 10
577.4609009650322
 20
184.1854455935038
 30
0.0
 11
576.5736322068342
 21
183.4409387057447
 31
0.0
  0
LINE
  5
2F6
330
1F
100
AcDbEntity
  8
0
  6
CONTINUOUS
 62
     7
100
AcDbLine
 10
543.0793033908452
 20
171.25
 30
0.0
 11
541.923148892681
 21
171.25
 31
0.0
  0
LINE
  5
2F7
330
1F
100
AcDbEntity
  8
0
  6
CONTINUOUS
 62
     7
100
AcDbLine
 10
541.923148892681
 20
171.25
 30
0.0
 11
541.8626622535429
 21
171.25
 31
0.0
  0
LINE
  5
2F8
330
1F
100
AcDbEntity
  8
0
  6
CONTINUOUS
 62
     7
100
AcDbLine
 10
578.1806012310507
 20
181.5258275979473
 30
0.0
 11
579.0662669597564
 21
182.2689893842506
 31
0.0
  0
LINE
  5
2F9
330
1F
100
AcDbEntity
  8
0
  6
CONTINUOUS
 62
     7
100
AcDbLine
 10
579.0662669597564
 20
182.2689893842506
 30
0.0
 11
579.112602413551
 21
182.3078694464401
 31
0.0
  0
LINE
  5
2FA
330
1F
100
AcDbEntity
  8
0
  6
CONTINUOUS
 62
     7
100
AcDbLine
 10
553.8721834501532
 20
187.4438166227182
 30
0.0
 11
553.2941062010711
 21
188.4450757888281
 31
0.0
  0
LINE
  5
2FB
330
1F
100
AcDbEntity
  8
0
  6
CONTINUOUS
 62
     7
100
AcDbLine
 10
553.294106201071
 20
188.4450757888281
 30
0.0
 11
553.263862881502
 21
188.4974587549112
 31
0.0
  0
LINE
  5
2FC
330
1F
100
AcDbEntity
  8
0
  6
CONTINUOUS
 62
     7
100
AcDbLine
 10
557.6853542171656
 20
190.1067499921585
 30
0.0
 11
557.6954942345398
 21
190.049243095973
 31
0.0
  0
LINE
  5
2FD
330
1F
100
AcDbEntity
  8
0
  6
CONTINUOUS
 62
     7
100
AcDbLine
 10
557.6954942345398
 20
190.049243095973
 30
0.0
 11
557.8966217335326
 21
188.9085923675097
 31
0.0
  0
LINE
  5
2FE
330
1F
100
AcDbEntity
  8
0
  6
CONTINUOUS
 62
     7
100
AcDbLine
 10
564.8526264003038
 20
190.5408704363258
 30
0.0
 11
564.8424863829296
 21
190.4833635401403
 31
0.0
  0
LINE
  5
2FF
330
1F
100
AcDbEntity
  8
0
  6
CONTINUOUS
 62
     7
100
AcDbLine
 10
564.8424863829296
 20
190.4833635401403
 30
0.0
 11
564.6413588839367
 21
189.342712811677
 31
0.0
  0
LINE
  5
300
330
1F
100
AcDbEntity
  8
0
  6
CONTINUOUS
 62
     7
100
AcDbLine
 10
542.6797208278309
 20
175.883769437921
 30
0.0
 11
542.7345932695073
 21
175.8637975024692
 31
0.0
  0
LINE
  5
301
330
1F
100
AcDbEntity
  8
0
  6
CONTINUOUS
 62
     7
100
AcDbLine
 10
542.7345932695074
 20
175.8637975024692
 30
0.0
 11
543.8229895266984
 21
175.467653661765
 31
0.0
  0
LINE
  5
302
330
1F
100
AcDbEntity
  8
0
  6
CONTINUOUS
 62
     7
100
AcDbLine
 10
560.3586411160632
 20
189.3427128116771
 30
0.0
 11
560.1578769943554
 21
190.4813027251492
 31
0.0
  0
LINE
  5
303
330
1F
100
AcDbEntity
  8
0
  6
CONTINUOUS
 62
     7
100
AcDbLine
 10
560.1578769943555
 20
190.4813027251492
 30
0.0
 11
560.147373599696
 21
190.5408704363259
 31
0.0
  0
LINE
  5
304
330
1F
100
AcDbEntity
  8
0
  6
CONTINUOUS
 62
     7
100
AcDbLine
 10
567.1033782664672
 20
188.9085923675098
 30
0.0
 11
567.3041423881748
 21
190.0471822809818
 31
0.0
  0
LINE
  5
305
330
1F
100
AcDbEntity
  8
0
  6
CONTINUOUS
 62
     7
100
AcDbLine
 10
567.3041423881748
 20
190.0471822809818
 30
0.0
 11
567.3146457828344
 21
190.1067499921586
 31
0.0
  0
LINE
  5
306
330
1F
100
AcDbEntity
  8
0
  6
CONTINUOUS
 62
     7
100
AcDbLine
 10
571.7361371184978
 20
188.4974587549111
 30
0.0
 11
571.7069401021209
 21
188.446888039117
 31
0.0
  0
LINE
  5
307
330
1F
100
AcDbEntity
  8
0
  6
CONTINUOUS
 62
     7
100
AcDbLine
 10
571.7069401021209
 20
188.446888039117
 30
0.0
 11
571.1278165498468
 21
187.4438166227182
 31
0.0
  0
LINE
  5
308
330
1F
100
AcDbEntity
  8
0
  6
CONTINUOUS
 62
     7
100
AcDbLine
 10
573.2928800593078
 20
186.1938166227182
 30
0.0
 11
573.87095730839
 21
187.1950757888281
 31
0.0
  0
LINE
  5
309
330
1F
100
AcDbEntity
  8
0
  6
CONTINUOUS
 62
     7
100
AcDbLine
 10
573.87095730839
 20
187.1950757888281
 30
0.0
 11
573.9012006279588
 21
187.2474587549112
 31
0.0
  0
LINE
  5
30A
330
1F
100
AcDbEntity
  8
0
  6
CONTINUOUS
 62
     7
100
AcDbLine
 10
545.887397586449
 20
182.30786944644
 30
0.0
 11
545.9321300107513
 21
182.2703344857064
 31
0.0
  0
LINE
  5
30B
330
1F
100
AcDbEntity
  8
0
  6
CONTINUOUS
 62
     7
100
AcDbLine
 10
545.9321300107513
 20
182.2703344857064
 30
0.0
 11
546.8193987689492
 21
181.5258275979473
 31
0.0
  0
LINE
  5
30C
330
1F
100
AcDbEntity
  8
0
  6
CONTINUOUS
 62
     7
100
AcDbLine
 10
551.098799372041
 20
187.2474587549111
 30
0.0
 11
551.1279963884178
 21
187.196888039117
 31
0.0
  0
LINE
  5
30D
330
1F
100
AcDbEntity
  8
0
  6
CONTINUOUS
 62
     7
100
AcDbLine
 10
551.127996388418
 20
187.196888039117
 30
0.0
 11
551.7071199406922
 21
186.1938166227182
 31
0.0
  0
LINE
  5
30E
330
1F
100
AcDbEntity
  8
0
  6
CONTINUOUS
 62
     7
100
AcDbLine
 10
544.6780398850124
 20
177.8168852137298
 30
0.0
 11
543.5916100345992
 21
178.2123133408985
 31
0.0
  0
LINE
  5
30F
330
1F
100
AcDbEntity
  8
0
  6
CONTINUOUS
 62
     7
100
AcDbLine
 10
543.5916100345992
 20
178.2123133408985
 30
0.0
 11
543.5347711861451
 21
178.2330009898858
 31
0.0
  0
LINE
  5
310
330
1F
100
AcDbEntity
  8
0
  6
CONTINUOUS
 62
     7
100
AcDbLine
 10
560.3954444066
 20
150.8660090208462
 30
0.0
 11
560.4301409870284
 21
151.0627831066331
 31
0.0
  0
LINE
  5
311
330
1F
100
AcDbEntity
  8
0
  6
CONTINUOUS
 62
     7
100
AcDbLine
 10
557.9334250240693
 20
151.3001294650135
 30
0.0
 11
557.9681216044978
 21
151.4969035508004
 31
0.0
  0
LINE
  5
312
330
1F
100
AcDbEntity
  8
0
  6
CONTINUOUS
 62
     7
100
AcDbLine
 10
567.1033782664672
 20
151.0914076324903
 30
0.0
 11
567.0686139469112
 21
151.2885658859593
 31
0.0
  0
LINE
  5
313
330
1F
100
AcDbEntity
  8
0
  6
CONTINUOUS
 62
     7
100
AcDbLine
 10
553.8721834501532
 20
152.5561833772818
 30
0.0
 11
553.9722833188158
 21
152.7295614356365
 31
0.0
  0
LINE
  5
314
330
1F
100
AcDbEntity
  8
0
  6
CONTINUOUS
 62
     7
100
AcDbLine
 10
578.1806012310507
 20
158.4741724020527
 30
0.0
 11
578.0272393347586
 21
158.602858312668
 31
0.0
  0
LINE
  5
315
330
1F
100
AcDbEntity
  8
0
  6
CONTINUOUS
 62
     7
100
AcDbLine
 10
551.8072198093547
 20
153.9795614356365
 30
0.0
 11
551.7071199406921
 21
153.8061833772817
 31
0.0
  0
LINE
  5
316
330
1F
100
AcDbEntity
  8
0
  6
CONTINUOUS
 62
     7
100
AcDbLine
 10
580.1338338991395
 20
162.251587129124
 30
0.0
 11
580.3219601149876
 21
162.1831147862702
 31
0.0
  0
LINE
  5
317
330
1F
100
AcDbEntity
  8
0
  6
CONTINUOUS
 62
     7
100
AcDbLine
 10
564.6065945643808
 20
150.8544454417919
 30
0.0
 11
564.6413588839367
 21
150.6572871883229
 31
0.0
  0
LINE
  5
318
330
1F
100
AcDbEntity
  8
0
  6
CONTINUOUS
 62
     7
100
AcDbLine
 10
571.027716681184
 20
152.7295614356365
 30
0.0
 11
571.1278165498467
 21
152.5561833772817
 31
0.0
  0
LINE
  5
319
330
1F
100
AcDbEntity
  8
0
  6
CONTINUOUS
 62
     7
100
AcDbLine
 10
580.3219601149875
 20
177.8168852137298
 30
0.0
 11
580.1338338991395
 21
177.748412870876
 31
0.0
  0
LINE
  5
31A
330
1F
100
AcDbEntity
  8
0
  6
CONTINUOUS
 62
     7
100
AcDbLine
 10
548.4263677931656
 20
156.5590612942553
 30
0.0
 11
548.5797296894575
 21
156.6877472048705
 31
0.0
  0
LINE
  5
31B
330
1F
100
AcDbEntity
  8
0
  6
CONTINUOUS
 62
     7
100
AcDbLine
 10
580.9888842574537
 20
175.3991813189112
 30
0.0
 11
581.1770104733017
 21
175.467653661765
 31
0.0
  0
LINE
  5
31C
330
1F
100
AcDbEntity
  8
0
  6
CONTINUOUS
 62
     7
100
AcDbLine
 10
581.9206966091546
 20
171.25
 30
0.0
 11
581.7204968718293
 21
171.25
 31
0.0
  0
LINE
  5
31D
330
1F
100
AcDbEntity
  8
0
  6
CONTINUOUS
 62
     7
100
AcDbLine
 10
576.4202703105423
 20
156.6877472048705
 30
0.0
 11
576.5736322068343
 21
156.5590612942553
 31
0.0
  0
LINE
  5
31E
330
1F
100
AcDbEntity
  8
0
  6
CONTINUOUS
 62
     7
100
AcDbLine
 10
581.1770104733016
 20
164.532346338235
 30
0.0
 11
580.9888842574537
 21
164.6008186810888
 31
0.0
  0
LINE
  5
31F
330
1F
100
AcDbEntity
  8
0
  6
CONTINUOUS
 62
     7
100
AcDbLine
 10
581.7204968718293
 20
168.75
 30
0.0
 11
581.9206966091546
 21
168.75
 31
0.0
  0
LINE
  5
320
330
1F
100
AcDbEntity
  8
0
  6
CONTINUOUS
 62
     7
100
AcDbLine
 10
573.2928800593078
 20
153.8061833772817
 30
0.0
 11
573.1927801906451
 21
153.9795614356365
 31
0.0
  0
LINE
  5
321
330
1F
100
AcDbEntity
  8
0
  6
CONTINUOUS
 62
     7
100
AcDbLine
 10
543.0793033908452
 20
168.75
 30
0.0
 11
543.2795031281705
 21
168.75
 31
0.0
  0
LINE
  5
322
330
1F
100
AcDbEntity
  8
0
  6
CONTINUOUS
 62
     7
100
AcDbLine
 10
546.9727606652413
 20
158.602858312668
 30
0.0
 11
546.8193987689493
 21
158.4741724020527
 31
0.0
  0
LINE
  5
323
330
1F
100
AcDbEntity
  8
0
  6
CONTINUOUS
 62
     7
100
AcDbLine
 10
578.0272393347586
 20
181.397141687332
 30
0.0
 11
578.1806012310507
 21
181.5258275979473
 31
0.0
  0
LINE
  5
324
330
1F
100
AcDbEntity
  8
0
  6
CONTINUOUS
 62
     7
100
AcDbLine
 10
548.5797296894575
 20
183.3122527951295
 30
0.0
 11
548.4263677931656
 21
183.4409387057447
 31
0.0
  0
LINE
  5
325
330
1F
100
AcDbEntity
  8
0
  6
CONTINUOUS
 62
     7
100
AcDbLine
 10
544.0111157425463
 20
164.6008186810888
 30
0.0
 11
543.8229895266983
 21
164.532346338235
 31
0.0
  0
LINE
  5
326
330
1F
100
AcDbEntity
  8
0
  6
CONTINUOUS
 62
     7
100
AcDbLine
 10
544.6780398850124
 20
162.1831147862702
 30
0.0
 11
544.8661661008604
 21
162.251587129124
 31
0.0
  0
LINE
  5
327
330
1F
100
AcDbEntity
  8
0
  6
CONTINUOUS
 62
     7
100
AcDbLine
 10
551.7071199406922
 20
186.1938166227182
 30
0.0
 11
551.8072198093548
 21
186.0204385643635
 31
0.0
  0
LINE
  5
328
330
1F
100
AcDbEntity
  8
0
  6
CONTINUOUS
 62
     7
100
AcDbLine
 10
553.9722833188158
 20
187.2704385643635
 30
0.0
 11
553.8721834501532
 21
187.4438166227182
 31
0.0
  0
LINE
  5
329
330
1F
100
AcDbEntity
  8
0
  6
CONTINUOUS
 62
     7
100
AcDbLine
 10
564.6413588839367
 20
189.342712811677
 30
0.0
 11
564.6065945643808
 21
189.145554558208
 31
0.0
  0
LINE
  5
32A
330
1F
100
AcDbEntity
  8
0
  6
CONTINUOUS
 62
     7
100
AcDbLine
 10
544.8661661008605
 20
177.748412870876
 30
0.0
 11
544.6780398850125
 21
177.8168852137298
 31
0.0
  0
LINE
  5
32B
330
1F
100
AcDbEntity
  8
0
  6
CONTINUOUS
 62
     7
100
AcDbLine
 10
571.1278165498468
 20
187.4438166227182
 30
0.0
 11
571.0277166811841
 21
187.2704385643635
 31
0.0
  0
LINE
  5
32C
330
1F
100
AcDbEntity
  8
0
  6
CONTINUOUS
 62
     7
100
AcDbLine
 10
557.8966217335326
 20
188.9085923675097
 30
0.0
 11
557.9313860530885
 21
188.7114341140407
 31
0.0
  0
LINE
  5
32D
330
1F
100
AcDbEntity
  8
0
  6
CONTINUOUS
 62
     7
100
AcDbLine
 10
573.1927801906451
 20
186.0204385643635
 30
0.0
 11
573.2928800593078
 21
186.1938166227182
 31
0.0
  0
LINE
  5
32E
330
1F
100
AcDbEntity
  8
0
  6
CONTINUOUS
 62
     7
100
AcDbLine
 10
546.8193987689493
 20
181.5258275979473
 30
0.0
 11
546.9727606652413
 21
181.397141687332
 31
0.0
  0
LINE
  5
32F
330
1F
100
AcDbEntity
  8
0
  6
CONTINUOUS
 62
     7
100
AcDbLine
 10
567.0686139469112
 20
188.7114341140407
 30
0.0
 11
567.1033782664672
 21
188.9085923675098
 31
0.0
  0
LINE
  5
330
330
1F
100
AcDbEntity
  8
0
  6
CONTINUOUS
 62
     7
100
AcDbLine
 10
560.3934054356191
 20
189.145554558208
 30
0.0
 11
560.3586411160632
 21
189.3427128116771
 31
0.0
  0
LINE
  5
331
330
1F
100
AcDbEntity
  8
0
  6
CONTINUOUS
 62
     7
100
AcDbLine
 10
543.8229895266984
 20
175.467653661765
 30
0.0
 11
544.0111157425463
 21
175.3991813189112
 31
0.0
  0
LINE
  5
332
330
1F
100
AcDbEntity
  8
0
  6
CONTINUOUS
 62
     7
100
AcDbLine
 10
576.5736322068342
 20
183.4409387057447
 30
0.0
 11
576.4202703105422
 21
183.3122527951295
 31
0.0
  0
LINE
  5
333
330
1F
100
AcDbEntity
  8
0
  6
CONTINUOUS
 62
     7
100
AcDbLine
 10
543.2795031281706
 20
171.25
 30
0.0
 11
543.0793033908453
 21
171.25
 31
0.0
  0
ARC
  5
334
330
1F
100
AcDbEntity
  8
0
  6
CONTINUOUS
 62
     7
100
AcDbCircle
 10
562.5
 20
170.0
 30
0.0
 40
18.54999999999995
100
AcDbArc
 50
225.2708229512305
 51
234.7291770487695
  0
ARC
  5
335
330
1F
100
AcDbEntity
  8
0
  6
CONTINUOUS
 62
     7
100
AcDbCircle
 10
551.4997309822737
 20
154.4469751643723
 30
0.0
 40
0.500000000000056
100
AcDbArc
 50
330.0
 51
54.72917704876942
  0
LINE
  5
336
330
1F
100
AcDbEntity
  8
0
  6
CONTINUOUS
 62
     7
100
AcDbLine
 10
551.9327436841659
 20
154.1969751643723
 30
0.0
 11
551.8072198093547
 21
153.9795614356365
 31
0.0
  0
ARC
  5
337
330
1F
100
AcDbEntity
  8
0
  6
CONTINUOUS
 62
     7
100
AcDbCircle
 10
562.5
 20
170.0
 30
0.0
 40
18.54999999999995
100
AcDbArc
 50
263.863829500315
 51
274.7291770487695
  0
LINE
  5
338
330
1F
100
AcDbEntity
  8
0
  6
CONTINUOUS
 62
     7
100
AcDbLine
 10
560.4301409870284
 20
151.0627831066331
 30
0.0
 11
560.5171576663585
 21
151.5562792181209
 31
0.0
  0
ARC
  5
339
330
1F
100
AcDbEntity
  8
0
  6
CONTINUOUS
 62
     7
100
AcDbCircle
 10
562.5
 20
170.0
 30
0.0
 40
18.54999999999995
100
AcDbArc
 50
285.2708229512305
 51
294.7291770487695
  0
ARC
  5
33A
330
1F
100
AcDbEntity
  8
0
  6
CONTINUOUS
 62
     7
100
AcDbCircle
 10
564.0705967036454
 20
151.0148551231628
 30
0.0
 40
0.4999999999999449
100
AcDbArc
 50
9.999999999999865
 51
94.72917704876953
  0
LINE
  5
33B
330
1F
100
AcDbEntity
  8
0
  6
CONTINUOUS
 62
     7
100
AcDbLine
 10
564.5630005801514
 20
151.1016792119963
 30
0.0
 11
564.6065945643808
 21
150.8544454417919
 31
0.0
  0
ARC
  5
33C
330
1F
100
AcDbEntity
  8
0
  6
CONTINUOUS
 62
     7
100
AcDbCircle
 10
562.5
 20
170.0
 30
0.0
 40
18.54999999999995
100
AcDbArc
 50
325.2708229512305
 51
334.7291770487695
  0
ARC
  5
33D
330
1F
100
AcDbEntity
  8
0
  6
CONTINUOUS
 62
     7
100
AcDbCircle
 10
562.5
 20
170.0
 30
0.0
 40
18.54999999999984
100
AcDbArc
 50
245.2708229512304
 51
256.1361704996849
  0
LINE
  5
33E
330
1F
100
AcDbEntity
  8
0
  6
CONTINUOUS
 62
     7
100
AcDbLine
 10
557.9681216044978
 20
151.4969035508004
 30
0.0
 11
558.0551382838278
 21
151.9903996622882
 31
0.0
  0
ARC
  5
33F
330
1F
100
AcDbEntity
  8
0
  6
CONTINUOUS
 62
     7
100
AcDbCircle
 10
579.7269161096916
 20
161.8676042060384
 30
0.0
 40
0.4999999999999449
100
AcDbArc
 50
69.99999999999996
 51
154.7291770487695
  0
LINE
  5
340
330
1F
100
AcDbEntity
  8
0
  6
CONTINUOUS
 62
     7
100
AcDbLine
 10
579.8979261813544
 20
162.3374505164314
 30
0.0
 11
580.1338338991394
 21
162.251587129124
 31
0.0
  0
ARC
  5
341
330
1F
100
AcDbEntity
  8
0
  6
CONTINUOUS
 62
     7
100
AcDbCircle
 10
578.1563194060462
 20
159.1472509171243
 30
0.0
 40
0.500000000000056
100
AcDbArc
 50
145.2708229512303
 51
229.9999999999999
  0
LINE
  5
342
330
1F
100
AcDbEntity
  8
0
  6
CONTINUOUS
 62
     7
100
AcDbLine
 10
578.0272393347586
 20
158.602858312668
 30
0.0
 11
577.8349256012029
 21
158.7642286955648
 31
0.0
  0
ARC
  5
343
330
1F
100
AcDbEntity
  8
0
  6
CONTINUOUS
 62
     7
100
AcDbCircle
 10
567.5174238391883
 20
151.6226237449971
 30
0.0
 40
0.4999999999999449
100
AcDbArc
 50
105.2708229512306
 51
190.0000000000007
  0
LINE
  5
344
330
1F
100
AcDbEntity
  8
0
  6
CONTINUOUS
 62
     7
100
AcDbLine
 10
567.0686139469112
 20
151.2885658859593
 30
0.0
 11
567.0250199626821
 21
151.5357996561636
 31
0.0
  0
ARC
  5
345
330
1F
100
AcDbEntity
  8
0
  6
CONTINUOUS
 62
     7
100
AcDbCircle
 10
554.5308198955192
 20
152.6969751643723
 30
0.0
 40
0.4999999999999449
100
AcDbArc
 50
65.2708229512309
 51
150.0000000000002
  0
LINE
  5
346
330
1F
100
AcDbEntity
  8
0
  6
CONTINUOUS
 62
     7
100
AcDbLine
 10
553.9722833188158
 20
152.7295614356365
 30
0.0
 11
554.0978071936269
 21
152.9469751643723
 31
0.0
  0
ARC
  5
347
330
1F
100
AcDbEntity
  8
0
  6
CONTINUOUS
 62
     7
100
AcDbCircle
 10
580.9239866113313
 20
174.8434716212109
 30
0.0
 40
0.500000000000056
100
AcDbArc
 50
110.0
 51
194.7291770487694
  0
LINE
  5
348
330
1F
100
AcDbEntity
  8
0
  6
CONTINUOUS
 62
     7
100
AcDbLine
 10
580.7529765396686
 20
175.3133179316038
 30
0.0
 11
580.9888842574537
 21
175.3991813189112
 31
0.0
  0
ARC
  5
349
330
1F
100
AcDbEntity
  8
0
  6
CONTINUOUS
 62
     7
100
AcDbCircle
 10
581.469449122207
 20
168.25
 30
0.0
 40
0.4999999999999449
100
AcDbArc
 50
89.99999999999962
 51
174.7291770487696
  0
LINE
  5
34A
330
1F
100
AcDbEntity
  8
0
  6
CONTINUOUS
 62
     7
100
AcDbLine
 10
581.469449122207
 20
168.75
 30
0.0
 11
581.7204968718293
 21
168.75
 31
0.0
  0
ARC
  5
34B
330
1F
100
AcDbEntity
  8
0
  6
CONTINUOUS
 62
     7
100
AcDbCircle
 10
580.9239866113313
 20
165.1565283787891
 30
0.0
 40
0.4999999999999449
100
AcDbArc
 50
165.2708229512306
 51
250.0
  0
LINE
  5
34C
330
1F
100
AcDbEntity
  8
0
  6
CONTINUOUS
 62
     7
100
AcDbLine
 10
580.9888842574537
 20
164.6008186810888
 30
0.0
 11
580.7529765396686
 21
164.6866820683962
 31
0.0
  0
ARC
  5
34D
330
1F
100
AcDbEntity
  8
0
  6
CONTINUOUS
 62
     7
100
AcDbCircle
 10
549.0934372278566
 20
156.466095366208
 30
0.0
 40
0.4999999999999449
100
AcDbArc
 50
45.27082295123029
 51
130.0000000000001
  0
LINE
  5
34E
330
1F
100
AcDbEntity
  8
0
  6
CONTINUOUS
 62
     7
100
AcDbLine
 10
548.5797296894576
 20
156.6877472048705
 30
0.0
 11
548.7720434230133
 21
156.8491175877674
 31
0.0
  0
ARC
  5
34F
330
1F
100
AcDbEntity
  8
0
  6
CONTINUOUS
 62
     7
100
AcDbCircle
 10
575.9065627721434
 20
156.4660953662079
 30
0.0
 40
0.4999999999999449
100
AcDbArc
 50
50.00000000000004
 51
134.7291770487696
  0
LINE
  5
350
330
1F
100
AcDbEntity
  8
0
  6
CONTINUOUS
 62
     7
100
AcDbLine
 10
576.2279565769866
 20
156.8491175877674
 30
0.0
 11
576.4202703105423
 21
156.6877472048705
 31
0.0
  0
ARC
  5
351
330
1F
100
AcDbEntity
  8
0
  6
CONTINUOUS
 62
     7
100
AcDbCircle
 10
573.5002690177262
 20
154.4469751643723
 30
0.0
 40
0.4999999999999449
100
AcDbArc
 50
125.2708229512304
 51
209.9999999999999
  0
LINE
  5
352
330
1F
100
AcDbEntity
  8
0
  6
CONTINUOUS
 62
     7
100
AcDbLine
 10
573.1927801906451
 20
153.9795614356365
 30
0.0
 11
573.067256315834
 21
154.1969751643723
 31
0.0
  0
ARC
  5
353
330
1F
100
AcDbEntity
  8
0
  6
CONTINUOUS
 62
     7
100
AcDbCircle
 10
579.7269161096916
 20
178.1323957939616
 30
0.0
 40
0.4999999999999449
100
AcDbArc
 50
205.2708229512309
 51
290.0000000000008
  0
LINE
  5
354
330
1F
100
AcDbEntity
  8
0
  6
CONTINUOUS
 62
     7
100
AcDbLine
 10
580.1338338991395
 20
177.748412870876
 30
0.0
 11
579.8979261813545
 21
177.6625494835686
 31
0.0
  0
ARC
  5
355
330
1F
100
AcDbEntity
  8
0
  6
CONTINUOUS
 62
     7
100
AcDbCircle
 10
562.5
 20
170.0
 30
0.0
 40
18.54999999999995
100
AcDbArc
 50
305.2708229512305
 51
314.7291770487695
  0
ARC
  5
356
330
1F
100
AcDbEntity
  8
0
  6
CONTINUOUS
 62
     7
100
AcDbCircle
 10
581.469449122207
 20
171.75
 30
0.0
 40
0.4999999999999449
100
AcDbArc
 50
185.2708229512307
 51
270.0000000000005
  0
LINE
  5
357
330
1F
100
AcDbEntity
  8
0
  6
CONTINUOUS
 62
     7
100
AcDbLine
 10
581.7204968718293
 20
171.25
 30
0.0
 11
581.469449122207
 21
171.25
 31
0.0
  0
ARC
  5
358
330
1F
100
AcDbEntity
  8
0
  6
CONTINUOUS
 62
     7
100
AcDbCircle
 10
570.4691801044806
 20
152.6969751643723
 30
0.0
 40
0.500000000000056
100
AcDbArc
 50
30.0
 51
114.7291770487696
  0
LINE
  5
359
330
1F
100
AcDbEntity
  8
0
  6
CONTINUOUS
 62
     7
100
AcDbLine
 10
570.9021928063729
 20
152.9469751643723
 30
0.0
 11
571.027716681184
 21
152.7295614356365
 31
0.0
  0
ARC
  5
35A
330
1F
100
AcDbEntity
  8
0
  6
CONTINUOUS
 62
     7
100
AcDbCircle
 10
562.5
 20
170.0
 30
0.0
 40
18.54999999999995
100
AcDbArc
 50
25.27082295123034
 51
34.72917704876954
  0
ARC
  5
35B
330
1F
100
AcDbEntity
  8
0
  6
CONTINUOUS
 62
     7
100
AcDbCircle
 10
562.5
 20
170.0
 30
0.0
 40
18.54999999999995
100
AcDbArc
 50
5.270822951230457
 51
14.72917704876954
  0
ARC
  5
35C
330
1F
100
AcDbEntity
  8
0
  6
CONTINUOUS
 62
     7
100
AcDbCircle
 10
562.5
 20
170.0
 30
0.0
 40
18.54999999999995
100
AcDbArc
 50
345.2708229512303
 51
354.7291770487695
  0
ARC
  5
35D
330
1F
100
AcDbEntity
  8
0
  6
CONTINUOUS
 62
     7
100
AcDbCircle
 10
562.5
 20
170.0
 30
0.0
 40
18.54999999999995
100
AcDbArc
 50
125.2708229512305
 51
134.7291770487695
  0
ARC
  5
35E
330
1F
100
AcDbEntity
  8
0
  6
CONTINUOUS
 62
     7
100
AcDbCircle
 10
578.1563194060462
 20
180.8527490828756
 30
0.0
 40
0.500000000000056
100
AcDbArc
 50
129.9999999999998
 51
214.7291770487699
  0
LINE
  5
35F
330
1F
100
AcDbEntity
  8
0
  6
CONTINUOUS
 62
     7
100
AcDbLine
 10
577.8349256012029
 20
181.2357713044352
 30
0.0
 11
578.0272393347586
 21
181.397141687332
 31
0.0
  0
ARC
  5
360
330
1F
100
AcDbEntity
  8
0
  6
CONTINUOUS
 62
     7
100
AcDbCircle
 10
543.530550877793
 20
168.25
 30
0.0
 40
0.4999999999999449
100
AcDbArc
 50
5.270822951230699
 51
90.0000000000005
  0
LINE
  5
361
330
1F
100
AcDbEntity
  8
0
  6
CONTINUOUS
 62
     7
100
AcDbLine
 10
543.2795031281706
 20
168.75
 30
0.0
 11
543.530550877793
 21
168.75
 31
0.0
  0
ARC
  5
362
330
1F
100
AcDbEntity
  8
0
  6
CONTINUOUS
 62
     7
100
AcDbCircle
 10
544.0760133886683
 20
165.1565283787891
 30
0.0
 40
0.4999999999999449
100
AcDbArc
 50
290.0000000000005
 51
14.7291770487696
  0
LINE
  5
363
330
1F
100
AcDbEntity
  8
0
  6
CONTINUOUS
 62
     7
100
AcDbLine
 10
544.2470234603312
 20
164.6866820683962
 30
0.0
 11
544.0111157425463
 21
164.6008186810888
 31
0.0
  0
ARC
  5
364
330
1F
100
AcDbEntity
  8
0
  6
CONTINUOUS
 62
     7
100
AcDbCircle
 10
545.2730838903083
 20
161.8676042060384
 30
0.0
 40
0.500000000000056
100
AcDbArc
 50
25.27082295123103
 51
110.0000000000007
  0
LINE
  5
365
330
1F
100
AcDbEntity
  8
0
  6
CONTINUOUS
 62
     7
100
AcDbLine
 10
544.8661661008605
 20
162.251587129124
 30
0.0
 11
545.1020738186454
 21
162.3374505164314
 31
0.0
  0
ARC
  5
366
330
1F
100
AcDbEntity
  8
0
  6
CONTINUOUS
 62
     7
100
AcDbCircle
 10
562.5
 20
170.0
 30
0.0
 40
18.54999999999995
100
AcDbArc
 50
185.2708229512304
 51
194.7291770487696
  0
ARC
  5
367
330
1F
100
AcDbEntity
  8
0
  6
CONTINUOUS
 62
     7
100
AcDbCircle
 10
549.0934372278566
 20
183.533904633792
 30
0.0
 40
0.4999999999999449
100
AcDbArc
 50
230.0000000000005
 51
314.7291770487695
  0
LINE
  5
368
330
1F
100
AcDbEntity
  8
0
  6
CONTINUOUS
 62
     7
100
AcDbLine
 10
548.7720434230132
 20
183.1508824122326
 30
0.0
 11
548.5797296894574
 21
183.3122527951295
 31
0.0
  0
ARC
  5
369
330
1F
100
AcDbEntity
  8
0
  6
CONTINUOUS
 62
     7
100
AcDbCircle
 10
562.5
 20
170.0
 30
0.0
 40
18.54999999999995
100
AcDbArc
 50
205.2708229512305
 51
214.7291770487695
  0
ARC
  5
36A
330
1F
100
AcDbEntity
  8
0
  6
CONTINUOUS
 62
     7
100
AcDbCircle
 10
546.8436805939536
 20
159.1472509171244
 30
0.0
 40
0.500000000000056
100
AcDbArc
 50
309.9999999999998
 51
34.72917704876937
  0
LINE
  5
36B
330
1F
100
AcDbEntity
  8
0
  6
CONTINUOUS
 62
     7
100
AcDbLine
 10
547.1650743987968
 20
158.7642286955649
 30
0.0
 11
546.9727606652411
 21
158.602858312668
 31
0.0
  0
ARC
  5
36C
330
1F
100
AcDbEntity
  8
0
  6
CONTINUOUS
 62
     7
100
AcDbCircle
 10
573.5002690177262
 20
185.5530248356277
 30
0.0
 40
0.4999999999999449
100
AcDbArc
 50
150.0000000000009
 51
234.7291770487696
  0
LINE
  5
36D
330
1F
100
AcDbEntity
  8
0
  6
CONTINUOUS
 62
     7
100
AcDbLine
 10
573.067256315834
 20
185.8030248356277
 30
0.0
 11
573.1927801906451
 21
186.0204385643635
 31
0.0
  0
ARC
  5
36E
330
1F
100
AcDbEntity
  8
0
  6
CONTINUOUS
 62
     7
100
AcDbCircle
 10
551.4997309822737
 20
185.5530248356277
 30
0.0
 40
0.500000000000056
100
AcDbArc
 50
305.2708229512306
 51
30.00000000000017
  0
LINE
  5
36F
330
1F
100
AcDbEntity
  8
0
  6
CONTINUOUS
 62
     7
100
AcDbLine
 10
551.8072198093547
 20
186.0204385643635
 30
0.0
 11
551.9327436841659
 21
185.8030248356277
 31
0.0
  0
ARC
  5
370
330
1F
100
AcDbEntity
  8
0
  6
CONTINUOUS
 62
     7
100
AcDbCircle
 10
562.5
 20
170.0
 30
0.0
 40
18.54999999999995
100
AcDbArc
 50
45.27082295123046
 51
54.72917704876954
  0
ARC
  5
371
330
1F
100
AcDbEntity
  8
0
  6
CONTINUOUS
 62
     7
100
AcDbCircle
 10
560.9294032963545
 20
188.9851448768372
 30
0.0
 40
0.4999999999999449
100
AcDbArc
 50
189.9999999999999
 51
274.7291770487695
  0
LINE
  5
372
330
1F
100
AcDbEntity
  8
0
  6
CONTINUOUS
 62
     7
100
AcDbLine
 10
560.4369994198485
 20
188.8983207880037
 30
0.0
 11
560.3934054356191
 21
189.145554558208
 31
0.0
  0
ARC
  5
373
330
1F
100
AcDbEntity
  8
0
  6
CONTINUOUS
 62
     7
100
AcDbCircle
 10
567.5174238391883
 20
188.377376255003
 30
0.0
 40
0.4999999999999449
100
AcDbArc
 50
170.0000000000001
 51
254.7291770487695
  0
LINE
  5
374
330
1F
100
AcDbEntity
  8
0
  6
CONTINUOUS
 62
     7
100
AcDbLine
 10
567.0250199626821
 20
188.4642003438364
 30
0.0
 11
567.0686139469112
 21
188.7114341140407
 31
0.0
  0
ARC
  5
375
330
1F
100
AcDbEntity
  8
0
  6
CONTINUOUS
 62
     7
100
AcDbCircle
 10
554.5308198955192
 20
187.3030248356277
 30
0.0
 40
0.4999999999999449
100
AcDbArc
 50
210.0000000000001
 51
294.7291770487697
  0
LINE
  5
376
330
1F
100
AcDbEntity
  8
0
  6
CONTINUOUS
 62
     7
100
AcDbLine
 10
554.0978071936269
 20
187.0530248356277
 30
0.0
 11
553.9722833188158
 21
187.2704385643635
 31
0.0
  0
ARC
  5
377
330
1F
100
AcDbEntity
  8
0
  6
CONTINUOUS
 62
     7
100
AcDbCircle
 10
562.5
 20
170.0
 30
0.0
 40
18.54999999999995
100
AcDbArc
 50
65.27082295123046
 51
74.72917704876954
  0
ARC
  5
378
330
1F
100
AcDbEntity
  8
0
  6
CONTINUOUS
 62
     7
100
AcDbCircle
 10
545.2730838903083
 20
178.1323957939616
 30
0.0
 40
0.500000000000056
100
AcDbArc
 50
250.0
 51
334.7291770487693
  0
LINE
  5
379
330
1F
100
AcDbEntity
  8
0
  6
CONTINUOUS
 62
     7
100
AcDbLine
 10
545.1020738186454
 20
177.6625494835686
 30
0.0
 11
544.8661661008605
 21
177.748412870876
 31
0.0
  0
ARC
  5
37A
330
1F
100
AcDbEntity
  8
0
  6
CONTINUOUS
 62
     7
100
AcDbCircle
 10
546.8436805939536
 20
180.8527490828756
 30
0.0
 40
0.500000000000056
100
AcDbArc
 50
325.2708229512309
 51
49.99999999999972
  0
LINE
  5
37B
330
1F
100
AcDbEntity
  8
0
  6
CONTINUOUS
 62
     7
100
AcDbLine
 10
546.9727606652413
 20
181.397141687332
 30
0.0
 11
547.165074398797
 21
181.2357713044352
 31
0.0
  0
ARC
  5
37C
330
1F
100
AcDbEntity
  8
0
  6
CONTINUOUS
 62
     7
100
AcDbCircle
 10
562.5
 20
170.0
 30
0.0
 40
18.54999999999995
100
AcDbArc
 50
85.27082295123039
 51
94.72917704876953
  0
ARC
  5
37D
330
1F
100
AcDbEntity
  8
0
  6
CONTINUOUS
 62
     7
100
AcDbCircle
 10
543.530550877793
 20
171.75
 30
0.0
 40
0.4999999999999449
100
AcDbArc
 50
269.9999999999996
 51
354.7291770487695
  0
LINE
  5
37E
330
1F
100
AcDbEntity
  8
0
  6
CONTINUOUS
 62
     7
100
AcDbLine
 10
543.530550877793
 20
171.25
 30
0.0
 11
543.2795031281706
 21
171.25
 31
0.0
  0
ARC
  5
37F
330
1F
100
AcDbEntity
  8
0
  6
CONTINUOUS
 62
     7
100
AcDbCircle
 10
562.5
 20
170.0
 30
0.0
 40
18.54999999999995
100
AcDbArc
 50
165.2708229512305
 51
174.7291770487696
  0
ARC
  5
380
330
1F
100
AcDbEntity
  8
0
  6
CONTINUOUS
 62
     7
100
AcDbCircle
 10
562.5
 20
170.0
 30
0.0
 40
18.54999999999984
100
AcDbArc
 50
145.2708229512303
 51
154.7291770487695
  0
ARC
  5
381
330
1F
100
AcDbEntity
  8
0
  6
CONTINUOUS
 62
     7
100
AcDbCircle
 10
544.0760133886683
 20
174.8434716212109
 30
0.0
 40
0.4999999999999449
100
AcDbArc
 50
345.2708229512305
 51
70.0
  0
LINE
  5
382
330
1F
100
AcDbEntity
  8
0
  6
CONTINUOUS
 62
     7
100
AcDbLine
 10
544.0111157425463
 20
175.3991813189112
 30
0.0
 11
544.2470234603312
 21
175.3133179316038
 31
0.0
  0
ARC
  5
383
330
1F
100
AcDbEntity
  8
0
  6
CONTINUOUS
 62
     7
100
AcDbCircle
 10
562.5
 20
170.0
 30
0.0
 40
18.54999999999995
100
AcDbArc
 50
105.2708229512305
 51
114.7291770487695
  0
ARC
  5
384
330
1F
100
AcDbEntity
  8
0
  6
CONTINUOUS
 62
     7
100
AcDbCircle
 10
570.4691801044806
 20
187.3030248356277
 30
0.0
 40
0.500000000000056
100
AcDbArc
 50
245.2708229512306
 51
330.0000000000006
  0
LINE
  5
385
330
1F
100
AcDbEntity
  8
0
  6
CONTINUOUS
 62
     7
100
AcDbLine
 10
571.027716681184
 20
187.2704385643635
 30
0.0
 11
570.9021928063729
 21
187.0530248356277
 31
0.0
  0
ARC
  5
386
330
1F
100
AcDbEntity
  8
0
  6
CONTINUOUS
 62
     7
100
AcDbCircle
 10
557.4825761608117
 20
188.3773762550029
 30
0.0
 40
0.4999999999999449
100
AcDbArc
 50
285.2708229512305
 51
10.00000000000023
  0
LINE
  5
387
330
1F
100
AcDbEntity
  8
0
  6
CONTINUOUS
 62
     7
100
AcDbLine
 10
557.9313860530887
 20
188.7114341140407
 30
0.0
 11
557.9749800373178
 21
188.4642003438364
 31
0.0
  0
ARC
  5
388
330
1F
100
AcDbEntity
  8
0
  6
CONTINUOUS
 62
     7
100
AcDbCircle
 10
564.0705967036454
 20
188.9851448768372
 30
0.0
 40
0.500000000000056
100
AcDbArc
 50
265.2708229512306
 51
350.0000000000006
  0
LINE
  5
389
330
1F
100
AcDbEntity
  8
0
  6
CONTINUOUS
 62
     7
100
AcDbLine
 10
564.6065945643808
 20
189.145554558208
 30
0.0
 11
564.5630005801514
 21
188.8983207880037
 31
0.0
  0
ARC
  5
38A
330
1F
100
AcDbEntity
  8
0
  6
CONTINUOUS
 62
     7
100
AcDbCircle
 10
575.9065627721434
 20
183.533904633792
 30
0.0
 40
0.4999999999999449
100
AcDbArc
 50
225.2708229512303
 51
310.0000000000002
  0
LINE
  5
38B
330
1F
100
AcDbEntity
  8
0
  6
CONTINUOUS
 62
     7
100
AcDbLine
 10
576.4202703105423
 20
183.3122527951295
 30
0.0
 11
576.2279565769866
 21
183.1508824122326
 31
0.0
  0
ARC
  5
38C
330
1F
100
AcDbEntity
  8
0
  6
CONTINUOUS
 62
     7
100
AcDbCircle
 10
562.5
 20
170.0
 30
0.0
 40
20.65000000000006
100
AcDbArc
 50
0.0
 51
3.458557169732046
  0
ARC
  5
38D
330
1F
100
AcDbEntity
  8
0
  6
CONTINUOUS
 62
     7
100
AcDbCircle
 10
562.5
 20
170.0
 30
0.0
 40
20.65000000000006
100
AcDbArc
 50
16.52841375593573
 51
23.43019995905538
  0
ARC
  5
38E
330
1F
100
AcDbEntity
  8
0
  6
CONTINUOUS
 62
     7
100
AcDbCircle
 10
562.5
 20
170.0
 30
0.0
 40
20.65000000000006
100
AcDbArc
 50
36.52904792501222
 51
43.42665234671333
  0
ARC
  5
38F
330
1F
100
AcDbEntity
  8
0
  6
CONTINUOUS
 62
     7
100
AcDbCircle
 10
562.5
 20
170.0
 30
0.0
 40
20.65000000000006
100
AcDbArc
 50
56.56925027308506
 51
63.45855716973205
  0
ARC
  5
390
330
1F
100
AcDbEntity
  8
0
  6
CONTINUOUS
 62
     7
100
AcDbCircle
 10
562.5
 20
170.0
 30
0.0
 40
20.65000000000006
100
AcDbArc
 50
76.52841375593584
 51
83.47095207498803
  0
ARC
  5
391
330
1F
100
AcDbEntity
  8
0
  6
CONTINUOUS
 62
     7
100
AcDbCircle
 10
562.5
 20
170.0
 30
0.0
 40
20.65000000000006
100
AcDbArc
 50
96.52904792501229
 51
103.4715862440645
  0
ARC
  5
392
330
1F
100
AcDbEntity
  8
0
  6
CONTINUOUS
 62
     7
100
AcDbCircle
 10
562.5
 20
170.0
 30
0.0
 40
20.65000000000006
100
AcDbArc
 50
116.5405389242139
 51
123.4307497269149
  0
ARC
  5
393
330
1F
100
AcDbEntity
  8
0
  6
CONTINUOUS
 62
     7
100
AcDbCircle
 10
562.5
 20
170.0
 30
0.0
 40
20.65000000000006
100
AcDbArc
 50
136.5733476532868
 51
143.4709520749878
  0
ARC
  5
394
330
1F
100
AcDbEntity
  8
0
  6
CONTINUOUS
 62
     7
100
AcDbCircle
 10
562.5
 20
170.0
 30
0.0
 40
20.65000000000006
100
AcDbArc
 50
156.5290479250121
 51
163.4715862440642
  0
ARC
  5
395
330
1F
100
AcDbEntity
  8
0
  6
CONTINUOUS
 62
     7
100
AcDbCircle
 10
562.5
 20
170.0
 30
0.0
 40
20.65000000000006
100
AcDbArc
 50
176.5405389242138
 51
183.4585571697317
  0
ARC
  5
396
330
1F
100
AcDbEntity
  8
0
  6
CONTINUOUS
 62
     7
100
AcDbCircle
 10
562.5
 20
170.0
 30
0.0
 40
20.65000000000006
100
AcDbArc
 50
196.5284137559354
 51
203.4709520749877
  0
ARC
  5
397
330
1F
100
AcDbEntity
  8
0
  6
CONTINUOUS
 62
     7
100
AcDbCircle
 10
562.5
 20
170.0
 30
0.0
 40
20.65000000000006
100
AcDbArc
 50
216.5290479250118
 51
223.4715862440639
  0
ARC
  5
398
330
1F
100
AcDbEntity
  8
0
  6
CONTINUOUS
 62
     7
100
AcDbCircle
 10
562.5
 20
170.0
 30
0.0
 40
20.65000000000006
100
AcDbArc
 50
236.5405389242134
 51
243.4585571697315
  0
ARC
  5
399
330
1F
100
AcDbEntity
  8
0
  6
CONTINUOUS
 62
     7
100
AcDbCircle
 10
562.5
 20
170.0
 30
0.0
 40
20.65000000000006
100
AcDbArc
 50
256.5284137559354
 51
263.5288390472923
  0
ARC
  5
39A
330
1F
100
AcDbEntity
  8
0
  6
CONTINUOUS
 62
     7
100
AcDbCircle
 10
562.5
 20
170.0
 30
0.0
 40
20.65000000000006
100
AcDbArc
 50
276.529047925012
 51
283.4715862440642
  0
ARC
  5
39B
330
1F
100
AcDbEntity
  8
0
  6
CONTINUOUS
 62
     7
100
AcDbCircle
 10
562.5
 20
170.0
 30
0.0
 40
20.65000000000006
100
AcDbArc
 50
296.5405389242138
 51
303.4585571697319
  0
ARC
  5
39C
330
1F
100
AcDbEntity
  8
0
  6
CONTINUOUS
 62
     7
100
AcDbCircle
 10
562.5
 20
170.0
 30
0.0
 40
20.65000000000006
100
AcDbArc
 50
316.5284137559358
 51
323.4709520749881
  0
ARC
  5
39D
330
1F
100
AcDbEntity
  8
0
  6
CONTINUOUS
 62
     7
100
AcDbCircle
 10
562.5
 20
170.0
 30
0.0
 40
20.65000000000006
100
AcDbArc
 50
336.569800040945
 51
343.4715862440647
  0
ARC
  5
39E
330
1F
100
AcDbEntity
  8
0
  6
CONTINUOUS
 62
     7
100
AcDbCircle
 10
562.5
 20
170.0
 30
0.0
 40
20.65000000000006
100
AcDbArc
 50
356.5405389242143
 51
0.0
  0
CIRCLE
  5
39F
330
1F
100
AcDbEntity
  8
0
  6
CONTINUOUS
 62
     7
100
AcDbCircle
 10
562.5
 20
170.0
 30
0.0
 40
28.49999999999997
  0
ARC
  5
3A0
330
1F
100
AcDbEntity
  8
0
  6
CONTINUOUS
 62
     7
100
AcDbCircle
 10
562.5
 20
170.0
 30
0.0
 40
19.85000000000003
100
AcDbArc
 50
296.38862856635
 51
303.6113714336498
  0
ARC
  5
3A1
330
1F
100
AcDbEntity
  8
0
  6
CONTINUOUS
 62
     7
100
AcDbCircle
 10
562.5
 20
170.0
 30
0.0
 40
19.85000000000003
100
AcDbArc
 50
316.3883575105256
 51
323.610880267902
  0
ARC
  5
3A2
330
1F
100
AcDbEntity
  8
0
  6
CONTINUOUS
 62
     7
100
AcDbCircle
 10
562.5
 20
170.0
 30
0.0
 40
19.85000000000003
100
AcDbArc
 50
356.3886285663503
 51
3.611371433649879
  0
ARC
  5
3A3
330
1F
100
AcDbEntity
  8
0
  6
CONTINUOUS
 62
     7
100
AcDbCircle
 10
562.5
 20
170.0
 30
0.0
 40
19.85000000000003
100
AcDbArc
 50
16.38835751052564
 51
23.61088026790212
  0
ARC
  5
3A4
330
1F
100
AcDbEntity
  8
0
  6
CONTINUOUS
 62
     7
100
AcDbCircle
 10
562.5
 20
170.0
 30
0.0
 40
19.85000000000003
100
AcDbArc
 50
36.38911973209802
 51
43.61164248947453
  0
ARC
  5
3A5
330
1F
100
AcDbEntity
  8
0
  6
CONTINUOUS
 62
     7
100
AcDbCircle
 10
562.5
 20
170.0
 30
0.0
 40
19.85000000000003
100
AcDbArc
 50
56.38862856635021
 51
63.61137143364983
  0
ARC
  5
3A6
330
1F
100
AcDbEntity
  8
0
  6
CONTINUOUS
 62
     7
100
AcDbCircle
 10
562.5
 20
170.0
 30
0.0
 40
19.85000000000003
100
AcDbArc
 50
76.38835751052564
 51
83.61088026790216
  0
ARC
  5
3A7
330
1F
100
AcDbEntity
  8
0
  6
CONTINUOUS
 62
     7
100
AcDbCircle
 10
562.5
 20
170.0
 30
0.0
 40
19.85000000000003
100
AcDbArc
 50
96.38911973209787
 51
103.6116424894744
  0
ARC
  5
3A8
330
1F
100
AcDbEntity
  8
0
  6
CONTINUOUS
 62
     7
100
AcDbCircle
 10
562.5
 20
170.0
 30
0.0
 40
19.85000000000003
100
AcDbArc
 50
116.3886285663501
 51
123.6113714336497
  0
ARC
  5
3A9
330
1F
100
AcDbEntity
  8
0
  6
CONTINUOUS
 62
     7
100
AcDbCircle
 10
562.5
 20
170.0
 30
0.0
 40
19.85000000000003
100
AcDbArc
 50
136.3883575105254
 51
143.610880267902
  0
ARC
  5
3AA
330
1F
100
AcDbEntity
  8
0
  6
CONTINUOUS
 62
     7
100
AcDbCircle
 10
562.5
 20
170.0
 30
0.0
 40
19.85000000000003
100
AcDbArc
 50
156.3891197320977
 51
163.6116424894742
  0
ARC
  5
3AB
330
1F
100
AcDbEntity
  8
0
  6
CONTINUOUS
 62
     7
100
AcDbCircle
 10
562.5
 20
170.0
 30
0.0
 40
19.85000000000003
100
AcDbArc
 50
176.3886285663501
 51
183.6113714336498
  0
ARC
  5
3AC
330
1F
100
AcDbEntity
  8
0
  6
CONTINUOUS
 62
     7
100
AcDbCircle
 10
562.5
 20
170.0
 30
0.0
 40
19.85000000000014
100
AcDbArc
 50
196.3883575105255
 51
203.6108802679022
  0
ARC
  5
3AD
330
1F
100
AcDbEntity
  8
0
  6
CONTINUOUS
 62
     7
100
AcDbCircle
 10
562.5
 20
170.0
 30
0.0
 40
19.85000000000014
100
AcDbArc
 50
216.3891197320979
 51
223.6116424894745
  0
ARC
  5
3AE
330
1F
100
AcDbEntity
  8
0
  6
CONTINUOUS
 62
     7
100
AcDbCircle
 10
562.5
 20
170.0
 30
0.0
 40
19.85000000000003
100
AcDbArc
 50
236.3886285663502
 51
243.61137143365
  0
ARC
  5
3AF
330
1F
100
AcDbEntity
  8
0
  6
CONTINUOUS
 62
     7
100
AcDbCircle
 10
562.5
 20
170.0
 30
0.0
 40
19.85000000000003
100
AcDbArc
 50
256.3883575105258
 51
263.6108802679025
  0
ARC
  5
3B0
330
1F
100
AcDbEntity
  8
0
  6
CONTINUOUS
 62
     7
100
AcDbCircle
 10
562.5
 20
170.0
 30
0.0
 40
14.00000000000001
100
AcDbArc
 50
0.0
 51
180.0
  0
ARC
  5
3B1
330
1F
100
AcDbEntity
  8
0
  6
CONTINUOUS
 62
     7
100
AcDbCircle
 10
562.5
 20
170.0
 30
0.0
 40
14.00000000000001
100
AcDbArc
 50
270.0
 51
0.0
  0
ARC
  5
3B2
330
1F
100
AcDbEntity
  8
0
  6
CONTINUOUS
 62
     7
100
AcDbCircle
 10
562.5
 20
170.0
 30
0.0
 40
14.00000000000001
100
AcDbArc
 50
180.0
 51
270.0
  0
LINE
  5
3B3
330
1F
100
AcDbEntity
  8
0
  6
CONTINUOUS
 62
     7
100
AcDbLine
 10
560.6197256442924
 20
180.3302743557076
 30
0.0
 11
560.9999999999999
 21
179.95
 31
0.0
  0
LINE
  5
3B4
330
1F
100
AcDbEntity
  8
0
  6
CONTINUOUS
 62
     7
100
AcDbLine
 10
563.9999999999999
 20
179.95
 30
0.0
 11
564.3802743557076
 21
180.3302743557076
 31
0.0
  0
CIRCLE
  5
3B5
330
1F
100
AcDbEntity
  8
0
  6
CONTINUOUS
 62
     7
100
AcDbCircle
 10
562.5
 20
169.9999999959793
 30
0.0
 40
10.49999999999995
  0
ENDSEC
  0
SECTION
  2
OBJECTS
  0
DICTIONARY
  5
C
330
0
100
AcDbDictionary
  3
ACAD_GROUP
350
D
  3
ACAD_LAYOUT
350
1A
  3
ACAD_MATERIAL
350
43
  3
ACAD_MLEADERSTYLE
350
6B
  3
ACAD_MLINESTYLE
350
17
  3
ACAD_PLOTSETTINGS
350
19
  3
ACAD_SCALELIST
350
47
  3
ACAD_VISUALSTYLE
350
2A
  3
ACDBHEADERROUNDTRIPXREC
350
3B6
  3
ACDBVARIABLEDICTIONARY
350
3D7
  0
DICTIONARY
  5
3DE
330
8
100
AcDbDictionary
280
     1
  3
ACAD_XREC_ROUNDTRIP
360
3DF
  0
DICTIONARY
  5
D
102
{ACAD_REACTORS
330
C
102
}
330
C
100
AcDbDictionary
  0
DICTIONARY
  5
1A
102
{ACAD_REACTORS
330
C
102
}
330
C
100
AcDbDictionary
  0
DICTIONARY
  5
43
102
{ACAD_REACTORS
330
C
102
}
330
C
100
AcDbDictionary
  3
BYBLOCK
350
45
  3
BYLAYER
350
44
  3
GLOBAL
350
46
  0
DICTIONARY
  5
6B
102
{ACAD_REACTORS
330
C
102
}
330
C
100
AcDbDictionary
  3
STANDARD
350
6C
  0
DICTIONARY
  5
17
102
{ACAD_REACTORS
330
C
102
}
330
C
100
AcDbDictionary
  3
STANDARD
350
18
  0
DICTIONARY
  5
19
102
{ACAD_REACTORS
330
C
102
}
330
C
100
AcDbDictionary
  0
DICTIONARY
  5
47
102
{ACAD_REACTORS
330
C
102
}
330
C
100
AcDbDictionary
  3
A0
350
48
  3
A1
350
49
  3
A2
350
4A
  3
A3
350
4B
  3
A4
350
4C
  3
A5
350
4D
  3
A6
350
4E
  3
A7
350
4F
  3
A8
350
50
  3
A9
350
51
  3
B0
350
52
  3
B1
350
53
  3
B2
350
54
  3
B3
350
55
  3
B4
350
56
  3
B5
350
57
  3
B6
350
58
  3
B7
350
59
  3
B8
350
5A
  3
B9
350
5B
  3
C0
350
5C
  3
C1
350
5D
  3
C2
350
5E
  3
C3
350
5F
  3
C4
350
60
  3
C5
350
61
  3
C6
350
62
  3
C7
350
63
  3
C8
350
64
  3
C9
350
65
  3
D0
350
66
  3
D1
350
67
  3
D2
350
68
  0
DICTIONARY
  5
2A
102
{ACAD_REACTORS
330
C
102
}
330
C
100
AcDbDictionary
  3
2DWIREFRAME
350
2F
  3
BASIC
350
32
  3
BRIGHTEN
350
36
  3
COLORCHANGE
350
3A
  3
CONCEPTUAL
350
34
  3
DIM
350
35
  3
EDGECOLOROFF
350
3D
  3
FACEPATTERN
350
39
  3
FLAT
350
2B
  3
FLATWITHEDGES
350
2C
  3
GOURAUD
350
2D
  3
GOURAUDWITHEDGES
350
2E
  3
HIDDEN
350
31
  3
JITTEROFF
350
3B
  3
LINEPATTERN
350
38
  3
OVERHANGOFF
350
3C
  3
REALISTIC
350
33
  3
SHADED
350
42
  3
SHADED_WITH_EDGES
350
41
  3
SHADES_OF_GRAY
350
3E
  3
SKETCHY
350
3F
  3
THICKEN
350
37
  3
WIREFRAME
350
30
  3
X-RAY
350
40
  0
DICTIONARY
  5
3B6
102
{ACAD_REACTORS
330
C
102
}
330
C
100
AcDbDictionary
  3
CEPSNID
350
3C0
  3
CEPSNTYPE
350
3BF
  3
DIMSTYLEDATA
350
3D6
  3
FINGERPRINTGUID
350
3C1
  3
HYPERLINKBASE
350
3B9
  3
INSUNITS
350
3BE
  3
LAYOUTDICT
350
3BB
  3
LWETCUNION
350
3BD
  3
PLOTSETDICT
350
3BC
  3
PSVPSCALE
350
3C3
  3
PUCSBASE
350
3C6
  3
PUCSORGBACK
350
3CC
  3
PUCSORGBOTTOM
350
3C8
  3
PUCSORGFRONT
350
3CB
  3
PUCSORGLEFT
350
3C9
  3
PUCSORGRIGHT
350
3CA
  3
PUCSORGTOP
350
3C7
  3
PUCSORTHOREF
350
3C4
  3
PUCSORTHOVIEW
350
3C5
  3
STYLESHEET
350
3BA
  3
TSTACKALIGN
350
3B7
  3
TSTACKSIZE
350
3B8
  3
UCSBASE
350
3CF
  3
UCSORGBACK
350
3D5
  3
UCSORGBOTTOM
350
3D1
  3
UCSORGFRONT
350
3D4
  3
UCSORGLEFT
350
3D2
  3
UCSORGRIGHT
350
3D3
  3
UCSORGTOP
350
3D0
  3
UCSORTHOREF
350
3CD
  3
UCSORTHOVIEW
350
3CE
  3
VERSIONGUID
350
3C2
  0
DICTIONARY
  5
3D7
102
{ACAD_REACTORS
330
C
102
}
330
C
100
AcDbDictionary
  3
CANNOSCALE
350
3E0
  3
CMLEADERSTYLE
350
3D9
  3
CTABLESTYLE
350
3D8
  3
DIMASSOC
350
3DC
  3
HIDETEXT
350
3DD
  3
MSLTSCALE
350
3E1
  0
XRECORD
  5
3DF
102
{ACAD_REACTORS
330
3DE
102
}
330
3DE
100
AcDbXrecord
102
VTR_0.000_0.000_1.000_1.000_VISUALSTYLE
340
2F
102
VTR_0.000_0.000_1.000_1.000_GRIDDISPLAY
 70
     3
102
VTR_0.000_0.000_1.000_1.000_GRIDMAJOR
 70
     5
102
VTR_0.000_0.000_1.000_1.000_DEFAULTLIGHTING
280
     1
102
VTR_0.000_0.000_1.000_1.000_DEFAULTLIGHTINGTYPE
 70
     1
102
VTR_0.000_0.000_1.000_1.000_BRIGHTNESS
141
0.0
102
VTR_0.000_0.000_1.000_1.000_CONTRAST
142
0.0
  0
MATERIAL
  5
45
102
{ACAD_REACTORS
330
43
102
}
102
{ACAD_XDICTIONARY
360
3E4
102
}
330
43
100
AcDbMaterial
  1
BYBLOCK
  0
MATERIAL
  5
44
102
{ACAD_REACTORS
330
43
102
}
102
{ACAD_XDICTIONARY
360
3E2
102
}
330
43
100
AcDbMaterial
  1
BYLAYER
  0
MATERIAL
  5
46
102
{ACAD_REACTORS
330
43
102
}
102
{ACAD_XDICTIONARY
360
3E6
102
}
330
43
100
AcDbMaterial
  1
GLOBAL
  0
ACAD_PROXY_OBJECT
  5
6C
102
{ACAD_REACTORS
330
6B
102
}
330
6B
100
AcDbProxyObject
 90
      499
 91
      505
 93
      610
310
40901902A4063FBFFFFFE056BD1B81E855B9FC0AD7A3703D0AD73F4214DD185B99185C9900AD7A3703D0AC73F90141901A02B5E8DC0F42B1CFC02B5E8DC0F42B1CFE5764000000000000300FC0
340
14
340
0
340
11
340
0
 94
        0
1001
ACAD_MLEADERVER
1070
     2
  0
MLINESTYLE
  5
18
102
{ACAD_REACTORS
330
17
102
}
330
17
100
AcDbMlineStyle
  2
Standard
 70
     0
  3

 62
   256
 51
90.0
 52
90.0
 71
     2
 49
0.5
 62
   256
  6
BYLAYER
 49
-0.5
 62
   256
  6
BYLAYER
  0
ACAD_PROXY_OBJECT
  5
48
102
{ACAD_REACTORS
330
47
102
}
330
47
100
AcDbProxyObject
 90
      499
 91
      503
 93
       41
310
903313A31580
  0
ACAD_PROXY_OBJECT
  5
49
102
{ACAD_REACTORS
330
47
102
}
330
47
100
AcDbProxyObject
 90
      499
 91
      503
 93
      105
310
903313A324000000000000004000
  0
ACAD_PROXY_OBJECT
  5
4A
102
{ACAD_REACTORS
330
47
102
}
330
47
100
AcDbProxyObject
 90
      499
 91
      503
 93
      105
310
903313A344000000000000104000
  0
ACAD_PROXY_OBJECT
  5
4B
102
{ACAD_REACTORS
330
47
102
}
330
47
100
AcDbProxyObject
 90
      499
 91
      503
 93
      105
310
903313A354000000000000144000
  0
ACAD_PROXY_OBJECT
  5
4C
102
{ACAD_REACTORS
330
47
102
}
330
47
100
AcDbProxyObject
 90
      499
 91
      503
 93
      105
310
903313A384000000000000204000
  0
ACAD_PROXY_OBJECT
  5
4D
102
{ACAD_REACTORS
330
47
102
}
330
47
100
AcDbProxyObject
 90
      499
 91
      503
 93
      113
310
904313A31304000000000000244000
  0
ACAD_PROXY_OBJECT
  5
4E
102
{ACAD_REACTORS
330
47
102
}
330
47
100
AcDbProxyObject
 90
      499
 91
      503
 93
      113
310
904313A31364000000000000304000
  0
ACAD_PROXY_OBJECT
  5
4F
102
{ACAD_REACTORS
330
47
102
}
330
47
100
AcDbProxyObject
 90
      499
 91
      503
 93
      113
310
904313A32304000000000000344000
  0
ACAD_PROXY_OBJECT
  5
50
102
{ACAD_REACTORS
330
47
102
}
330
47
100
AcDbProxyObject
 90
      499
 91
      503
 93
      113
310
904313A333040000000000003E4000
  0
ACAD_PROXY_OBJECT
  5
51
102
{ACAD_REACTORS
330
47
102
}
330
47
100
AcDbProxyObject
 90
      499
 91
      503
 93
      113
310
904313A34304000000000000444000
  0
ACAD_PROXY_OBJECT
  5
52
102
{ACAD_REACTORS
330
47
102
}
330
47
100
AcDbProxyObject
 90
      499
 91
      503
 93
      113
310
904313A35304000000000000494000
  0
ACAD_PROXY_OBJECT
  5
53
102
{ACAD_REACTORS
330
47
102
}
330
47
100
AcDbProxyObject
 90
      499
 91
      503
 93
      121
310
905313A3130304000000000000594000
  0
ACAD_PROXY_OBJECT
  5
54
102
{ACAD_REACTORS
330
47
102
}
330
47
100
AcDbProxyObject
 90
      499
 91
      503
 93
      105
310
903323A310000000000000010100
  0
ACAD_PROXY_OBJECT
  5
55
102
{ACAD_REACTORS
330
47
102
}
330
47
100
AcDbProxyObject
 90
      499
 91
      503
 93
      105
310
903343A310000000000000410100
  0
ACAD_PROXY_OBJECT
  5
56
102
{ACAD_REACTORS
330
47
102
}
330
47
100
AcDbProxyObject
 90
      499
 91
      503
 93
      105
310
903383A310000000000000810100
  0
ACAD_PROXY_OBJECT
  5
57
102
{ACAD_REACTORS
330
47
102
}
330
47
100
AcDbProxyObject
 90
      499
 91
      503
 93
      113
310
90431303A310000000000000910100
  0
ACAD_PROXY_OBJECT
  5
58
102
{ACAD_REACTORS
330
47
102
}
330
47
100
AcDbProxyObject
 90
      499
 91
      503
 93
      121
310
9053130303A310000000000001650100
  0
ACAD_PROXY_OBJECT
  5
59
102
{ACAD_REACTORS
330
47
102
}
330
47
100
AcDbProxyObject
 90
      499
 91
      503
 93
      257
310
90E312F31323822203D2031272D3022000000000000200FC000000000000284000
  0
ACAD_PROXY_OBJECT
  5
5A
102
{ACAD_REACTORS
330
47
102
}
330
47
100
AcDbProxyObject
 90
      499
 91
      503
 93
      249
310
90D312F363422203D2031272D3022000000000000240FC000000000000284000
  0
ACAD_PROXY_OBJECT
  5
5B
102
{ACAD_REACTORS
330
47
102
}
330
47
100
AcDbProxyObject
 90
      499
 91
      503
 93
      249
310
90D312F333222203D2031272D3022000000000000280FC000000000000284000
  0
ACAD_PROXY_OBJECT
  5
5C
102
{ACAD_REACTORS
330
47
102
}
330
47
100
AcDbProxyObject
 90
      499
 91
      503
 93
      249
310
90D312F313622203D2031272D30220000000000002C0FC000000000000284000
  0
ACAD_PROXY_OBJECT
  5
5D
102
{ACAD_REACTORS
330
47
102
}
330
47
100
AcDbProxyObject
 90
      499
 91
      503
 93
      249
310
90D332F333222203D2031272D30220000000000002E0FC000000000000284000
  0
ACAD_PROXY_OBJECT
  5
5E
102
{ACAD_REACTORS
330
47
102
}
330
47
100
AcDbProxyObject
 90
      499
 91
      503
 93
      241
310
90C312F3822203D2031272D3022000000000000300FC000000000000284000
  0
ACAD_PROXY_OBJECT
  5
5F
102
{ACAD_REACTORS
330
47
102
}
330
47
100
AcDbProxyObject
 90
      499
 91
      503
 93
      249
310
90D332F313622203D2031272D3022000000000000320FC000000000000284000
  0
ACAD_PROXY_OBJECT
  5
60
102
{ACAD_REACTORS
330
47
102
}
330
47
100
AcDbProxyObject
 90
      499
 91
      503
 93
      241
310
90C312F3422203D2031272D3022000000000000340FC000000000000284000
  0
ACAD_PROXY_OBJECT
  5
61
102
{ACAD_REACTORS
330
47
102
}
330
47
100
AcDbProxyObject
 90
      499
 91
      503
 93
      241
310
90C332F3822203D2031272D3022000000000000360FC000000000000284000
  0
ACAD_PROXY_OBJECT
  5
62
102
{ACAD_REACTORS
330
47
102
}
330
47
100
AcDbProxyObject
 90
      499
 91
      503
 93
      241
310
90C312F3222203D2031272D3022000000000000380FC000000000000284000
  0
ACAD_PROXY_OBJECT
  5
63
102
{ACAD_REACTORS
330
47
102
}
330
47
100
AcDbProxyObject
 90
      499
 91
      503
 93
      241
310
90C332F3422203D2031272D30220000000000003A0FC000000000000284000
  0
ACAD_PROXY_OBJECT
  5
64
102
{ACAD_REACTORS
330
47
102
}
330
47
100
AcDbProxyObject
 90
      499
 91
      503
 93
      161
310
90A3122203D2031272D30224000000000000284000
  0
ACAD_PROXY_OBJECT
  5
65
102
{ACAD_REACTORS
330
47
102
}
330
47
100
AcDbProxyObject
 90
      499
 91
      503
 93
      257
310
90E312D312F3222203D2031272D30220000000000003E0FC000000000000284000
  0
ACAD_PROXY_OBJECT
  5
66
102
{ACAD_REACTORS
330
47
102
}
330
47
100
AcDbProxyObject
 90
      499
 91
      503
 93
      225
310
90A3322203D2031272D302200000000000002100000000000000284000
  0
ACAD_PROXY_OBJECT
  5
67
102
{ACAD_REACTORS
330
47
102
}
330
47
100
AcDbProxyObject
 90
      499
 91
      503
 93
      225
310
90A3622203D2031272D302200000000000006100000000000000284000
  0
ACAD_PROXY_OBJECT
  5
68
102
{ACAD_REACTORS
330
47
102
}
330
47
100
AcDbProxyObject
 90
      499
 91
      503
 93
      249
310
90D31272D3022203D2031272D30220000000000000A100000000000000284000
  0
ACAD_PROXY_OBJECT
  5
2F
102
{ACAD_REACTORS
330
2A
102
}
330
2A
100
AcDbProxyObject
 90
      499
 91
      501
 93
      436
310
42CC9915DA5C99599C985B595049028333333333333E33F0000000000000F90107901411070040501600405405064090741402480A0340
1001
ACAD
1000
AcDbSavedByObjectVersion
1070
     0
  0
ACAD_PROXY_OBJECT
  5
32
102
{ACAD_REACTORS
330
2A
102
}
330
2A
100
AcDbProxyObject
 90
      499
 91
      501
 93
      388
310
4150985CDA58D07406404333333333333E33F0000000000000F90107A41107004050150841D405064090741402480A0350
1001
ACAD
1000
AcDbSavedByObjectVersion
1070
     0
  0
ACAD_PROXY_OBJECT
  5
36
102
{ACAD_REACTORS
330
2A
102
}
330
2A
100
AcDbProxyObject
 90
      499
 91
      501
 93
      428
310
42109C9A59DA1D195B90C409028333333333333E33F0000000000000F9010790141107004050150841D405064090741402480A029950
1001
ACAD
1000
AcDbSavedByObjectVersion
1070
     0
  0
ACAD_PROXY_OBJECT
  5
3A
102
{ACAD_REACTORS
330
2A
102
}
330
2A
100
AcDbProxyObject
 90
      499
 91
      501
 93
      452
310
42D0DBDB1BDC90DA185B99D95104090240C333333333333E33F0000000000000F90108901411070040501508421405064090741402480A0350
1001
ACAD
1000
AcDbSavedByObjectVersion
1070
     0
  0
ACAD_PROXY_OBJECT
  5
34
102
{ACAD_REACTORS
330
2A
102
}
330
2A
100
AcDbProxyObject
 90
      499
 91
      501
 93
      500
310
4290DBDB98D95C1D1D585B10940D028333333333333E33F0000000000000F90107902409070040501000000000018199010841D405064090740C02480A0340
1001
ACAD
1000
AcDbSavedByObjectVersion
1070
     0
  0
ACAD_PROXY_OBJECT
  5
35
102
{ACAD_REACTORS
330
2A
102
}
330
2A
100
AcDbProxyObject
 90
      499
 91
      501
 93
      412
310
40D11A5B50B409028333333333333E33F0000000000000F9010790141107004050150841D405064090741402480A02677FFFFFD0
1001
ACAD
1000
AcDbSavedByObjectVersion
1070
     0
  0
ACAD_PROXY_OBJECT
  5
3D
102
{ACAD_REACTORS
330
2A
102
}
330
2A
100
AcDbProxyObject
 90
      499
 91
      501
 93
      452
310
43115919D950DBDB1BDC93D999916409028333333333333E33F0000000000000F9010790141107004050150841D405064090741402480A0350
1001
ACAD
1000
AcDbSavedByObjectVersion
1070
     0
  0
ACAD_PROXY_OBJECT
  5
39
102
{ACAD_REACTORS
330
2A
102
}
330
2A
100
AcDbProxyObject
 90
      499
 91
      501
 93
      444
310
42D19858D95C185D1D195C9B90F409028333333333333E33F0000000000000F9010790141107004050150841D405064090741402480A0350
1001
ACAD
1000
AcDbSavedByObjectVersion
1070
     0
  0
ACAD_PROXY_OBJECT
  5
2B
102
{ACAD_REACTORS
330
2A
102
}
330
2A
100
AcDbProxyObject
 90
      499
 91
      501
 93
      380
310
41119B185D240901404333333333333E33F0000000000000F9010740A907004050150841D405064090741402480A1B50
1001
ACAD
1000
AcDbSavedByObjectVersion
1070
     0
  0
ACAD_PROXY_OBJECT
  5
2C
102
{ACAD_REACTORS
330
2A
102
}
330
2A
100
AcDbProxyObject
 90
      499
 91
      501
 93
      468
310
43519B185D15DA5D1A115919D95CD0140901404333333333333E33F0000000000000F90107409019070040501600405405064090741402480A1B50
1001
ACAD
1000
AcDbSavedByObjectVersion
1070
     0
  0
ACAD_PROXY_OBJECT
  5
2D
102
{ACAD_REACTORS
330
2A
102
}
330
2A
100
AcDbProxyObject
 90
      499
 91
      501
 93
      404
310
41D1DBDD5C985D5910240902404333333333333E33F0000000000000F9010740A9070040501641D405064090741402480A1B50
1001
ACAD
1000
AcDbSavedByObjectVersion
1070
     0
  0
ACAD_PROXY_OBJECT
  5
2E
102
{ACAD_REACTORS
330
2A
102
}
330
2A
100
AcDbProxyObject
 90
      499
 91
      501
 93
      492
310
4411DBDD5C985D5915DA5D1A115919D95CD0340902404333333333333E33F0000000000000F90107409019070040501600405405064090741402480A1B50
1001
ACAD
1000
AcDbSavedByObjectVersion
1070
     0
  0
ACAD_PROXY_OBJECT
  5
31
102
{ACAD_REACTORS
330
2A
102
}
330
2A
100
AcDbProxyObject
 90
      499
 91
      501
 93
      476
310
41921A5919195B90640502408333333333333E33F0000000000000F901079024090700405020000000000001110200405405064090740C02480A0340
1001
ACAD
1000
AcDbSavedByObjectVersion
1070
     0
  0
ACAD_PROXY_OBJECT
  5
3B
102
{ACAD_REACTORS
330
2A
102
}
330
2A
100
AcDbProxyObject
 90
      499
 91
      501
 93
      428
310
42529A5D1D195C93D999914409028333333333333E33F0000000000000F9010790141107004050150A41D405064090741402480A0350
1001
ACAD
1000
AcDbSavedByObjectVersion
1070
     0
  0
ACAD_PROXY_OBJECT
  5
38
102
{ACAD_REACTORS
330
2A
102
}
330
2A
100
AcDbProxyObject
 90
      499
 91
      501
 93
      444
310
42D31A5B995C185D1D195C9B90E409028333333333333E33F0000000000000F9010790141107004050750841D405064090741402483A0350
1001
ACAD
1000
AcDbSavedByObjectVersion
1070
     0
  0
ACAD_PROXY_OBJECT
  5
3C
102
{ACAD_REACTORS
330
2A
102
}
330
2A
100
AcDbProxyObject
 90
      499
 91
      501
 93
      444
310
42D3DD995C9A185B99D3D999915409028333333333333E33F0000000000000F9010790141107004050150941D405064090741402480A0350
1001
ACAD
1000
AcDbSavedByObjectVersion
1070
     0
  0
ACAD_PROXY_OBJECT
  5
33
102
{ACAD_REACTORS
330
2A
102
}
330
2A
100
AcDbProxyObject
 90
      499
 91
      501
 93
      428
310
425499585B1A5CDD1A58D08409038333333333333E33F0000000000000F9010740A907004050150800405405064090740C02480A1B40
1001
ACAD
1000
AcDbSavedByObjectVersion
1070
     0
  0
ACAD_PROXY_OBJECT
  5
42
102
{ACAD_REACTORS
330
2A
102
}
330
2A
100
AcDbProxyObject
 90
      499
 91
      501
 93
      420
310
4194DA1859195911B40902404333333333333E33F0000000000000F9010740A41107004050150800405405064090840C02480A0B40
1001
ACAD
1000
AcDbSavedByObjectVersion
1070
     0
  0
ACAD_PROXY_OBJECT
  5
41
102
{ACAD_REACTORS
330
2A
102
}
330
2A
100
AcDbProxyObject
 90
      499
 91
      501
 93
      516
310
4454DA18591959081DDA5D1A08195919D95CD1A40902404333333333333E33F0000000000000F901074090142907004050250800405405064090740C02480A0B40
1001
ACAD
1000
AcDbSavedByObjectVersion
1070
     0
  0
ACAD_PROXY_OBJECT
  5
3E
102
{ACAD_REACTORS
330
2A
102
}
330
2A
100
AcDbProxyObject
 90
      499
 91
      501
 93
      532
310
4394DA1859195CC81BD98811DC985E5174090240C333333333333E33F0000000000000F901079024090741D01000000000000111010841D405064090740C02480A0340
1001
ACAD
1000
AcDbSavedByObjectVersion
1070
     0
  0
ACAD_PROXY_OBJECT
  5
3F
102
{ACAD_REACTORS
330
2A
102
}
330
2A
100
AcDbProxyObject
 90
      499
 91
      501
 93
      476
310
41D4DAD95D18DA1E51840502408333333333333E33F0000000000000F901079024090741D01000000000000111010B41D405064090741802480A0340
1001
ACAD
1000
AcDbSavedByObjectVersion
1070
     0
  0
ACAD_PROXY_OBJECT
  5
37
102
{ACAD_REACTORS
330
2A
102
}
330
2A
100
AcDbProxyObject
 90
      499
 91
      501
 93
      412
310
41D51A1A58DAD95B90D409028333333333333E33F0000000000000F9010790141107004050150C41D405064090741402480A0350
1001
ACAD
1000
AcDbSavedByObjectVersion
1070
     0
  0
ACAD_PROXY_OBJECT
  5
30
102
{ACAD_REACTORS
330
2A
102
}
330
2A
100
AcDbProxyObject
 90
      499
 91
      501
 93
      420
310
4255DA5C99599C985B595059028333333333333E33F0000000000000F90107901411070040501600405405064090740C02480A0340
1001
ACAD
1000
AcDbSavedByObjectVersion
1070
     0
  0
ACAD_PROXY_OBJECT
  5
40
102
{ACAD_REACTORS
330
2A
102
}
330
2A
100
AcDbProxyObject
 90
      499
 91
      501
 93
      404
310
41560B54985E51940902404000000000000E03F0000000000000F9010740501907004050150841D405064090740C02480A1B40
1001
ACAD
1000
AcDbSavedByObjectVersion
1070
     0
  0
XRECORD
  5
3C0
102
{ACAD_REACTORS
330
3B6
102
}
330
3B6
100
AcDbXrecord
340
0
  0
XRECORD
  5
3BF
102
{ACAD_REACTORS
330
3B6
102
}
330
3B6
100
AcDbXrecord
 90
        0
  0
XRECORD
  5
3D6
102
{ACAD_REACTORS
330
3B6
102
}
330
3B6
100
AcDbXrecord
1000
DSTYLE
1002
{
1070
   179
 70
     2
1070
   171
 70
     2
1070
   143
 40
25.4
1070
   274
 70
     2
1070
    41
 40
3.0
1070
   141
 40
0.09
1070
    43
 40
0.38
1070
   278
 70
    46
1070
    44
 40
1.5
1070
    42
 40
0.0625
1070
   147
 40
1.5
1070
   272
 70
     4
1070
    73
 70
     1
1070
   172
 70
     0
1070
    74
 70
     1
1070
   283
 70
     1
1070
   340
340
6E
1070
   140
 40
3.0
1070
   284
 70
     0
1070
    78
 70
     0
1002
}
  0
XRECORD
  5
3C1
102
{ACAD_REACTORS
330
3B6
102
}
330
3B6
100
AcDbXrecord
  1
{F67DB21E-BE54-42B4-B733-4781539732D1}
  0
XRECORD
  5
3B9
102
{ACAD_REACTORS
330
3B6
102
}
330
3B6
100
AcDbXrecord
  1

  0
XRECORD
  5
3BE
102
{ACAD_REACTORS
330
3B6
102
}
330
3B6
100
AcDbXrecord
 90
        4
  0
XRECORD
  5
3BB
102
{ACAD_REACTORS
330
3B6
102
}
330
3B6
100
AcDbXrecord
340
1A
  0
XRECORD
  5
3BD
102
{ACAD_REACTORS
330
3B6
102
}
330
3B6
100
AcDbXrecord
 90
    10269
  0
XRECORD
  5
3BC
102
{ACAD_REACTORS
330
3B6
102
}
330
3B6
100
AcDbXrecord
340
19
  0
XRECORD
  5
3C3
102
{ACAD_REACTORS
330
3B6
102
}
330
3B6
100
AcDbXrecord
 40
0.0
  0
XRECORD
  5
3C6
102
{ACAD_REACTORS
330
3B6
102
}
330
3B6
100
AcDbXrecord
340
0
  0
XRECORD
  5
3CC
102
{ACAD_REACTORS
330
3B6
102
}
330
3B6
100
AcDbXrecord
 10
0.0
 20
0.0
 30
0.0
  0
XRECORD
  5
3C8
102
{ACAD_REACTORS
330
3B6
102
}
330
3B6
100
AcDbXrecord
 10
0.0
 20
0.0
 30
0.0
  0
XRECORD
  5
3CB
102
{ACAD_REACTORS
330
3B6
102
}
330
3B6
100
AcDbXrecord
 10
0.0
 20
0.0
 30
0.0
  0
XRECORD
  5
3C9
102
{ACAD_REACTORS
330
3B6
102
}
330
3B6
100
AcDbXrecord
 10
0.0
 20
0.0
 30
0.0
  0
XRECORD
  5
3CA
102
{ACAD_REACTORS
330
3B6
102
}
330
3B6
100
AcDbXrecord
 10
0.0
 20
0.0
 30
0.0
  0
XRECORD
  5
3C7
102
{ACAD_REACTORS
330
3B6
102
}
330
3B6
100
AcDbXrecord
 10
0.0
 20
0.0
 30
0.0
  0
XRECORD
  5
3C4
102
{ACAD_REACTORS
330
3B6
102
}
330
3B6
100
AcDbXrecord
340
0
  0
XRECORD
  5
3C5
102
{ACAD_REACTORS
330
3B6
102
}
330
3B6
100
AcDbXrecord
 70
     0
  0
XRECORD
  5
3BA
102
{ACAD_REACTORS
330
3B6
102
}
330
3B6
100
AcDbXrecord
  1

  0
XRECORD
  5
3B7
102
{ACAD_REACTORS
330
3B6
102
}
330
3B6
100
AcDbXrecord
 90
        1
  0
XRECORD
  5
3B8
102
{ACAD_REACTORS
330
3B6
102
}
330
3B6
100
AcDbXrecord
 90
       70
  0
XRECORD
  5
3CF
102
{ACAD_REACTORS
330
3B6
102
}
330
3B6
100
AcDbXrecord
340
0
  0
XRECORD
  5
3D5
102
{ACAD_REACTORS
330
3B6
102
}
330
3B6
100
AcDbXrecord
 10
0.0
 20
0.0
 30
0.0
  0
XRECORD
  5
3D1
102
{ACAD_REACTORS
330
3B6
102
}
330
3B6
100
AcDbXrecord
 10
0.0
 20
0.0
 30
0.0
  0
XRECORD
  5
3D4
102
{ACAD_REACTORS
330
3B6
102
}
330
3B6
100
AcDbXrecord
 10
0.0
 20
0.0
 30
0.0
  0
XRECORD
  5
3D2
102
{ACAD_REACTORS
330
3B6
102
}
330
3B6
100
AcDbXrecord
 10
0.0
 20
0.0
 30
0.0
  0
XRECORD
  5
3D3
102
{ACAD_REACTORS
330
3B6
102
}
330
3B6
100
AcDbXrecord
 10
0.0
 20
0.0
 30
0.0
  0
XRECORD
  5
3D0
102
{ACAD_REACTORS
330
3B6
102
}
330
3B6
100
AcDbXrecord
 10
0.0
 20
0.0
 30
0.0
  0
XRECORD
  5
3CD
102
{ACAD_REACTORS
330
3B6
102
}
330
3B6
100
AcDbXrecord
340
0
  0
XRECORD
  5
3CE
102
{ACAD_REACTORS
330
3B6
102
}
330
3B6
100
AcDbXrecord
 70
     0
  0
XRECORD
  5
3C2
102
{ACAD_REACTORS
330
3B6
102
}
330
3B6
100
AcDbXrecord
  1
{FAEB1C32-E019-11D5-929B-00C0DF256EC4}
  0
DICTIONARYVAR
  5
3E0
102
{ACAD_REACTORS
330
3D7
102
}
330
3D7
100
DictionaryVariables
280
     0
  1
1:1
  0
DICTIONARYVAR
  5
3D9
102
{ACAD_REACTORS
330
3D7
102
}
330
3D7
100
DictionaryVariables
280
     0
  1
Standard
  0
DICTIONARYVAR
  5
3D8
102
{ACAD_REACTORS
330
3D7
102
}
330
3D7
100
DictionaryVariables
280
     0
  1
Standard
  0
DICTIONARYVAR
  5
3DC
102
{ACAD_REACTORS
330
3D7
102
}
330
3D7
100
DictionaryVariables
280
     0
  1
2
  0
DICTIONARYVAR
  5
3DD
102
{ACAD_REACTORS
330
3D7
102
}
330
3D7
100
DictionaryVariables
280
     0
  1
1
  0
DICTIONARYVAR
  5
3E1
102
{ACAD_REACTORS
330
3D7
102
}
330
3D7
100
DictionaryVariables
280
     0
  1
1
  0
DICTIONARY
  5
3E4
330
45
100
AcDbDictionary
280
     1
  3
ACAD_XREC_ROUNDTRIP
360
3E5
  0
DICTIONARY
  5
3E2
330
44
100
AcDbDictionary
280
     1
  3
ACAD_XREC_ROUNDTRIP
360
3E3
  0
DICTIONARY
  5
3E6
330
46
100
AcDbDictionary
280
     1
  3
ACAD_XREC_ROUNDTRIP
360
3E7
  0
XRECORD
  5
3E5
102
{ACAD_REACTORS
330
3E4
102
}
330
3E4
100
AcDbXrecord
102
MATERIAL
148
0.0
149
0.0
149
0.0
 93
        0
 94
      127
282
     0
 72
     1
 77
     1
171
     1
175
     1
179
     1
273
     0
  0
XRECORD
  5
3E3
102
{ACAD_REACTORS
330
3E2
102
}
330
3E2
100
AcDbXrecord
102
MATERIAL
148
0.0
149
0.0
149
0.0
 93
        0
 94
      127
282
     0
 72
     1
 77
     1
171
     1
175
     1
179
     1
273
     0
  0
XRECORD
  5
3E7
102
{ACAD_REACTORS
330
3E6
102
}
330
3E6
100
AcDbXrecord
102
MATERIAL
148
0.0
149
0.0
149
0.0
 93
        0
 94
      127
282
     0
 72
     1
 77
     1
171
     1
175
     1
179
     1
273
     0
  0
ENDSEC
  0
EOF
