  0
SECTION
  2
HEADER
  9
$ACADVER
  1
AC1014
  9
$ACADMAINTVER
 70
     9
  9
$DWGCODEPAGE
  3
ANSI_932
  9
$INSBASE
 10
0.0
 20
0.0
 30
0.0
  9
$EXTMIN
 10
337.9999999999999
 20
89.71251094160311
 30
0.0
  9
$EXTMAX
 10
622.0
 20
162.0
 30
0.0
  9
$LIMMIN
 10
0.0
 20
0.0
  9
$LIMMAX
 10
12.0
 20
9.0
  9
$ORTHOMODE
 70
     0
  9
$REGENMODE
 70
     1
  9
$FILLMODE
 70
     1
  9
$QTEXTMODE
 70
     0
  9
$MIRRTEXT
 70
     1
  9
$DRAGMODE
 70
     2
  9
$LTSCALE
 40
1.0
  9
$OSMODE
 70
    37
  9
$ATTMODE
 70
     1
  9
$TEXTSIZE
 40
0.2
  9
$TRACEWID
 40
0.05
  9
$TEXTSTYLE
  7
STANDARD
  9
$CLAYER
  8
0
  9
$CELTYPE
  6
BYLAYER
  9
$CECOLOR
 62
   256
  9
$CELTSCALE
 40
1.0
  9
$DELOBJ
 70
     1
  9
$DISPSILH
 70
     0
  9
$DIMSCALE
 40
1.0
  9
$DIMASZ
 40
3.0
  9
$DIMEXO
 40
0.0625
  9
$DIMDLI
 40
0.38
  9
$DIMRND
 40
0.0
  9
$DIMDLE
 40
0.0
  9
$DIMEXE
 40
1.5
  9
$DIMTP
 40
0.0
  9
$DIMTM
 40
0.0
  9
$DIMTXT
 40
3.0
  9
$DIMCEN
 40
0.09
  9
$DIMTSZ
 40
0.0
  9
$DIMTOL
 70
     0
  9
$DIMLIM
 70
     0
  9
$DIMTIH
 70
     1
  9
$DIMTOH
 70
     1
  9
$DIMSE1
 70
     0
  9
$DIMSE2
 70
     0
  9
$DIMTAD
 70
     1
  9
$DIMZIN
 70
     0
  9
$DIMBLK
  1

  9
$DIMASO
 70
     1
  9
$DIMSHO
 70
     1
  9
$DIMPOST
  1

  9
$DIMAPOST
  1

  9
$DIMALT
 70
     0
  9
$DIMALTD
 70
     2
  9
$DIMALTF
 40
25.4
  9
$DIMLFAC
 40
1.0
  9
$DIMTOFL
 70
     0
  9
$DIMTVP
 40
0.0
  9
$DIMTIX
 70
     0
  9
$DIMSOXD
 70
     0
  9
$DIMSAH
 70
     0
  9
$DIMBLK1
  1

  9
$DIMBLK2
  1

  9
$DIMSTYLE
  2
STANDARD
  9
$DIMCLRD
 70
     0
  9
$DIMCLRE
 70
     0
  9
$DIMCLRT
 70
     0
  9
$DIMTFAC
 40
1.0
  9
$DIMGAP
 40
1.5
  9
$DIMJUST
 70
     0
  9
$DIMSD1
 70
     0
  9
$DIMSD2
 70
     0
  9
$DIMTOLJ
 70
     1
  9
$DIMTZIN
 70
     0
  9
$DIMALTZ
 70
     0
  9
$DIMALTTZ
 70
     0
  9
$DIMFIT
 70
     3
  9
$DIMUPT
 70
     0
  9
$DIMUNIT
 70
     2
  9
$DIMDEC
 70
     2
  9
$DIMTDEC
 70
     4
  9
$DIMALTU
 70
     2
  9
$DIMALTTD
 70
     2
  9
$DIMTXSTY
  7
ＭＳ_ゴシック
  9
$DIMAUNIT
 70
     0
  9
$LUNITS
 70
     2
  9
$LUPREC
 70
     4
  9
$SKETCHINC
 40
0.1
  9
$FILLETRAD
 40
0.5
  9
$AUNITS
 70
     0
  9
$AUPREC
 70
     0
  9
$MENU
  1
.
  9
$ELEVATION
 40
0.0
  9
$PELEVATION
 40
0.0
  9
$THICKNESS
 40
0.0
  9
$LIMCHECK
 70
     0
  9
$CHAMFERA
 40
0.0
  9
$CHAMFERB
 40
0.0
  9
$CHAMFERC
 40
0.0
  9
$CHAMFERD
 40
0.0
  9
$SKPOLY
 70
     0
  9
$TDCREATE
 40
2459348.643225798
  9
$TDUPDATE
 40
2459348.643225972
  9
$TDINDWG
 40
0.0000000116
  9
$TDUSRTIMER
 40
0.0000000116
  9
$USRTIMER
 70
     1
  9
$ANGBASE
 50
0.0
  9
$ANGDIR
 70
     0
  9
$PDMODE
 70
     0
  9
$PDSIZE
 40
0.0
  9
$PLINEWID
 40
0.0
  9
$COORDS
 70
     1
  9
$SPLFRAME
 70
     0
  9
$SPLINETYPE
 70
     6
  9
$SPLINESEGS
 70
     8
  9
$ATTDIA
 70
     0
  9
$ATTREQ
 70
     1
  9
$HANDLING
 70
     1
  9
$HANDSEED
  5
236
  9
$SURFTAB1
 70
     6
  9
$SURFTAB2
 70
     6
  9
$SURFTYPE
 70
     6
  9
$SURFU
 70
     6
  9
$SURFV
 70
     6
  9
$UCSNAME
  2

  9
$UCSORG
 10
0.0
 20
0.0
 30
0.0
  9
$UCSXDIR
 10
1.0
 20
0.0
 30
0.0
  9
$UCSYDIR
 10
0.0
 20
1.0
 30
0.0
  9
$PUCSNAME
  2

  9
$PUCSORG
 10
0.0
 20
0.0
 30
0.0
  9
$PUCSXDIR
 10
1.0
 20
0.0
 30
0.0
  9
$PUCSYDIR
 10
0.0
 20
1.0
 30
0.0
  9
$USERI1
 70
     0
  9
$USERI2
 70
     0
  9
$USERI3
 70
     0
  9
$USERI4
 70
     0
  9
$USERI5
 70
     0
  9
$USERR1
 40
0.0
  9
$USERR2
 40
0.0
  9
$USERR3
 40
0.0
  9
$USERR4
 40
0.0
  9
$USERR5
 40
0.0
  9
$WORLDVIEW
 70
     1
  9
$SHADEDGE
 70
     3
  9
$SHADEDIF
 70
    70
  9
$TILEMODE
 70
     1
  9
$MAXACTVP
 70
    64
  9
$PINSBASE
 10
0.0
 20
0.0
 30
0.0
  9
$PLIMCHECK
 70
     0
  9
$PEXTMIN
 10
1.000000000000000E+20
 20
1.000000000000000E+20
 30
1.000000000000000E+20
  9
$PEXTMAX
 10
-1.000000000000000E+20
 20
-1.000000000000000E+20
 30
-1.000000000000000E+20
  9
$PLIMMIN
 10
0.0
 20
0.0
  9
$PLIMMAX
 10
12.0
 20
9.0
  9
$UNITMODE
 70
     0
  9
$VISRETAIN
 70
     1
  9
$PLINEGEN
 70
     0
  9
$PSLTSCALE
 70
     1
  9
$TREEDEPTH
 70
  3020
  9
$PICKSTYLE
 70
     1
  9
$CMLSTYLE
  2
STANDARD
  9
$CMLJUST
 70
     0
  9
$CMLSCALE
 40
1.0
  9
$PROXYGRAPHICS
 70
     1
  9
$MEASUREMENT
 70
     1
  0
ENDSEC
  0
SECTION
  2
CLASSES
  0
CLASS
  1
ACDBDICTIONARYWDFLT
  2
AcDbDictionaryWithDefault
  3
ObjectDBX Classes
 90
        0
280
     0
281
     0
  0
CLASS
  1
VISUALSTYLE
  2
AcDbVisualStyle
  3
ObjectDBX Classes
 90
     4095
280
     0
281
     0
  0
CLASS
  1
MATERIAL
  2
AcDbMaterial
  3
ObjectDBX Classes
 90
     1153
280
     0
281
     0
  0
CLASS
  1
SCALE
  2
AcDbScale
  3
ObjectDBX Classes
 90
     1153
280
     0
281
     0
  0
CLASS
  1
TABLESTYLE
  2
AcDbTableStyle
  3
ObjectDBX Classes
 90
     4095
280
     0
281
     0
  0
CLASS
  1
MLEADERSTYLE
  2
AcDbMLeaderStyle
  3
ACDB_MLEADERSTYLE_CLASS
 90
     4095
280
     0
281
     0
  0
CLASS
  1
SUN
  2
AcDbSun
  3
SCENEOE
 90
     1153
280
     0
281
     0
  0
CLASS
  1
DICTIONARYVAR
  2
AcDbDictionaryVar
  3
ObjectDBX Classes
 90
        0
280
     0
281
     0
  0
CLASS
  1
XRECORD
  2
AcDbXrecord
  3
ObjectDBX Classes
 90
        0
280
     0
281
     0
  0
CLASS
  1
LWPOLYLINE
  2
AcDbPolyline
  3
ObjectDBX Classes
 90
        0
280
     0
281
     1
  0
CLASS
  1
HATCH
  2
AcDbHatch
  3
ObjectDBX Classes
 90
        0
280
     0
281
     1
  0
CLASS
  1
ACDBPLACEHOLDER
  2
AcDbPlaceHolder
  3
ObjectDBX Classes
 90
        0
280
     0
281
     0
  0
CLASS
  1
LAYOUT
  2
AcDbLayout
  3
ObjectDBX Classes
 90
        0
280
     0
281
     0
  0
ENDSEC
  0
SECTION
  2
TABLES
  0
TABLE
  2
VPORT
  5
8
102
{ACAD_XDICTIONARY
360
22B
102
}
330
0
100
AcDbSymbolTable
 70
     1
  0
VPORT
  5
29
330
8
100
AcDbSymbolTableRecord
100
AcDbViewportTableRecord
  2
*ACTIVE
 70
     0
 10
0.0
 20
0.0
 11
1.0
 21
1.0
 12
479.9999999999999
 22
125.8562554708016
 13
0.0
 23
0.0
 14
0.5
 24
0.5
 15
0.5
 25
0.5
 16
0.0
 26
0.0
 36
1.0
 17
0.0
 27
0.0
 37
0.0
 40
72.28748905839689
 41
1.6
 42
50.0
 43
0.0
 44
0.0
 50
0.0
 51
0.0
 71
     0
 72
   100
 73
     1
 74
     3
 75
     0
 76
     0
 77
     0
 78
     0
  0
ENDTAB
  0
TABLE
  2
LTYPE
  5
5
330
0
100
AcDbSymbolTable
 70
     2
  0
LTYPE
  5
14
330
5
100
AcDbSymbolTableRecord
100
AcDbLinetypeTableRecord
  2
BYBLOCK
 70
     0
  3

 72
    65
 73
     0
 40
0.0
  0
LTYPE
  5
15
330
5
100
AcDbSymbolTableRecord
100
AcDbLinetypeTableRecord
  2
BYLAYER
 70
     0
  3

 72
    65
 73
     0
 40
0.0
  0
LTYPE
  5
16
330
5
100
AcDbSymbolTableRecord
100
AcDbLinetypeTableRecord
  2
CONTINUOUS
 70
     0
  3
Solid line
 72
    65
 73
     0
 40
0.0
  0
LTYPE
  5
1FE
330
5
100
AcDbSymbolTableRecord
100
AcDbLinetypeTableRecord
  2
CENTER
 70
     0
  3

 72
    65
 73
     0
 40
0.0
  0
ENDTAB
  0
TABLE
  2
LAYER
  5
2
330
0
100
AcDbSymbolTable
 70
     1
  0
LAYER
  5
10
330
2
100
AcDbSymbolTableRecord
100
AcDbLayerTableRecord
  2
0
 70
     0
 62
     7
  6
CONTINUOUS
  0
ENDTAB
  0
TABLE
  2
STYLE
  5
3
330
0
100
AcDbSymbolTable
 70
     2
  0
STYLE
  5
11
330
3
100
AcDbSymbolTableRecord
100
AcDbTextStyleTableRecord
  2
STANDARD
 70
     0
 40
0.0
 41
1.0
 50
0.0
 71
     0
 42
0.2
  3
txt
  4

  0
STYLE
  5
6E
330
3
100
AcDbSymbolTableRecord
100
AcDbTextStyleTableRecord
  2
ＭＳ_ゴシック
 70
     0
 40
0.0
 41
1.0
 50
0.0
 71
     0
 42
0.2
  3
ＭＳ ゴシック.shx
  4

  0
ENDTAB
  0
TABLE
  2
VIEW
  5
6
330
0
100
AcDbSymbolTable
 70
     0
  0
ENDTAB
  0
TABLE
  2
UCS
  5
7
330
0
100
AcDbSymbolTable
 70
     0
  0
ENDTAB
  0
TABLE
  2
APPID
  5
9
330
0
100
AcDbSymbolTable
 70
     2
  0
APPID
  5
12
330
9
100
AcDbSymbolTableRecord
100
AcDbRegAppTableRecord
  2
ACAD
 70
     0
  0
APPID
  5
235
330
9
100
AcDbSymbolTableRecord
100
AcDbRegAppTableRecord
  2
ACAD_MLEADERVER
 70
     0
  0
ENDTAB
  0
TABLE
  2
DIMSTYLE
  5
A
330
0
100
AcDbSymbolTable
 70
     1
  0
DIMSTYLE
105
27
330
A
100
AcDbSymbolTableRecord
100
AcDbDimStyleTableRecord
  2
STANDARD
 70
     0
  3

  4

  5

  6

  7

 40
1.0
 41
0.18
 42
0.0625
 43
0.38
 44
0.18
 45
0.0
 46
0.0
 47
0.0
 48
0.0
140
0.18
141
0.09
142
0.0
143
25.4
144
1.0
145
0.0
146
1.0
147
0.09
 71
     0
 72
     0
 73
     1
 74
     1
 75
     0
 76
     0
 77
     0
 78
     0
170
     0
171
     2
172
     0
173
     0
174
     0
175
     0
176
     0
177
     0
178
     0
270
     2
271
     4
272
     4
273
     2
274
     2
340
11
275
     0
280
     0
281
     0
282
     0
283
     1
284
     0
285
     0
286
     0
287
     3
288
     0
  0
ENDTAB
  0
TABLE
  2
BLOCK_RECORD
  5
1
330
0
100
AcDbSymbolTable
 70
     0
  0
BLOCK_RECORD
  5
1F
330
1
100
AcDbSymbolTableRecord
100
AcDbBlockTableRecord
  2
*MODEL_SPACE
  0
BLOCK_RECORD
  5
1B
330
1
100
AcDbSymbolTableRecord
100
AcDbBlockTableRecord
  2
*PAPER_SPACE
  0
ENDTAB
  0
ENDSEC
  0
SECTION
  2
BLOCKS
  0
BLOCK
  5
20
330
1F
100
AcDbEntity
  8
0
100
AcDbBlockBegin
  2
*MODEL_SPACE
 70
     0
 10
0.0
 20
0.0
 30
0.0
  3
*MODEL_SPACE
  1

  0
ENDBLK
  5
21
330
1F
100
AcDbEntity
  8
0
100
AcDbBlockEnd
  0
BLOCK
  5
1C
330
1B
100
AcDbEntity
 67
     1
  8
0
100
AcDbBlockBegin
  2
*PAPER_SPACE
 70
     0
 10
0.0
 20
0.0
 30
0.0
  3
*PAPER_SPACE
  1

  0
ENDBLK
  5
1D
330
1B
100
AcDbEntity
 67
     1
  8
0
100
AcDbBlockEnd
  0
ENDSEC
  0
SECTION
  2
ENTITIES
  0
POINT
  5
6F
330
1F
100
AcDbEntity
  8
0
 62
     1
100
AcDbPoint
 10
480.0
 20
135.0
 30
0.0
  0
LINE
  5
70
330
1F
100
AcDbEntity
  8
0
  6
CONTINUOUS
 62
     7
100
AcDbLine
 10
458.2499999994537
 20
110.0
 30
0.0
 11
458.2499999994537
 21
135.0
 31
0.0
  0
LINE
  5
71
330
1F
100
AcDbEntity
  8
0
  6
CONTINUOUS
 62
     7
100
AcDbLine
 10
462.2499999994537
 20
110.0
 30
0.0
 11
462.2499999994537
 21
135.0
 31
0.0
  0
LINE
  5
72
330
1F
100
AcDbEntity
  8
0
  6
CONTINUOUS
 62
     7
100
AcDbLine
 10
462.2499999994537
 20
135.0
 30
0.0
 11
462.2499999994537
 21
160.0
 31
0.0
  0
LINE
  5
73
330
1F
100
AcDbEntity
  8
0
  6
CONTINUOUS
 62
     7
100
AcDbLine
 10
458.2499999994537
 20
135.0
 30
0.0
 11
458.2499999994537
 21
160.0
 31
0.0
  0
LINE
  5
74
330
1F
100
AcDbEntity
  8
0
  6
CONTINUOUS
 62
   253
100
AcDbLine
 10
457.7522371135267
 20
113.9522271270064
 30
0.0
 11
457.7522371135267
 21
156.0477728729936
 31
0.0
  0
LINE
  5
75
330
1F
100
AcDbEntity
  8
0
  6
CONTINUOUS
 62
     7
100
AcDbLine
 10
413.5499999994538
 20
114.15
 30
0.0
 11
413.5499999994538
 21
135.0
 31
0.0
  0
LINE
  5
76
330
1F
100
AcDbEntity
  8
0
  6
CONTINUOUS
 62
     7
100
AcDbLine
 10
413.5499999994538
 20
135.0
 30
0.0
 11
413.5499999994538
 21
155.85
 31
0.0
  0
LINE
  5
77
330
1F
100
AcDbEntity
  8
0
  6
CONTINUOUS
 62
     7
100
AcDbLine
 10
464.4499999994538
 20
111.75
 30
0.0
 11
464.4499999994538
 21
135.0
 31
0.0
  0
LINE
  5
78
330
1F
100
AcDbEntity
  8
0
  6
CONTINUOUS
 62
     7
100
AcDbLine
 10
467.4499999994538
 20
111.75
 30
0.0
 11
467.4499999994538
 21
135.0
 31
0.0
  0
LINE
  5
79
330
1F
100
AcDbEntity
  8
0
  6
CONTINUOUS
 62
     7
100
AcDbLine
 10
464.4499999994538
 20
135.0
 30
0.0
 11
464.4499999994538
 21
158.25
 31
0.0
  0
LINE
  5
7A
330
1F
100
AcDbEntity
  8
0
  6
CONTINUOUS
 62
     7
100
AcDbLine
 10
467.4499999994538
 20
135.0
 30
0.0
 11
467.4499999994538
 21
158.25
 31
0.0
  0
LINE
  5
7B
330
1F
100
AcDbEntity
  8
0
  6
CONTINUOUS
 62
   253
100
AcDbLine
 10
463.9540507924348
 20
117.8040181070013
 30
0.0
 11
463.9540507924348
 21
152.1959818929987
 31
0.0
  0
LINE
  5
7C
330
1F
100
AcDbEntity
  8
0
  6
CONTINUOUS
 62
   253
100
AcDbLine
 10
533.1526179611519
 20
111.5846734646039
 30
0.0
 11
533.1526179611454
 21
111.727753321833
 31
0.0
  0
LINE
  5
7D
330
1F
100
AcDbEntity
  8
0
  6
CONTINUOUS
 62
     7
100
AcDbLine
 10
523.4500000005062
 20
111.5000000000026
 30
0.0
 11
523.44999999871
 21
151.6170093578861
 31
0.0
  0
LINE
  5
7E
330
1F
100
AcDbEntity
  8
0
  6
CONTINUOUS
 62
     7
100
AcDbLine
 10
523.4499999987099
 20
151.6170093578861
 30
0.0
 11
523.4499999984017
 21
158.5000000000021
 31
0.0
  0
LINE
  5
7F
330
1F
100
AcDbEntity
  8
0
  6
CONTINUOUS
 62
   253
100
AcDbLine
 10
533.152617960922
 20
116.7164628534323
 30
0.0
 11
533.1526179607584
 21
120.3716102676676
 31
0.0
  0
ARC
  5
80
330
1F
100
AcDbEntity
  8
0
  6
CONTINUOUS
 62
   253
100
AcDbCircle
 10
534.8214991569982
 20
117.8665691025819
 30
0.0
 40
2.234081596392461
100
AcDbArc
 50
232.10461668202
 51
271.7519033000741
  0
LWPOLYLINE
  5
81
330
1F
100
AcDbEntity
  8
0
  6
CONTINUOUS
 62
   253
100
AcDbPolyline
 90
        7
 70
     0
 43
0.0
 10
-533.4492779471842
 20
116.1035802964133
 10
-533.3613247457049
 20
116.1933543645885
 10
-533.2873862822896
 20
116.2898489351416
 10
-533.2289455167383
 20
116.3912335994469
 10
-533.1868178274323
 20
116.4962471422842
 10
-533.1612125468812
 20
116.605261576825
 10
-533.152617960267
 20
116.716462853432
210
0.0
220
0.0
230
-1.0
  0
LINE
  5
82
330
1F
100
AcDbEntity
  8
0
  6
CONTINUOUS
 62
   253
100
AcDbLine
 10
540.6737354231144
 20
115.5536015763894
 30
0.0
 11
534.8897988663181
 21
115.6335317699235
 31
0.0
  0
LINE
  5
83
330
1F
100
AcDbEntity
  8
0
  6
CONTINUOUS
 62
   253
100
AcDbLine
 10
540.6737354238472
 20
112.1102376334619
 30
0.0
 11
540.673735423693
 21
115.5536015763897
 31
0.0
  0
LINE
  5
84
330
1F
100
AcDbEntity
  8
0
  6
CONTINUOUS
 62
     7
100
AcDbLine
 10
534.8897988668706
 20
112.0185440297413
 30
0.0
 11
540.6737354236407
 21
112.1102376334615
 31
0.0
  0
LINE
  5
85
330
1F
100
AcDbEntity
  8
0
  6
CONTINUOUS
 62
   253
100
AcDbLine
 10
533.1526179610297
 20
111.7277533218327
 30
0.0
 11
533.2555258857798
 21
111.8042050557793
 31
0.0
  0
ARC
  5
86
330
1F
100
AcDbEntity
  8
0
  6
CONTINUOUS
 62
   253
100
AcDbCircle
 10
534.8381998973921
 20
106.0743712970827
 30
0.0
 40
5.944396683376128
100
AcDbArc
 50
89.50265090586356
 51
105.4410251904818
  0
LINE
  5
87
330
1F
100
AcDbEntity
  8
0
  6
CONTINUOUS
 62
   253
100
AcDbLine
 10
533.1526179590614
 20
158.2722466790407
 30
0.0
 11
533.152617959055
 21
158.4153265362698
 31
0.0
  0
ARC
  5
88
330
1F
100
AcDbEntity
  8
0
  6
CONTINUOUS
 62
   253
100
AcDbCircle
 10
534.8782033941483
 20
164.4324359240182
 30
0.0
 40
6.4509903740021
100
AcDbArc
 50
256.0448637282179
 51
270.1029875801648
  0
LWPOLYLINE
  5
89
330
1F
100
AcDbEntity
  8
0
  6
CONTINUOUS
 62
   253
100
AcDbPolyline
 90
        3
 70
     0
 43
0.0
 10
-533.3224692615127
 20
158.171847444169
 10
-533.2057915750394
 20
158.2187205856303
 10
-533.1526179589456
 20
158.2722466790409
210
0.0
220
0.0
230
-1.0
  0
LINE
  5
8A
330
1F
100
AcDbEntity
  8
0
  6
CONTINUOUS
 62
     7
100
AcDbLine
 10
540.6737354215909
 20
157.8897623680856
 30
0.0
 11
534.8897988648125
 21
157.9814559712879
 31
0.0
  0
LINE
  5
8B
330
1F
100
AcDbEntity
  8
0
  6
CONTINUOUS
 62
   253
100
AcDbLine
 10
540.6737354219515
 20
154.4463984251576
 30
0.0
 11
540.6737354217973
 21
157.8897623680854
 31
0.0
  0
LINE
  5
8C
330
1F
100
AcDbEntity
  8
0
  6
CONTINUOUS
 62
   253
100
AcDbLine
 10
534.8897988645837
 20
154.3664682311056
 30
0.0
 11
540.6737354213728
 21
154.4463984251577
 31
0.0
  0
LWPOLYLINE
  5
8D
330
1F
100
AcDbEntity
  8
0
  6
CONTINUOUS
 62
   253
100
AcDbPolyline
 90
        7
 70
     0
 43
0.0
 10
-533.1526179586298
 20
153.2835371474415
 10
-533.1611921157161
 20
153.3939730068549
 10
-533.18663697071
 20
153.5026261185399
 10
-533.2285360992173
 20
153.6080853677873
 10
-533.2864789220702
 20
153.7090051269839
 10
-533.3603163205995
 20
153.8053162968388
 10
-533.4491487309281
 20
153.8962138521731
210
0.0
220
0.0
230
-1.0
  0
ARC
  5
8E
330
1F
100
AcDbEntity
  8
0
  6
CONTINUOUS
 62
   253
100
AcDbCircle
 10
534.8233077767385
 20
152.128284714236
 30
0.0
 40
2.239170944780545
100
AcDbArc
 50
88.29837967042478
 51
127.8568671371496
  0
LINE
  5
8F
330
1F
100
AcDbEntity
  8
0
  6
CONTINUOUS
 62
   253
100
AcDbLine
 10
533.1526179594484
 20
149.628389733206
 30
0.0
 11
533.1526179592848
 21
153.2835371474414
 31
0.0
  0
ARC
  5
90
330
1F
100
AcDbEntity
  8
0
  6
CONTINUOUS
 62
   253
100
AcDbCircle
 10
534.9032799464264
 20
149.9906588083605
 30
0.0
 40
1.856489269244181
100
AcDbArc
 50
209.4945057401137
 51
269.5839373304675
  0
LWPOLYLINE
  5
91
330
1F
100
AcDbEntity
  8
0
  6
CONTINUOUS
 62
   253
100
AcDbPolyline
 90
        5
 70
     0
 43
0.0
 10
-533.2873862806141
 20
149.0766347016727
 10
-533.228945515072
 20
149.2112419872947
 10
-533.1868178257753
 20
149.3483333553346
 10
-533.161212545234
 20
149.4881833891858
 10
-533.1526179586298
 20
149.6283897332061
210
0.0
220
0.0
230
-1.0
  0
LINE
  5
92
330
1F
100
AcDbEntity
  8
0
  6
CONTINUOUS
 62
   253
100
AcDbLine
 10
540.6737354213728
 20
147.9246139557393
 30
0.0
 11
534.8897988645837
 21
148.1342184868712
 31
0.0
  0
LINE
  5
93
330
1F
100
AcDbEntity
  8
0
  6
CONTINUOUS
 62
   253
100
AcDbLine
 10
540.6737354226158
 20
139.6115980245362
 30
0.0
 11
540.6737354222435
 21
147.9246139557392
 31
0.0
  0
LINE
  5
94
330
1F
100
AcDbEntity
  8
0
  6
CONTINUOUS
 62
   253
100
AcDbLine
 10
534.8897988648125
 20
139.4068660567107
 30
0.0
 11
540.6737354215909
 21
139.6115980245362
 31
0.0
  0
ARC
  5
95
330
1F
100
AcDbEntity
  8
0
  6
CONTINUOUS
 62
   253
100
AcDbCircle
 10
534.965605401078
 20
137.5954316518581
 30
0.0
 40
1.813019921022473
100
AcDbArc
 50
92.39636702491806
 51
180.3429553487227
  0
LINE
  5
96
330
1F
100
AcDbEntity
  8
0
  6
CONTINUOUS
 62
   253
100
AcDbLine
 10
533.1526179602191
 20
132.4154204775944
 30
0.0
 11
533.1526179599877
 21
137.584579523279
 31
0.0
  0
ARC
  5
97
330
1F
100
AcDbEntity
  8
0
  6
CONTINUOUS
 62
   253
100
AcDbCircle
 10
534.9656106196869
 20
132.4045733238421
 30
0.0
 40
1.81302510953573
100
AcDbArc
 50
179.6572028515862
 51
267.6034747850347
  0
LINE
  5
98
330
1F
100
AcDbEntity
  8
0
  6
CONTINUOUS
 62
   253
100
AcDbLine
 10
540.6737354220039
 20
130.3884019770106
 30
0.0
 11
534.8897988652072
 21
130.5931339443182
 31
0.0
  0
LINE
  5
99
330
1F
100
AcDbEntity
  8
0
  6
CONTINUOUS
 62
   253
100
AcDbLine
 10
540.673735423401
 20
122.0753860458079
 30
0.0
 11
540.6737354230288
 21
130.3884019770107
 31
0.0
  0
LINE
  5
9A
330
1F
100
AcDbEntity
  8
0
  6
CONTINUOUS
 62
   253
100
AcDbLine
 10
534.8897988657598
 20
121.8657815141578
 30
0.0
 11
540.6737354225303
 21
122.0753860458076
 31
0.0
  0
LWPOLYLINE
  5
9B
330
1F
100
AcDbEntity
  8
0
  6
CONTINUOUS
 62
   253
100
AcDbPolyline
 90
        5
 70
     0
 43
0.0
 10
-533.1526179599397
 20
120.3716102676673
 10
-533.1611921170136
 20
120.5108691677658
 10
-533.186636971995
 20
120.6502538367838
 10
-533.2285361004899
 20
120.7878451263094
 10
-533.2864789233308
 20
120.921799925914
210
0.0
220
0.0
230
-1.0
  0
ARC
  5
9C
330
1F
100
AcDbEntity
  8
0
  6
CONTINUOUS
 62
   253
100
AcDbCircle
 10
534.903975353908
 20
120.0081208284331
 30
0.0
 40
1.857714777920275
100
AcDbArc
 50
90.43723656213069
 51
150.5390936922431
  0
LWPOLYLINE
  5
9D
330
1F
100
AcDbEntity
  8
0
  6
CONTINUOUS
 62
   253
100
AcDbPolyline
 90
        9
 70
     0
 43
0.0
 10
533.449999998311
 20
137.5514668382393
 10
533.4442992505179
 20
137.5578916171344
 10
533.4274136639801
 20
137.5640722224017
 10
533.3999849751652
 20
137.5697737602291
 10
533.3630556109877
 20
137.5747795437554
 10
533.3180290713888
 20
137.5788993282515
 10
533.266616589343
 20
137.5819765413683
 10
533.2107720954731
 20
137.5838942336666
 10
533.1526179589457
 20
137.584579523279
  0
LINE
  5
9E
330
1F
100
AcDbEntity
  8
0
  6
CONTINUOUS
 62
     7
100
AcDbLine
 10
533.4499999993396
 20
137.5514668382393
 30
0.0
 11
533.449999999568
 21
132.4485331626607
 31
0.0
  0
LWPOLYLINE
  5
9F
330
1F
100
AcDbEntity
  8
0
  6
CONTINUOUS
 62
   253
100
AcDbPolyline
 90
        9
 70
     0
 43
0.0
 10
533.1526179591772
 20
132.4154204775944
 10
533.2107720957046
 20
132.4161057672119
 10
533.2666165895743
 20
132.4180234595152
 10
533.3180290716198
 20
132.4211006726366
 10
533.3630556112182
 20
132.4252204571368
 10
533.3999849753953
 20
132.4302262406664
 10
533.4274136642098
 20
132.4359277784963
 10
533.444299250747
 20
132.442108383765
 10
533.4499999985395
 20
132.4485331626606
  0
ARC
  5
A0
330
1F
100
AcDbEntity
  8
0
  6
CONTINUOUS
 62
     7
100
AcDbCircle
 10
534.950025097263
 20
137.5514426005299
 30
0.0
 40
1.500025099147857
100
AcDbArc
 50
92.00092580143871
 51
179.999074203184
  0
LWPOLYLINE
  5
A1
330
1F
100
AcDbEntity
  8
0
  6
CONTINUOUS
 62
   253
100
AcDbPolyline
 90
       10
 70
     0
 43
0.0
 10
534.897650753203
 20
139.0505530788328
 10
534.8983582687356
 20
139.0562981422239
 10
534.8986397872061
 20
139.0732510253198
 10
534.8984845792479
 20
139.1007656117345
 10
534.897898560221
 20
139.1377932523954
 10
534.8969040647628
 20
139.1829227321581
 10
534.8955389955595
 20
139.2344340547126
 10
534.8938553787815
 20
139.2903639959054
 10
534.8919173812362
 20
139.3485809270765
 10
534.8897988648126
 20
139.4068660567107
  0
ARC
  5
A2
330
1F
100
AcDbEntity
  8
0
  6
CONTINUOUS
 62
     7
100
AcDbCircle
 10
534.9500235539031
 20
132.4485559098785
 30
0.0
 40
1.500023555536109
100
AcDbArc
 50
180.0008688660752
 51
267.9991311395645
  0
LWPOLYLINE
  5
A3
330
1F
100
AcDbEntity
  8
0
  6
CONTINUOUS
 62
   253
100
AcDbPolyline
 90
       10
 70
     0
 43
0.0
 10
534.8897988652072
 20
130.5931339443183
 10
534.8919173816255
 20
130.6514190739526
 10
534.8938553791656
 20
130.7096360051238
 10
534.8955389959386
 20
130.7655659463166
 10
534.8969040651373
 20
130.8170772688712
 10
534.8978985605914
 20
130.8622067486339
 10
534.8984845796151
 20
130.8992343892949
 10
534.8986397875708
 20
130.9267489757097
 10
534.8983582690988
 20
130.9437018588057
 10
534.8976507535657
 20
130.9494469221968
  0
LINE
  5
A4
330
1F
100
AcDbEntity
  8
0
  6
CONTINUOUS
 62
     7
100
AcDbLine
 10
540.6817071502355
 20
139.2526369324338
 30
0.0
 11
539.852197509075
 21
139.2235696642528
 31
0.0
  0
LWPOLYLINE
  5
A5
330
1F
100
AcDbEntity
  8
0
  6
CONTINUOUS
 62
     7
100
AcDbPolyline
 90
        5
 70
     0
 43
0.0
 10
-542.0534243356905
 20
139.6492834344767
 10
-542.012900648345
 20
139.5415402872925
 10
-541.9307943548822
 20
139.4646343599711
 10
-541.8237821855676
 20
139.4045303431596
 10
-541.7143435011296
 20
139.3626858942614
210
0.0
220
0.0
230
-1.0
  0
ARC
  5
A6
330
1F
100
AcDbEntity
  8
0
  6
CONTINUOUS
 62
     7
100
AcDbCircle
 10
540.8107954563512
 20
142.9412044525836
 30
0.0
 40
3.690825672052179
100
AcDbArc
 50
267.9956452684903
 51
284.1705577602553
  0
LINE
  5
A7
330
1F
100
AcDbEntity
  8
0
  6
CONTINUOUS
 62
     7
100
AcDbLine
 10
542.0534243366991
 20
139.6492834344767
 30
0.0
 11
542.0534243371154
 21
130.3507165671938
 31
0.0
  0
ARC
  5
A8
330
1F
100
AcDbEntity
  8
0
  6
CONTINUOUS
 62
     7
100
AcDbCircle
 10
540.738625618561
 20
126.0660432271642
 30
0.0
 40
4.681665854653039
100
AcDbArc
 50
79.2011344646026
 51
90.6966042506803
  0
LWPOLYLINE
  5
A9
330
1F
100
AcDbEntity
  8
0
  6
CONTINUOUS
 62
     7
100
AcDbPolyline
 90
        6
 70
     0
 43
0.0
 10
-541.615791264964
 20
130.664801277268
 10
-541.7768063979663
 20
130.6150996141016
 10
-541.8917139888853
 20
130.5605427491507
 10
-541.9824108133469
 20
130.4928099662597
 10
-542.0428607298202
 20
130.4055577529236
 10
-542.0534243361068
 20
130.3507165671937
210
0.0
220
0.0
230
-1.0
  0
LINE
  5
AA
330
1F
100
AcDbEntity
  8
0
  6
CONTINUOUS
 62
     7
100
AcDbLine
 10
539.8521975094533
 20
130.7764303372206
 30
0.0
 11
540.6817071506165
 21
130.7473630691138
 31
0.0
  0
LINE
  5
AB
330
1F
100
AcDbEntity
  8
0
  6
CONTINUOUS
 62
     7
100
AcDbLine
 10
542.0534243358775
 20
158.0000000008352
 30
0.0
 11
542.0534243358987
 21
157.5251895350804
 31
0.0
  0
LINE
  5
AC
330
1F
100
AcDbEntity
  8
0
  6
CONTINUOUS
 62
   253
100
AcDbLine
 10
543.5453332942485
 20
156.1262621051143
 30
0.0
 11
543.5453332958633
 21
120.0614768058894
 31
0.0
  0
LINE
  5
AD
330
1F
100
AcDbEntity
  8
0
  6
CONTINUOUS
 62
   253
100
AcDbLine
 10
542.0534243361068
 20
130.3507165671937
 30
0.0
 11
540.6737354220038
 21
130.3884019770106
 31
0.0
  0
LINE
  5
AE
330
1F
100
AcDbEntity
  8
0
  6
CONTINUOUS
 62
   253
100
AcDbLine
 10
540.6737354215909
 20
139.6115980245362
 30
0.0
 11
542.0534243356905
 21
139.6492834344767
 31
0.0
  0
ARC
  5
AF
330
1F
100
AcDbEntity
  8
0
  6
CONTINUOUS
 62
   253
100
AcDbCircle
 10
540.5527440974015
 20
143.8493925672837
 30
0.0
 40
4.077017079361061
100
AcDbArc
 50
68.40256722919895
 51
88.29941596418277
  0
LINE
  5
B0
330
1F
100
AcDbEntity
  8
0
  6
CONTINUOUS
 62
     7
100
AcDbLine
 10
542.0534243360469
 20
154.2152541115984
 30
0.0
 11
542.0534243363413
 21
147.640174424426
 31
0.0
  0
ARC
  5
B1
330
1F
100
AcDbEntity
  8
0
  6
CONTINUOUS
 62
   253
100
AcDbCircle
 10
540.7369409225743
 20
150.5904495001789
 30
0.0
 40
3.856466912528507
100
AcDbArc
 50
70.03961553834637
 51
90.9390902839673
  0
ARC
  5
B2
330
1F
100
AcDbEntity
  8
0
  6
CONTINUOUS
 62
   253
100
AcDbCircle
 10
540.6265031774113
 20
154.9180839249065
 30
0.0
 40
2.972053777196093
100
AcDbArc
 50
61.30722843791693
 51
89.0894100923524
  0
LINE
  5
B3
330
1F
100
AcDbEntity
  8
0
  6
CONTINUOUS
 62
     7
100
AcDbLine
 10
542.0534243379158
 20
112.4748104665905
 30
0.0
 11
542.0534243379371
 21
112.0000000008356
 31
0.0
  0
ARC
  5
B4
330
1F
100
AcDbEntity
  8
0
  6
CONTINUOUS
 62
   253
100
AcDbCircle
 10
540.6262401689621
 20
115.0829114121899
 30
0.0
 40
2.973053177115442
100
AcDbArc
 50
270.9153530865426
 51
298.6880083934498
  0
ARC
  5
B5
330
1F
100
AcDbEntity
  8
0
  6
CONTINUOUS
 62
   253
100
AcDbCircle
 10
540.7374131103088
 20
119.4067320446013
 30
0.0
 40
3.853656608068443
100
AcDbArc
 50
269.0532034513917
 51
289.9680907365566
  0
LINE
  5
B6
330
1F
100
AcDbEntity
  8
0
  6
CONTINUOUS
 62
     7
100
AcDbLine
 10
542.0534243374733
 20
122.3598255772446
 30
0.0
 11
542.0534243377678
 21
115.7847458900725
 31
0.0
  0
ARC
  5
B7
330
1F
100
AcDbEntity
  8
0
  6
CONTINUOUS
 62
   253
100
AcDbCircle
 10
540.552242002164
 20
126.1530428774648
 30
0.0
 40
4.079466372940493
100
AcDbArc
 50
271.7066177332978
 51
291.5913990835836
  0
LINE
  5
B8
330
1F
100
AcDbEntity
  8
0
  6
CONTINUOUS
 62
   253
100
AcDbLine
 10
543.5453332958633
 20
120.0614768058894
 30
0.0
 11
543.5453332961404
 21
113.8737378966901
 31
0.0
  0
LWPOLYLINE
  5
B9
330
1F
100
AcDbEntity
  8
0
  6
CONTINUOUS
 62
   253
100
AcDbPolyline
 90
       10
 70
     0
 43
0.0
 10
540.6737354220038
 20
130.3884019770107
 10
540.6758434597558
 20
130.4460850774055
 10
540.6777747269031
 20
130.5038267179041
 10
540.6794569865906
 20
130.5594671379951
 10
540.6808273158045
 20
130.6109251709309
 10
540.6818344589364
 20
130.6562760874073
 10
540.6824407449404
 20
130.6938235878783
 10
540.6826234963771
 20
130.7221632507146
 10
540.6823758776364
 20
130.7402350630006
 10
540.6817071506164
 20
130.7473630691138
  0
LINE
  5
BA
330
1F
100
AcDbEntity
  8
0
  6
CONTINUOUS
 62
     7
100
AcDbLine
 10
534.8976507535365
 20
130.9494469222334
 30
0.0
 11
539.852197509441
 21
130.7764303372565
 31
0.0
  0
LINE
  5
BB
330
1F
100
AcDbEntity
  8
0
  6
CONTINUOUS
 62
     7
100
AcDbLine
 10
539.8521975090625
 20
139.2235696642171
 30
0.0
 11
534.8976507531737
 21
139.0505530787965
 31
0.0
  0
LWPOLYLINE
  5
BC
330
1F
100
AcDbEntity
  8
0
  6
CONTINUOUS
 62
   253
100
AcDbPolyline
 90
       10
 70
     0
 43
0.0
 10
540.6817071502355
 20
139.2526369324339
 10
540.682375877255
 20
139.2597649385471
 10
540.682623495994
 20
139.2778367508331
 10
540.6824407445548
 20
139.3061764136694
 10
540.6818344585472
 20
139.3437239141404
 10
540.6808273154114
 20
139.3890748306167
 10
540.6794569861929
 20
139.4405328635523
 10
540.6777747265005
 20
139.4961732836431
 10
540.6758434593479
 20
139.5539149241416
 10
540.6737354215909
 20
139.6115980245362
  0
LINE
  5
BD
330
1F
100
AcDbEntity
  8
0
  6
CONTINUOUS
 62
   253
100
AcDbLine
 10
544.0528023236948
 20
115.7676380911302
 30
0.0
 11
544.0528023219725
 21
154.2323619107196
 31
0.0
  0
LINE
  5
BE
330
1F
100
AcDbEntity
  8
0
  6
CONTINUOUS
 62
     7
100
AcDbLine
 10
541.7768063973605
 20
147.8645669041943
 30
0.0
 11
542.0534243355
 21
147.6401744244262
 31
0.0
  0
LWPOLYLINE
  5
BF
330
1F
100
AcDbEntity
  8
0
  6
CONTINUOUS
 62
   253
100
AcDbPolyline
 90
        6
 70
     0
 43
0.0
 10
540.6819018238164
 20
148.0583691180049
 10
540.6809075951107
 20
148.0526376501451
 10
540.6795346963341
 20
148.0355317482494
 10
540.6778362294826
 20
148.0077130470659
 10
540.6758778891157
 20
147.9702575389306
 10
540.6737354213728
 20
147.9246139557395
  0
LWPOLYLINE
  5
C0
330
1F
100
AcDbEntity
  8
0
  6
CONTINUOUS
 62
   253
100
AcDbPolyline
 90
        6
 70
     0
 43
0.0
 10
540.6737354225304
 20
122.0753860458074
 10
540.6758778881034
 20
122.0297425066693
 10
540.6778362267705
 20
121.9922870236882
 10
540.679534692617
 20
121.9644683247447
 10
540.6809075912603
 20
121.947362399829
 10
540.6819018208209
 20
121.9416308831899
  0
LINE
  5
C1
330
1F
100
AcDbEntity
  8
0
  6
CONTINUOUS
 62
     7
100
AcDbLine
 10
542.0534243366128
 20
122.3598255772445
 30
0.0
 11
541.7874010336951
 21
122.1389531921034
 31
0.0
  0
LINE
  5
C2
330
1F
100
AcDbEntity
  8
0
  6
CONTINUOUS
 62
     7
100
AcDbLine
 10
533.444247249166
 20
120.5224965259954
 30
0.0
 11
533.4499999992923
 21
120.5590238325454
 31
0.0
  0
LWPOLYLINE
  5
C3
330
1F
100
AcDbEntity
  8
0
  6
CONTINUOUS
 62
   253
100
AcDbPolyline
 90
        6
 70
     0
 43
0.0
 10
534.8897988657598
 20
121.8657815141578
 10
534.8919133686912
 20
121.8208751886298
 10
534.8938482119715
 20
121.7840658957899
 10
534.8955299426806
 20
121.7567510356617
 10
534.8968947168714
 20
121.7399675688395
 10
534.8978907232939
 20
121.7343526501047
  0
LWPOLYLINE
  5
C4
330
1F
100
AcDbEntity
  8
0
  6
CONTINUOUS
 62
   253
100
AcDbPolyline
 90
        8
 70
     0
 43
0.0
 10
533.1526179599398
 20
120.3716102676673
 10
533.2107346848168
 20
120.3754840859747
 10
533.266546189084
 20
120.3863242630079
 10
533.317934114364
 20
120.4037193534897
 10
533.362948001814
 20
120.4270091165589
 10
533.3998793229352
 20
120.4553095755989
 10
533.4273263277746
 20
120.4875465700886
 10
533.444247249166
 20
120.5224965259954
  0
LINE
  5
C5
330
1F
100
AcDbEntity
  8
0
  6
CONTINUOUS
 62
     7
100
AcDbLine
 10
533.4499999979992
 20
149.4409761683546
 30
0.0
 11
533.444244261004
 21
149.4775128644592
 31
0.0
  0
LWPOLYLINE
  5
C6
330
1F
100
AcDbEntity
  8
0
  6
CONTINUOUS
 62
   253
100
AcDbPolyline
 90
        8
 70
     0
 43
0.0
 10
533.444244261004
 20
149.4775128644592
 10
533.4273213170675
 20
149.512461016152
 10
533.3998732645355
 20
149.5446961207964
 10
533.362941832672
 20
149.5729947673034
 10
533.3179286711312
 20
149.5962829440226
 10
533.2665421534888
 20
149.6136768004452
 10
533.2107325397549
 20
149.6245161917675
 10
533.1526179586298
 20
149.6283897332061
  0
LWPOLYLINE
  5
C7
330
1F
100
AcDbEntity
  8
0
  6
CONTINUOUS
 62
   253
100
AcDbPolyline
 90
        6
 70
     0
 43
0.0
 10
534.8978930080515
 20
148.2656470848474
 10
534.8968974398075
 20
148.2600582576195
 10
534.8955325785058
 20
148.2432871274255
 10
534.8938502979635
 20
148.2159711088791
 10
534.8919145360421
 20
148.1791483925625
 10
534.8897988645836
 20
148.1342184868709
  0
ARC
  5
C8
330
1F
100
AcDbEntity
  8
0
  6
CONTINUOUS
 62
     7
100
AcDbCircle
 10
534.8549275648397
 20
118.0042579237338
 30
0.0
 40
1.878180702203846
100
AcDbArc
 50
231.9400580140763
 51
271.3034260281022
  0
LWPOLYLINE
  5
C9
330
1F
100
AcDbEntity
  8
0
  6
CONTINUOUS
 62
     7
100
AcDbPolyline
 90
        6
 70
     0
 43
0.0
 10
-533.6970563142348
 20
116.5254418712265
 10
-533.6238762203777
 20
116.600186526996
 10
-533.5624286953374
 20
116.6801802828675
 10
-533.4944978677674
 20
116.8071133480472
 10
-533.4572068495874
 20
116.9409558115847
 10
-533.4499999996154
 20
117.0327650324597
210
0.0
220
0.0
230
-1.0
  0
ARC
  5
CA
330
1F
100
AcDbEntity
  8
0
  6
CONTINUOUS
 62
     7
100
AcDbCircle
 10
540.8952522230362
 20
111.5165989908118
 30
0.0
 40
4.498365009553805
100
AcDbArc
 50
77.20188403481859
 51
92.72095115472655
  0
LWPOLYLINE
  5
CB
330
1F
100
AcDbEntity
  8
0
  6
CONTINUOUS
 62
     7
100
AcDbPolyline
 90
        3
 70
     0
 43
0.0
 10
-541.8917139899797
 20
115.903209493945
 10
-541.9940505702285
 20
115.8580628439391
 10
-542.0534243372016
 20
115.7847458900721
210
0.0
220
0.0
230
-1.0
  0
LINE
  5
CC
330
1F
100
AcDbEntity
  8
0
  6
CONTINUOUS
 62
     7
100
AcDbLine
 10
539.8521975107894
 20
116.0265928183336
 30
0.0
 11
540.6817071517073
 21
116.0098924668369
 31
0.0
  0
LINE
  5
CD
330
1F
100
AcDbEntity
  8
0
  6
CONTINUOUS
 62
     7
100
AcDbLine
 10
534.8976507546553
 20
116.1265631990299
 30
0.0
 11
539.8521975107878
 21
116.0265928183341
 31
0.0
  0
LWPOLYLINE
  5
CE
330
1F
100
AcDbEntity
  8
0
  6
CONTINUOUS
 62
     7
100
AcDbPolyline
 90
        6
 70
     0
 43
0.0
 10
-533.4499999980064
 20
152.9672349684404
 10
-533.4660193910137
 20
153.1031966281268
 10
-533.5132663651456
 20
153.2350091237156
 10
-533.590796684621
 20
153.3593286616521
 10
-533.6587974905565
 20
153.4374516015017
 10
-533.7387820358499
 20
153.5107179779844
210
0.0
220
0.0
230
-1.0
  0
ARC
  5
CF
330
1F
100
AcDbEntity
  8
0
  6
CONTINUOUS
 62
     7
100
AcDbCircle
 10
534.872707390714
 20
151.9205060598167
 30
0.0
 40
1.953090027389039
100
AcDbArc
 50
89.26824251989503
 51
125.4913595893604
  0
LINE
  5
D0
330
1F
100
AcDbEntity
  8
0
  6
CONTINUOUS
 62
     7
100
AcDbLine
 10
539.8521975090897
 20
153.9734071831398
 30
0.0
 11
534.8976507529662
 21
153.8734368020003
 31
0.0
  0
LINE
  5
D1
330
1F
100
AcDbEntity
  8
0
  6
CONTINUOUS
 62
     7
100
AcDbLine
 10
540.6817071500067
 20
153.9901075347109
 30
0.0
 11
539.8521975090904
 21
153.9734071831398
 31
0.0
  0
LWPOLYLINE
  5
D2
330
1F
100
AcDbEntity
  8
0
  6
CONTINUOUS
 62
     7
100
AcDbPolyline
 90
        3
 70
     0
 43
0.0
 10
-542.0534243354808
 20
154.2152541115985
 10
-541.9799405752373
 20
154.1338348973844
 10
-541.8788320282823
 20
154.0925976472616
210
0.0
220
0.0
230
-1.0
  0
ARC
  5
D3
330
1F
100
AcDbEntity
  8
0
  6
CONTINUOUS
 62
     7
100
AcDbCircle
 10
540.9299889675007
 20
158.1327682028096
 30
0.0
 40
4.150094128078302
100
AcDbArc
 50
266.5701983426612
 51
283.2165273779833
  0
LINE
  5
D4
330
1F
100
AcDbEntity
  8
0
  6
CONTINUOUS
 62
   253
100
AcDbLine
 10
545.9569307954401
 20
117.2498078480917
 30
0.0
 11
545.9569307952073
 21
122.4487187623173
 31
0.0
  0
LINE
  5
D5
330
1F
100
AcDbEntity
  8
0
  6
CONTINUOUS
 62
   253
100
AcDbLine
 10
545.9569307952074
 20
122.4487187623173
 30
0.0
 11
545.9569307938507
 21
152.7501921539286
 31
0.0
  0
LINE
  5
D6
330
1F
100
AcDbEntity
  8
0
  6
CONTINUOUS
 62
     7
100
AcDbLine
 10
533.4500000001005
 20
120.5590238325457
 30
0.0
 11
533.4500000002621
 21
116.9507048265989
 31
0.0
  0
LWPOLYLINE
  5
D7
330
1F
100
AcDbEntity
  8
0
  6
CONTINUOUS
 62
   253
100
AcDbPolyline
 90
        9
 70
     0
 43
0.0
 10
533.152617960267
 20
116.716462853432
 10
533.210772096794
 20
116.7213106509274
 10
533.266616590663
 20
116.7348765706894
 10
533.3180290727072
 20
116.7566450401372
 10
533.3630556123038
 20
116.7857887489102
 10
533.3999849764789
 20
116.8212000907858
 10
533.4274136652908
 20
116.8615332582377
 10
533.4442992518254
 20
116.9052553898309
 10
533.4499999996153
 20
116.9507048265985
  0
LWPOLYLINE
  5
D8
330
1F
100
AcDbEntity
  8
0
  6
CONTINUOUS
 62
   253
100
AcDbPolyline
 90
        9
 70
     0
 43
0.0
 10
533.4499999979992
 20
153.0492951743016
 10
533.4442992502052
 20
153.0947446110687
 10
533.4274136636667
 20
153.1384667426604
 10
533.3999849748511
 20
153.1787999101098
 10
533.3630556106729
 20
153.2142112519821
 10
533.3180290710736
 20
153.2433549607511
 10
533.2666165890275
 20
153.2651234301943
 10
533.2107720951574
 20
153.2786893499513
 10
533.1526179586298
 20
153.2835371474415
  0
LINE
  5
D9
330
1F
100
AcDbEntity
  8
0
  6
CONTINUOUS
 62
     7
100
AcDbLine
 10
533.4499999986457
 20
153.0492951743015
 30
0.0
 11
533.4499999988072
 21
149.4409761683546
 31
0.0
  0
LINE
  5
DA
330
1F
100
AcDbEntity
  8
0
  6
CONTINUOUS
 62
     7
100
AcDbLine
 10
546.4499999986815
 20
152.2502401921804
 30
0.0
 11
546.4499999999999
 21
122.8022381847747
 31
0.0
  0
LINE
  5
DB
330
1F
100
AcDbEntity
  8
0
  6
CONTINUOUS
 62
     7
100
AcDbLine
 10
546.4499999999999
 20
122.8022381847747
 30
0.0
 11
546.4500000002263
 21
117.7497598098842
 31
0.0
  0
ARC
  5
DC
330
1F
100
AcDbEntity
  8
0
  6
CONTINUOUS
 62
   253
100
AcDbCircle
 10
534.8322926901207
 20
151.9800704860558
 30
0.0
 40
1.927226664247338
100
AcDbArc
 50
88.05655484171578
 51
126.084167552886
  0
LWPOLYLINE
  5
DD
330
1F
100
AcDbEntity
  8
0
  6
CONTINUOUS
 62
   253
100
AcDbPolyline
 90
        6
 70
     0
 43
0.0
 10
533.697208095952
 20
153.5375638502364
 10
533.6231815794497
 20
153.4655976700339
 10
533.5357566019878
 20
153.3494138836737
 10
533.4783847139144
 20
153.2247199652132
 10
533.4517979527137
 20
153.0937081097177
 10
533.4499999979992
 20
153.0492951743016
  0
LWPOLYLINE
  5
DE
330
1F
100
AcDbEntity
  8
0
  6
CONTINUOUS
 62
   253
100
AcDbPolyline
 90
       10
 70
     0
 43
0.0
 10
534.8976507529635
 20
153.9061885870577
 10
534.8983582684953
 20
153.9514614972144
 10
534.8986397869654
 20
154.0030888970018
 10
534.8984845790075
 20
154.0591031382754
 10
534.8978985599814
 20
154.1173693794902
 10
534.8969040645246
 20
154.1756669498031
 10
534.895538995323
 20
154.2317739843412
 10
534.8938553785473
 20
154.2835521049784
 10
534.8919173810044
 20
154.329027919225
 10
534.8897988645837
 20
154.3664682311057
  0
LWPOLYLINE
  5
DF
330
1F
100
AcDbEntity
  8
0
  6
CONTINUOUS
 62
   253
100
AcDbPolyline
 90
        5
 70
     0
 43
0.0
 10
533.4499999996154
 20
116.9507048265985
 10
533.4660786174207
 20
116.817700577349
 10
533.5136548635559
 20
116.6906291205552
 10
533.5916182945252
 20
116.5710935420772
 10
533.6972717273076
 20
116.4623091610872
  0
ARC
  5
E0
330
1F
100
AcDbEntity
  8
0
  6
CONTINUOUS
 62
   253
100
AcDbCircle
 10
534.8306502147053
 20
118.0149199201369
 30
0.0
 40
1.922276505816139
100
AcDbArc
 50
233.8712146853387
 51
271.9974368165554
  0
LWPOLYLINE
  5
E1
330
1F
100
AcDbEntity
  8
0
  6
CONTINUOUS
 62
   253
100
AcDbPolyline
 90
       10
 70
     0
 43
0.0
 10
534.889798866318
 20
115.6335317699234
 10
534.8919173827354
 20
115.6709720818043
 10
534.8938553802742
 20
115.7164478960511
 10
534.8955389970455
 20
115.7682260166884
 10
534.8969040662419
 20
115.8243330512267
 10
534.8978985616936
 20
115.8826306215396
 10
534.8984845807144
 20
115.9408968627545
 10
534.8986397886672
 20
115.9969111040281
 10
534.8983582701925
 20
116.0485385038155
 10
534.8976507546566
 20
116.093811413972
  0
LINE
  5
E2
330
1F
100
AcDbEntity
  8
0
  6
CONTINUOUS
 62
   253
100
AcDbLine
 10
534.8976507529666
 20
153.8734368020003
 30
0.0
 11
534.8976507529636
 21
153.9061885870577
 31
0.0
  0
LINE
  5
E3
330
1F
100
AcDbEntity
  8
0
  6
CONTINUOUS
 62
   253
100
AcDbLine
 10
534.8976507546566
 20
116.0938114139721
 30
0.0
 11
534.8976507546568
 21
116.1265631990294
 31
0.0
  0
LWPOLYLINE
  5
E4
330
1F
100
AcDbEntity
  8
0
  6
CONTINUOUS
 62
   253
100
AcDbPolyline
 90
       10
 70
     0
 43
0.0
 10
540.6737354231143
 20
115.5536015763895
 10
540.6758434608654
 20
115.5902325293767
 10
540.6777747280114
 20
115.6348383417905
 10
540.6794569876972
 20
115.6857505838562
 10
540.6808273169089
 20
115.7410649409578
 10
540.6818344600382
 20
115.7987124423635
 10
540.6824407460396
 20
115.8565368487278
 10
540.6826234974736
 20
115.9123753037758
 10
540.6823758787301
 20
115.9641392334874
 10
540.6817071517073
 20
116.0098924668368
  0
LINE
  5
E5
330
1F
100
AcDbEntity
  8
0
  6
CONTINUOUS
 62
   253
100
AcDbLine
 10
534.8976507546614
 20
116.093811413972
 30
0.0
 11
539.8521975107877
 21
116.0265928183341
 31
0.0
  0
LINE
  5
E6
330
1F
100
AcDbEntity
  8
0
  6
CONTINUOUS
 62
   253
100
AcDbLine
 10
539.8521975090894
 20
153.9734071831398
 30
0.0
 11
534.8976507529736
 21
153.9061885870584
 31
0.0
  0
LWPOLYLINE
  5
E7
330
1F
100
AcDbEntity
  8
0
  6
CONTINUOUS
 62
   253
100
AcDbPolyline
 90
       10
 70
     0
 43
0.0
 10
540.6817071500067
 20
153.9901075347109
 10
540.6823758770255
 20
154.0358607680603
 10
540.6826234957643
 20
154.0876246977719
 10
540.6824407443253
 20
154.14346315282
 10
540.6818344583187
 20
154.2012875591843
 10
540.6808273151843
 20
154.2589350605899
 10
540.6794569859676
 20
154.3142494176914
 10
540.6777747262772
 20
154.365161659757
 10
540.6758434591272
 20
154.4097674721706
 10
540.6737354213728
 20
154.4463984251577
  0
LINE
  5
E8
330
1F
100
AcDbEntity
  8
0
  6
CONTINUOUS
 62
     7
100
AcDbLine
 10
542.0534243377076
 20
112.4748104665903
 30
0.0
 11
542.0360339798252
 21
112.4603716236543
 31
0.0
  0
LWPOLYLINE
  5
E9
330
1F
100
AcDbEntity
  8
0
  6
CONTINUOUS
 62
     7
100
AcDbPolyline
 90
        3
 70
     0
 43
0.0
 10
540.6737354236407
 20
112.1102376334615
 10
540.6754076855135
 20
112.1046701986551
 10
540.6769803148302
 20
112.1060615166478
  0
LINE
  5
EA
330
1F
100
AcDbEntity
  8
0
  6
CONTINUOUS
 62
     7
100
AcDbLine
 10
542.0368717473341
 20
157.5392767088083
 30
0.0
 11
542.0534243357097
 21
157.5251895350805
 31
0.0
  0
LWPOLYLINE
  5
EB
330
1F
100
AcDbEntity
  8
0
  6
CONTINUOUS
 62
     7
100
AcDbPolyline
 90
        3
 70
     0
 43
0.0
 10
540.6769803218522
 20
157.8939384556276
 10
540.6754076883548
 20
157.8953298091874
 10
540.6737354215909
 20
157.8897623680856
  0
LWPOLYLINE
  5
EC
330
1F
100
AcDbEntity
  8
0
  6
CONTINUOUS
 62
     7
100
AcDbPolyline
 90
        3
 70
     0
 43
0.0
 10
534.8897988668707
 20
112.0185440297413
 10
534.8914472146664
 20
112.0134187125936
 10
534.8929985566142
 20
112.0151089176891
  0
LWPOLYLINE
  5
ED
330
1F
100
AcDbEntity
  8
0
  6
CONTINUOUS
 62
   253
100
AcDbPolyline
 90
        5
 70
     0
 43
0.0
 10
533.1526179610297
 20
111.7277533218327
 10
533.2144255772772
 20
111.7346986096955
 10
533.2734635999623
 20
111.7541627439635
 10
533.3271940412944
 20
111.7853089802325
 10
533.3733070812992
 20
111.8267983717735
  0
LWPOLYLINE
  5
EE
330
1F
100
AcDbEntity
  8
0
  6
CONTINUOUS
 62
   253
100
AcDbPolyline
 90
        5
 70
     0
 43
0.0
 10
533.373381831693
 20
158.1731187827978
 10
533.3272617930609
 20
158.2146417156014
 10
533.2735146174556
 20
158.2458143536921
 10
533.2144529130215
 20
158.2652954154875
 10
533.1526179589457
 20
158.2722466790409
  0
LWPOLYLINE
  5
EF
330
1F
100
AcDbEntity
  8
0
  6
CONTINUOUS
 62
     7
100
AcDbPolyline
 90
        3
 70
     0
 43
0.0
 10
534.8929987749356
 20
157.984890329658
 10
534.8914473313039
 20
157.9865814158465
 10
534.8897988648127
 20
157.9814559712879
  0
LINE
  5
F0
330
1F
100
AcDbEntity
  8
0
  6
CONTINUOUS
 62
     7
100
AcDbLine
 10
523.4499999994538
 20
111.5
 30
0.0
 11
523.4499999994538
 21
135.0
 31
0.0
  0
LINE
  5
F1
330
1F
100
AcDbEntity
  8
0
  6
CONTINUOUS
 62
   253
100
AcDbLine
 10
522.2173269874327
 20
158.5
 30
0.0
 11
522.2173269874327
 21
111.5
 31
0.0
  0
LINE
  5
F2
330
1F
100
AcDbEntity
  8
0
  6
CONTINUOUS
 62
     7
100
AcDbLine
 10
523.4499999994538
 20
135.0
 30
0.0
 11
523.4499999994538
 21
151.6170093578864
 31
0.0
  0
LINE
  5
F3
330
1F
100
AcDbEntity
  8
0
  6
CONTINUOUS
 62
     7
100
AcDbLine
 10
523.4499999994538
 20
151.6170093578864
 30
0.0
 11
523.4499999994538
 21
158.5
 31
0.0
  0
LINE
  5
F4
330
1F
100
AcDbEntity
  8
0
  6
CONTINUOUS
 62
   253
100
AcDbLine
 10
521.2514011611437
 20
112.2411809548975
 30
0.0
 11
521.2514011611437
 21
135.0
 31
0.0
  0
LINE
  5
F5
330
1F
100
AcDbEntity
  8
0
  6
CONTINUOUS
 62
   253
100
AcDbLine
 10
521.2514011611437
 20
135.0
 30
0.0
 11
521.2514011611437
 21
157.7588190451025
 31
0.0
  0
LINE
  5
F6
330
1F
100
AcDbEntity
  8
0
  6
CONTINUOUS
 62
   253
100
AcDbLine
 10
520.9716366886463
 20
156.7147238195899
 30
0.0
 11
520.9716366886463
 21
113.2852761804101
 31
0.0
  0
LINE
  5
F7
330
1F
100
AcDbEntity
  8
0
  6
CONTINUOUS
 62
   253
100
AcDbLine
 10
517.10793338349
 20
116.25
 30
0.0
 11
517.10793338349
 21
135.0
 31
0.0
  0
LINE
  5
F8
330
1F
100
AcDbEntity
  8
0
  6
CONTINUOUS
 62
   253
100
AcDbLine
 10
517.10793338349
 20
135.0
 30
0.0
 11
517.10793338349
 21
153.75
 31
0.0
  0
LINE
  5
F9
330
1F
100
AcDbEntity
  8
0
  6
CONTINUOUS
 62
     7
100
AcDbLine
 10
504.4499999994537
 20
118.0
 30
0.0
 11
504.4499999994537
 21
135.0
 31
0.0
  0
LINE
  5
FA
330
1F
100
AcDbEntity
  8
0
  6
CONTINUOUS
 62
     7
100
AcDbLine
 10
505.9499999994538
 20
116.25
 30
0.0
 11
505.9499999994538
 21
153.75
 31
0.0
  0
LINE
  5
FB
330
1F
100
AcDbEntity
  8
0
  6
CONTINUOUS
 62
     7
100
AcDbLine
 10
504.4499999994537
 20
135.0
 30
0.0
 11
504.4499999994537
 21
152.0
 31
0.0
  0
LINE
  5
FC
330
1F
100
AcDbEntity
  8
0
  6
CONTINUOUS
 62
     7
100
AcDbLine
 10
458.2499999994537
 20
110.0
 30
0.0
 11
462.2499999994537
 21
110.0
 31
0.0
  0
LINE
  5
FD
330
1F
100
AcDbEntity
  8
0
  6
CONTINUOUS
 62
     7
100
AcDbLine
 10
462.2499999994537
 20
160.0
 30
0.0
 11
458.2499999994537
 21
160.0
 31
0.0
  0
ARC
  5
FE
330
1F
100
AcDbEntity
  8
0
  6
CONTINUOUS
 62
     7
100
AcDbCircle
 10
457.7499999994537
 20
113.4522321317108
 30
0.0
 40
0.500000000000001
100
AcDbArc
 50
0.0
 51
89.7436447553435
  0
ARC
  5
FF
330
1F
100
AcDbEntity
  8
0
  6
CONTINUOUS
 62
     7
100
AcDbCircle
 10
457.7499999994537
 20
156.5477678682892
 30
0.0
 40
0.5000000000000004
100
AcDbArc
 50
270.2563552446565
 51
0.0
  0
LINE
  5
100
330
1F
100
AcDbEntity
  8
0
  6
CONTINUOUS
 62
     7
100
AcDbLine
 10
457.7522371135267
 20
156.0477728729936
 30
0.0
 11
413.5499999994538
 21
155.85
 31
0.0
  0
LINE
  5
101
330
1F
100
AcDbEntity
  8
0
  6
CONTINUOUS
 62
     7
100
AcDbLine
 10
413.5499999994538
 20
114.15
 30
0.0
 11
457.7522371135267
 21
113.9522271270064
 31
0.0
  0
LINE
  5
102
330
1F
100
AcDbEntity
  8
0
  6
CONTINUOUS
 62
     7
100
AcDbLine
 10
464.4499999994538
 20
111.75
 30
0.0
 11
467.4499999994538
 21
111.75
 31
0.0
  0
LINE
  5
103
330
1F
100
AcDbEntity
  8
0
  6
CONTINUOUS
 62
     7
100
AcDbLine
 10
467.4499999994538
 20
158.25
 30
0.0
 11
464.4499999994538
 21
158.25
 31
0.0
  0
ARC
  5
104
330
1F
100
AcDbEntity
  8
0
  6
CONTINUOUS
 62
     7
100
AcDbCircle
 10
463.9499999994538
 20
117.3040345161944
 30
0.0
 40
0.4999999999999985
100
AcDbArc
 50
0.0
 51
89.5358082389871
  0
ARC
  5
105
330
1F
100
AcDbEntity
  8
0
  6
CONTINUOUS
 62
     7
100
AcDbCircle
 10
463.9499999994538
 20
152.6959654838057
 30
0.0
 40
0.5000000000000004
100
AcDbArc
 50
270.4641917610129
 51
0.0
  0
LINE
  5
106
330
1F
100
AcDbEntity
  8
0
  6
CONTINUOUS
 62
     7
100
AcDbLine
 10
463.9540507924348
 20
152.1959818929987
 30
0.0
 11
462.2499999994537
 21
152.1821759259259
 31
0.0
  0
LINE
  5
107
330
1F
100
AcDbEntity
  8
0
  6
CONTINUOUS
 62
     7
100
AcDbLine
 10
462.2499999994537
 20
117.8178240740741
 30
0.0
 11
463.9540507924348
 21
117.8040181070013
 31
0.0
  0
LINE
  5
108
330
1F
100
AcDbEntity
  8
0
  6
CONTINUOUS
 62
     7
100
AcDbLine
 10
523.4500000005062
 20
111.5000000000024
 30
0.0
 11
533.1526179611519
 21
111.5846734646037
 31
0.0
  0
LINE
  5
109
330
1F
100
AcDbEntity
  8
0
  6
CONTINUOUS
 62
     7
100
AcDbLine
 10
533.152617959055
 20
158.41532653627
 30
0.0
 11
523.4499999984017
 21
158.5000000000024
 31
0.0
  0
ARC
  5
10A
330
1F
100
AcDbEntity
  8
0
  6
CONTINUOUS
 62
     7
100
AcDbCircle
 10
540.647555815416
 20
155.3498049696771
 30
0.0
 40
3.000000000000008
100
AcDbArc
 50
15.00000000257851
 51
62.05506081232662
  0
ARC
  5
10B
330
1F
100
AcDbEntity
  8
0
  6
CONTINUOUS
 62
     7
100
AcDbCircle
 10
540.6475558172383
 20
114.6501950318678
 30
0.0
 40
3.0
100
AcDbArc
 50
297.9449391928044
 51
345.0000000025524
  0
LINE
  5
10C
330
1F
100
AcDbEntity
  8
0
  6
CONTINUOUS
 62
     7
100
AcDbLine
 10
543.5453332961403
 20
113.8737378966899
 30
0.0
 11
544.0528023236948
 21
115.7676380911299
 31
0.0
  0
LINE
  5
10D
330
1F
100
AcDbEntity
  8
0
  6
CONTINUOUS
 62
     7
100
AcDbLine
 10
544.0528023219725
 20
154.2323619107199
 30
0.0
 11
543.5453332942485
 21
156.1262621051145
 31
0.0
  0
LINE
  5
10E
330
1F
100
AcDbEntity
  8
0
  6
CONTINUOUS
 62
     7
100
AcDbLine
 10
541.7115782078772
 20
147.8853746805249
 30
0.0
 11
540.6819018191961
 21
148.0583691183964
 31
0.0
  0
LINE
  5
10F
330
1F
100
AcDbEntity
  8
0
  6
CONTINUOUS
 62
     7
100
AcDbLine
 10
541.8078619477101
 20
147.8541714752029
 30
0.0
 11
541.7115782078772
 21
147.8853746805249
 31
0.0
  0
LINE
  5
110
330
1F
100
AcDbEntity
  8
0
  6
CONTINUOUS
 62
     7
100
AcDbLine
 10
540.6819018203654
 20
121.9416308831515
 30
0.0
 11
541.7873994707523
 21
122.1389549460432
 31
0.0
  0
LWPOLYLINE
  5
111
330
1F
100
AcDbEntity
  8
0
  6
CONTINUOUS
 62
     7
100
AcDbPolyline
 90
        7
 70
     0
 43
0.0
 10
-533.4442992515029
 20
120.5226604052311
 10
-533.454257000262
 20
120.6681879662031
 10
-533.4843117582063
 20
120.8007061368032
 10
-533.5348908499653
 20
120.9328802036008
 10
-533.5993669621005
 20
121.0517769834772
 10
-533.6841653072623
 20
121.1706066954611
 10
-533.7733567359571
 20
121.2697776401953
210
0.0
220
0.0
230
-1.0
  0
ARC
  5
112
330
1F
100
AcDbEntity
  8
0
  6
CONTINUOUS
 62
     7
100
AcDbCircle
 10
534.9356454500218
 20
120.0496734051881
 30
0.0
 40
1.685102192487015
100
AcDbArc
 50
91.28384700512423
 51
133.609828290469
  0
ARC
  5
113
330
1F
100
AcDbEntity
  8
0
  6
CONTINUOUS
 62
     7
100
AcDbCircle
 10
534.9361651337287
 20
149.952239015291
 30
0.0
 40
1.68702584299588
100
AcDbArc
 50
226.7086531663274
 51
268.6999628289921
  0
LWPOLYLINE
  5
114
330
1F
100
AcDbEntity
  8
0
  6
CONTINUOUS
 62
     7
100
AcDbPolyline
 90
        8
 70
     0
 43
0.0
 10
-533.779357287643
 20
148.7242928429485
 10
-533.6783804303407
 20
148.8366224325623
 10
-533.6180473419209
 20
148.919234552086
 10
-533.5459805045898
 20
149.0438694813794
 10
-533.5049047268234
 20
149.1384730689896
 10
-533.4647277297299
 20
149.2745288488374
 10
-533.4451029213283
 20
149.4245925143518
 10
-533.4442992502065
 20
149.4773395956684
210
0.0
220
0.0
230
-1.0
  0
LINE
  5
115
330
1F
100
AcDbEntity
  8
0
  6
CONTINUOUS
 62
     7
100
AcDbLine
 10
534.8978907550256
 20
121.7343526531533
 30
0.0
 11
540.6819008777823
 21
121.9416308116249
 31
0.0
  0
LINE
  5
116
330
1F
100
AcDbEntity
  8
0
  6
CONTINUOUS
 62
     7
100
AcDbLine
 10
540.681900876597
 20
148.0583691899237
 30
0.0
 11
534.8978907538225
 21
148.2656473478773
 31
0.0
  0
ARC
  5
117
330
1F
100
AcDbEntity
  8
0
  6
CONTINUOUS
 62
     7
100
AcDbCircle
 10
545.9846539762962
 20
115.2500000010115
 30
0.0
 40
1.999999999999999
100
AcDbArc
 50
90.79423606481988
 51
165.000000002583
  0
ARC
  5
118
330
1F
100
AcDbEntity
  8
0
  6
CONTINUOUS
 62
     7
100
AcDbCircle
 10
545.9846539745274
 20
154.7500000010113
 30
0.0
 40
2.0
100
AcDbArc
 50
195.0000000025477
 51
269.2057639403108
  0
ARC
  5
119
330
1F
100
AcDbEntity
  8
0
  6
CONTINUOUS
 62
     7
100
AcDbCircle
 10
545.9500000002262
 20
117.7497598098617
 30
0.0
 40
0.4999999999999996
100
AcDbArc
 50
270.7942360648189
 51
0.0000000024995188
  0
ARC
  5
11A
330
1F
100
AcDbEntity
  8
0
  6
CONTINUOUS
 62
     7
100
AcDbCircle
 10
545.9499999986814
 20
152.250240192158
 30
0.0
 40
0.5000000000000004
100
AcDbArc
 50
0.0000000026315114
 51
89.20576394031343
  0
LINE
  5
11B
330
1F
100
AcDbEntity
  8
0
  6
CONTINUOUS
 62
     7
100
AcDbLine
 10
534.4947904400146
 20
112.000000000497
 30
0.0
 11
542.0534243379371
 21
112.0000000008354
 31
0.0
  0
ARC
  5
11C
330
1F
100
AcDbEntity
  8
0
  6
CONTINUOUS
 62
     7
100
AcDbCircle
 10
540.6274328354872
 20
115.0679462643444
 30
0.0
 40
2.962299149833782
100
AcDbArc
 50
270.9583750882782
 51
298.7526404902712
  0
ARC
  5
11D
330
1F
100
AcDbEntity
  8
0
  6
CONTINUOUS
 62
     7
100
AcDbCircle
 10
540.6274534072068
 20
154.932130133855
 30
0.0
 40
2.962222419814439
100
AcDbArc
 50
61.24428343885214
 51
89.04199808155715
  0
LINE
  5
11E
330
1F
100
AcDbEntity
  8
0
  6
CONTINUOUS
 62
     7
100
AcDbLine
 10
542.0534243358775
 20
158.0000000008354
 30
0.0
 11
534.4938021218583
 21
158.0000000004969
 31
0.0
  0
LINE
  5
11F
330
1F
100
AcDbEntity
  8
0
  6
CONTINUOUS
 62
     7
100
AcDbLine
 10
533.3702707643923
 20
111.8281221540637
 30
0.0
 11
534.8929942818097
 21
112.0150943294696
 31
0.0
  0
ARC
  5
120
330
1F
100
AcDbEntity
  8
0
  6
CONTINUOUS
 62
     7
100
AcDbCircle
 10
534.8674832847499
 20
163.9618214758809
 30
0.0
 40
5.976970247776583
100
AcDbArc
 50
255.3729041597362
 51
270.24455145705
  0
ARC
  5
121
330
1F
100
AcDbEntity
  8
0
  6
CONTINUOUS
 62
     7
100
AcDbCircle
 10
533.150000000489
 20
111.8846620415229
 30
0.0
 40
0.3000000000000008
100
AcDbArc
 50
270.5000000025636
 51
353.5248284727886
  0
ARC
  5
122
330
1F
100
AcDbEntity
  8
0
  6
CONTINUOUS
 62
     7
100
AcDbCircle
 10
533.1499999984189
 20
158.1153379593505
 30
0.0
 40
0.2999999999999992
100
AcDbArc
 50
6.474683799294054
 51
89.50000000256665
  0
LINE
  5
123
330
1F
100
AcDbEntity
  8
0
  6
CONTINUOUS
 62
     7
100
AcDbLine
 10
533.4477286315883
 20
111.8507855097283
 30
0.0
 11
533.4635297566522
 21
111.8552311528856
 31
0.0
  0
LINE
  5
124
330
1F
100
AcDbEntity
  8
0
  6
CONTINUOUS
 62
     7
100
AcDbLine
 10
533.4635297566522
 20
111.8552311528856
 30
0.0
 11
533.5453149896676
 21
111.8760498966726
 31
0.0
  0
LINE
  5
125
330
1F
100
AcDbEntity
  8
0
  6
CONTINUOUS
 62
     7
100
AcDbLine
 10
522.2173269874327
 20
111.5
 30
0.0
 11
523.4499999994538
 21
111.5
 31
0.0
  0
LINE
  5
126
330
1F
100
AcDbEntity
  8
0
  6
CONTINUOUS
 62
     7
100
AcDbLine
 10
523.4499999994538
 20
158.5
 30
0.0
 11
522.2173269874326
 21
158.5
 31
0.0
  0
ARC
  5
127
330
1F
100
AcDbEntity
  8
0
  6
CONTINUOUS
 62
     7
100
AcDbCircle
 10
522.2173269874327
 20
157.5
 30
0.0
 40
1.000000000000001
100
AcDbArc
 50
90.0
 51
165.0000000000001
  0
ARC
  5
128
330
1F
100
AcDbEntity
  8
0
  6
CONTINUOUS
 62
     7
100
AcDbCircle
 10
522.2173269874327
 20
112.5
 30
0.0
 40
0.9999999999999959
100
AcDbArc
 50
194.9999999999999
 51
270.0
  0
LINE
  5
129
330
1F
100
AcDbEntity
  8
0
  6
CONTINUOUS
 62
     7
100
AcDbLine
 10
521.2514011611437
 20
157.7588190451025
 30
0.0
 11
520.9716366886463
 21
156.7147238195899
 31
0.0
  0
LINE
  5
12A
330
1F
100
AcDbEntity
  8
0
  6
CONTINUOUS
 62
     7
100
AcDbLine
 10
520.9716366886463
 20
113.2852761804101
 30
0.0
 11
521.2514011611437
 21
112.2411809548975
 31
0.0
  0
LINE
  5
12B
330
1F
100
AcDbEntity
  8
0
  6
CONTINUOUS
 62
     7
100
AcDbLine
 10
523.4502618637907
 20
114.7401618569662
 30
0.0
 11
523.4559854525279
 21
114.7500127599421
 31
0.0
  0
ARC
  5
12C
330
1F
100
AcDbEntity
  8
0
  6
CONTINUOUS
 62
     7
100
AcDbCircle
 10
517.10793338349
 20
112.25
 30
0.0
 40
4.0
100
AcDbArc
 50
15.0
 51
90.0
  0
ARC
  5
12D
330
1F
100
AcDbEntity
  8
0
  6
CONTINUOUS
 62
     7
100
AcDbCircle
 10
517.10793338349
 20
157.75
 30
0.0
 40
4.000000000000004
100
AcDbArc
 50
270.0
 51
345.0
  0
LINE
  5
12E
330
1F
100
AcDbEntity
  8
0
  6
CONTINUOUS
 62
     7
100
AcDbLine
 10
505.9499999994538
 20
153.7500000000001
 30
0.0
 11
504.4499999994537
 21
152.0
 31
0.0
  0
LINE
  5
12F
330
1F
100
AcDbEntity
  8
0
  6
CONTINUOUS
 62
     7
100
AcDbLine
 10
504.4499999994537
 20
118.0
 30
0.0
 11
505.9499999994538
 21
116.2499999999999
 31
0.0
  0
LINE
  5
130
330
1F
100
AcDbEntity
  8
0
  6
CONTINUOUS
 62
     7
100
AcDbLine
 10
517.10793338349
 20
153.75
 30
0.0
 11
505.9499999994538
 21
153.75
 31
0.0
  0
LINE
  5
131
330
1F
100
AcDbEntity
  8
0
  6
CONTINUOUS
 62
     7
100
AcDbLine
 10
505.9499999994538
 20
116.25
 30
0.0
 11
517.10793338349
 21
116.25
 31
0.0
  0
LINE
  5
132
330
1F
100
AcDbEntity
  8
0
  6
CONTINUOUS
 62
     7
100
AcDbLine
 10
467.4499999994538
 20
118.0
 30
0.0
 11
504.4499999994537
 21
118.0
 31
0.0
  0
LINE
  5
133
330
1F
100
AcDbEntity
  8
0
  6
CONTINUOUS
 62
     7
100
AcDbLine
 10
504.4499999994537
 20
152.0
 30
0.0
 11
467.4499999994538
 21
152.0
 31
0.0
  0
CIRCLE
  5
134
330
1F
100
AcDbEntity
  8
0
  6
CONTINUOUS
 62
     7
100
AcDbCircle
 10
595.0
 20
135.0
 30
0.0
 40
24.99999999999999
  0
LINE
  5
135
330
1F
100
AcDbEntity
  8
0
  6
CONTINUOUS
 62
     7
100
AcDbLine
 10
600.1917405084537
 20
149.419391276419
 30
0.0
 11
600.3794674826386
 21
149.8511421105194
 31
0.0
  0
LINE
  5
136
330
1F
100
AcDbEntity
  8
0
  6
CONTINUOUS
 62
     7
100
AcDbLine
 10
599.5224373523394
 20
147.930018262544
 30
0.0
 11
600.1917405084537
 21
149.419391276419
 31
0.0
  0
LINE
  5
137
330
1F
100
AcDbEntity
  8
0
  6
CONTINUOUS
 62
     7
100
AcDbLine
 10
602.3351448237173
 20
148.4561757087468
 30
0.0
 11
602.5054976957675
 21
148.8263555674212
 31
0.0
  0
LINE
  5
138
330
1F
100
AcDbEntity
  8
0
  6
CONTINUOUS
 62
     7
100
AcDbLine
 10
602.5054976957675
 20
148.8263555674212
 30
0.0
 11
602.5333476966509
 21
148.8832188221955
 31
0.0
  0
LINE
  5
139
330
1F
100
AcDbEntity
  8
0
  6
CONTINUOUS
 62
     7
100
AcDbLine
 10
601.665841667603
 20
146.9668026948719
 30
0.0
 11
602.3351448237173
 21
148.4561757087468
 31
0.0
  0
LINE
  5
13A
330
1F
100
AcDbEntity
  8
0
  6
CONTINUOUS
 62
     7
100
AcDbLine
 10
589.90828255496
 20
149.4550139311399
 30
0.0
 11
589.7471736290597
 21
149.8293094598057
 31
0.0
  0
LINE
  5
13B
330
1F
100
AcDbEntity
  8
0
  6
CONTINUOUS
 62
     7
100
AcDbLine
 10
589.7471736290597
 20
149.8293094598057
 30
0.0
 11
589.7235512834924
 21
149.8880549879983
 31
0.0
  0
LINE
  5
13C
330
1F
100
AcDbEntity
  8
0
  6
CONTINUOUS
 62
     7
100
AcDbLine
 10
590.5672511767382
 20
147.9610396861291
 30
0.0
 11
589.90828255496
 21
149.4550139311399
 31
0.0
  0
LINE
  5
13D
330
1F
100
AcDbEntity
  8
0
  6
CONTINUOUS
 62
     7
100
AcDbLine
 10
587.7582564608805
 20
148.5066711221965
 30
0.0
 11
587.563016926689
 21
148.9350771490819
 31
0.0
  0
LINE
  5
13E
330
1F
100
AcDbEntity
  8
0
  6
CONTINUOUS
 62
     7
100
AcDbLine
 10
588.4172250826587
 20
147.0126968771857
 30
0.0
 11
587.7582564608805
 21
148.5066711221965
 31
0.0
  0
LINE
  5
13F
330
1F
100
AcDbEntity
  8
0
  6
CONTINUOUS
 62
     7
100
AcDbLine
 10
605.6077857617212
 20
146.0610982964157
 30
0.0
 11
605.9548917711722
 21
146.3791668704467
 31
0.0
  0
LINE
  5
140
330
1F
100
AcDbEntity
  8
0
  6
CONTINUOUS
 62
     7
100
AcDbLine
 10
604.3905643237157
 20
144.9727184637728
 30
0.0
 11
605.6077857617212
 21
146.0610982964157
 31
0.0
  0
LINE
  5
141
330
1F
100
AcDbEntity
  8
0
  6
CONTINUOUS
 62
     7
100
AcDbLine
 10
607.1741079712684
 20
144.3093560138936
 30
0.0
 11
607.480298776778
 21
144.5782433869803
 31
0.0
  0
LINE
  5
142
330
1F
100
AcDbEntity
  8
0
  6
CONTINUOUS
 62
     7
100
AcDbLine
 10
607.480298776778
 20
144.5782433869803
 30
0.0
 11
607.5288693879417
 21
144.6188629392171
 31
0.0
  0
LINE
  5
143
330
1F
100
AcDbEntity
  8
0
  6
CONTINUOUS
 62
     7
100
AcDbLine
 10
605.9568865332632
 20
143.2209761812507
 30
0.0
 11
607.1741079712684
 21
144.3093560138936
 31
0.0
  0
LINE
  5
144
330
1F
100
AcDbEntity
  8
0
  6
CONTINUOUS
 62
     7
100
AcDbLine
 10
584.4691008145214
 20
146.1343242558676
 30
0.0
 11
584.1696807802316
 21
146.410731332206
 31
0.0
  0
LINE
  5
145
330
1F
100
AcDbEntity
  8
0
  6
CONTINUOUS
 62
     7
100
AcDbLine
 10
584.1696807802316
 20
146.410731332206
 30
0.0
 11
584.1242067348068
 21
146.4547899691055
 31
0.0
  0
LINE
  5
146
330
1F
100
AcDbEntity
  8
0
  6
CONTINUOUS
 62
     7
100
AcDbLine
 10
585.6787526749332
 20
145.0375375556173
 30
0.0
 11
584.4691008145214
 21
146.1343242558676
 31
0.0
  0
LINE
  5
147
330
1F
100
AcDbEntity
  8
0
  6
CONTINUOUS
 62
     7
100
AcDbLine
 10
582.8906800130568
 20
144.3934755944381
 30
0.0
 11
582.5380713941947
 21
144.7054329015933
 31
0.0
  0
LINE
  5
148
330
1F
100
AcDbEntity
  8
0
  6
CONTINUOUS
 62
     7
100
AcDbLine
 10
584.1003318734686
 20
143.2966888941878
 30
0.0
 11
582.8906800130568
 21
144.3934755944381
 31
0.0
  0
LINE
  5
149
330
1F
100
AcDbEntity
  8
0
  6
CONTINUOUS
 62
     7
100
AcDbLine
 10
609.1896484880789
 20
140.7902409340401
 30
0.0
 11
609.6361157504028
 21
140.9396303019892
 31
0.0
  0
LINE
  5
14A
330
1F
100
AcDbEntity
  8
0
  6
CONTINUOUS
 62
     7
100
AcDbLine
 10
607.6349774129233
 20
140.2910450433135
 30
0.0
 11
609.1896484880789
 21
140.7902409340401
 31
0.0
  0
LINE
  5
14B
330
1F
100
AcDbEntity
  8
0
  6
CONTINUOUS
 62
     7
100
AcDbLine
 10
608.353386177133
 20
138.0536682006687
 30
0.0
 11
609.9080572522886
 21
138.5528640913952
 31
0.0
  0
LINE
  5
14C
330
1F
100
AcDbEntity
  8
0
  6
CONTINUOUS
 62
     7
100
AcDbLine
 10
609.9080572522886
 20
138.5528640913952
 30
0.0
 11
610.2971428193287
 21
138.6739659093223
 31
0.0
  0
LINE
  5
14D
330
1F
100
AcDbEntity
  8
0
  6
CONTINUOUS
 62
     7
100
AcDbLine
 10
610.2971428193287
 20
138.6739659093223
 30
0.0
 11
610.3580357408523
 21
138.6913182694229
 31
0.0
  0
LINE
  5
14E
330
1F
100
AcDbEntity
  8
0
  6
CONTINUOUS
 62
     7
100
AcDbLine
 10
580.8508072134679
 20
140.8884087645968
 30
0.0
 11
580.4648485148626
 21
141.0191340940293
 31
0.0
  0
LINE
  5
14F
330
1F
100
AcDbEntity
  8
0
  6
CONTINUOUS
 62
     7
100
AcDbLine
 10
580.4648485148626
 20
141.0191340940293
 30
0.0
 11
580.4053856451532
 21
141.0408877010555
 31
0.0
  0
LINE
  5
150
330
1F
100
AcDbEntity
  8
0
  6
CONTINUOUS
 62
     7
100
AcDbLine
 10
582.401982516506
 20
140.3784539935746
 30
0.0
 11
580.8508072134679
 21
140.8884087645968
 31
0.0
  0
LINE
  5
151
330
1F
100
AcDbEntity
  8
0
  6
CONTINUOUS
 62
     7
100
AcDbLine
 10
580.116915000694
 20
138.656062799356
 30
0.0
 11
579.6679065307115
 21
138.7976311343303
 31
0.0
  0
LINE
  5
152
330
1F
100
AcDbEntity
  8
0
  6
CONTINUOUS
 62
     7
100
AcDbLine
 10
581.6680903037322
 20
138.1461080283338
 30
0.0
 11
580.116915000694
 21
138.656062799356
 31
0.0
  0
LINE
  5
153
330
1F
100
AcDbEntity
  8
0
  6
CONTINUOUS
 62
     7
100
AcDbLine
 10
610.3179920819382
 20
134.5181983114827
 30
0.0
 11
610.7866223514517
 21
134.4730776944718
 31
0.0
  0
LINE
  5
154
330
1F
100
AcDbEntity
  8
0
  6
CONTINUOUS
 62
     7
100
AcDbLine
 10
608.6946881222701
 20
134.6945018672315
 30
0.0
 11
610.3179920819382
 21
134.5181983114827
 31
0.0
  0
LINE
  5
155
330
1F
100
AcDbEntity
  8
0
  6
CONTINUOUS
 62
     7
100
AcDbLine
 10
608.4409640392718
 20
132.3583532464876
 30
0.0
 11
610.0642679989397
 21
132.1820496907389
 31
0.0
  0
LINE
  5
156
330
1F
100
AcDbEntity
  8
0
  6
CONTINUOUS
 62
     7
100
AcDbLine
 10
610.0642679989397
 20
132.1820496907389
 30
0.0
 11
610.4689718982378
 21
132.1344263490112
 31
0.0
  0
LINE
  5
157
330
1F
100
AcDbEntity
  8
0
  6
CONTINUOUS
 62
     7
100
AcDbLine
 10
610.4689718982378
 20
132.1344263490112
 30
0.0
 11
610.5316581907952
 21
132.1255111362728
 31
0.0
  0
LINE
  5
158
330
1F
100
AcDbEntity
  8
0
  6
CONTINUOUS
 62
     7
100
AcDbLine
 10
579.679037586587
 20
134.6243339034142
 30
0.0
 11
579.27327598898
 21
134.5867738888795
 31
0.0
  0
LINE
  5
159
330
1F
100
AcDbEntity
  8
0
  6
CONTINUOUS
 62
     7
100
AcDbLine
 10
579.27327598898
 20
134.5867738888795
 30
0.0
 11
579.2101059653617
 21
134.5824610697524
 31
0.0
  0
LINE
  5
15A
330
1F
100
AcDbEntity
  8
0
  6
CONTINUOUS
 62
     7
100
AcDbLine
 10
581.3035240303709
 20
134.7893868743235
 30
0.0
 11
579.679037586587
 21
134.6243339034142
 31
0.0
  0
LINE
  5
15B
330
1F
100
AcDbEntity
  8
0
  6
CONTINUOUS
 62
     7
100
AcDbLine
 10
579.9165705932941
 20
132.2864835319786
 30
0.0
 11
579.4487999157648
 21
132.2331844435471
 31
0.0
  0
LINE
  5
15C
330
1F
100
AcDbEntity
  8
0
  6
CONTINUOUS
 62
     7
100
AcDbLine
 10
581.5410570370781
 20
132.4515365028879
 30
0.0
 11
579.9165705932941
 21
132.2864835319786
 31
0.0
  0
LINE
  5
15D
330
1F
100
AcDbEntity
  8
0
  6
CONTINUOUS
 62
     7
100
AcDbLine
 10
608.7977156852413
 20
128.3294635779022
 30
0.0
 11
609.2074785309729
 21
128.0976347405201
 31
0.0
  0
LINE
  5
15E
330
1F
100
AcDbEntity
  8
0
  6
CONTINUOUS
 62
     7
100
AcDbLine
 10
607.3864628429409
 20
129.1507820936697
 30
0.0
 11
608.7977156852413
 21
128.3294635779022
 31
0.0
  0
LINE
  5
15F
330
1F
100
AcDbEntity
  8
0
  6
CONTINUOUS
 62
     7
100
AcDbLine
 10
606.2044771116955
 20
127.1198030145974
 30
0.0
 11
607.615729953996
 21
126.2984844988299
 31
0.0
  0
LINE
  5
160
330
1F
100
AcDbEntity
  8
0
  6
CONTINUOUS
 62
     7
100
AcDbLine
 10
607.615729953996
 20
126.2984844988299
 30
0.0
 11
608.0197158388646
 21
126.0567292415738
 31
0.0
  0
LINE
  5
161
330
1F
100
AcDbEntity
  8
0
  6
CONTINUOUS
 62
     7
100
AcDbLine
 10
581.1564015475593
 20
128.4252151231519
 30
0.0
 11
580.8009969174052
 21
128.225864232385
 31
0.0
  0
LINE
  5
162
330
1F
100
AcDbEntity
  8
0
  6
CONTINUOUS
 62
     7
100
AcDbLine
 10
580.8009969174052
 20
128.225864232385
 30
0.0
 11
580.7450424108433
 21
128.1962307127123
 31
0.0
  0
LINE
  5
163
330
1F
100
AcDbEntity
  8
0
  6
CONTINUOUS
 62
     7
100
AcDbLine
 10
582.5733106679627
 20
129.2367366778634
 30
0.0
 11
581.1564015475593
 21
128.4252151231519
 31
0.0
  0
LINE
  5
164
330
1F
100
AcDbEntity
  8
0
  6
CONTINUOUS
 62
     7
100
AcDbLine
 10
582.324288158968
 20
126.3860959134466
 30
0.0
 11
581.9186370736
 21
126.147145298206
 31
0.0
  0
LINE
  5
165
330
1F
100
AcDbEntity
  8
0
  6
CONTINUOUS
 62
     7
100
AcDbLine
 10
583.7411972793715
 20
127.1976174681581
 30
0.0
 11
582.324288158968
 21
126.3860959134466
 31
0.0
  0
LINE
  5
166
330
1F
100
AcDbEntity
  8
0
  6
CONTINUOUS
 62
     7
100
AcDbLine
 10
604.8916888982544
 20
123.2941251916246
 30
0.0
 11
605.1717326015985
 21
122.9156734459535
 31
0.0
  0
LINE
  5
167
330
1F
100
AcDbEntity
  8
0
  6
CONTINUOUS
 62
     7
100
AcDbLine
 10
603.9365056105848
 20
124.6184452345902
 30
0.0
 11
604.8916888982544
 21
123.2941251916246
 31
0.0
  0
LINE
  5
168
330
1F
100
AcDbEntity
  8
0
  6
CONTINUOUS
 62
     7
100
AcDbLine
 10
602.0306343020283
 20
123.2438104308268
 30
0.0
 11
602.9858175896978
 21
121.9194903878612
 31
0.0
  0
LINE
  5
169
330
1F
100
AcDbEntity
  8
0
  6
CONTINUOUS
 62
     7
100
AcDbLine
 10
602.9858175896978
 20
121.9194903878612
 30
0.0
 11
603.2565463379893
 21
121.5343201080721
 31
0.0
  0
LINE
  5
16A
330
1F
100
AcDbEntity
  8
0
  6
CONTINUOUS
 62
     7
100
AcDbLine
 10
585.9917847839923
 20
124.6806070674055
 30
0.0
 11
585.0274494461024
 21
123.3629363781435
 31
0.0
  0
LINE
  5
16B
330
1F
100
AcDbEntity
  8
0
  6
CONTINUOUS
 62
     7
100
AcDbLine
 10
585.0274494461024
 20
123.3629363781435
 30
0.0
 11
584.7656188860402
 21
123.0127312955972
 31
0.0
  0
LINE
  5
16C
330
1F
100
AcDbEntity
  8
0
  6
CONTINUOUS
 62
     7
100
AcDbLine
 10
584.7656188860402
 20
123.0127312955972
 30
0.0
 11
584.7447905257144
 21
122.9864338757489
 31
0.0
  0
LINE
  5
16D
330
1F
100
AcDbEntity
  8
0
  6
CONTINUOUS
 62
     7
100
AcDbLine
 10
586.9237514571834
 20
121.975130566343
 30
0.0
 11
586.6503607218613
 21
121.5918451564663
 31
0.0
  0
LINE
  5
16E
330
1F
100
AcDbEntity
  8
0
  6
CONTINUOUS
 62
     7
100
AcDbLine
 10
587.8880867950733
 20
123.292801255605
 30
0.0
 11
586.9237514571834
 21
121.975130566343
 31
0.0
  0
LINE
  5
16F
330
1F
100
AcDbEntity
  8
0
  6
CONTINUOUS
 62
     7
100
AcDbLine
 10
599.2752992375869
 20
120.2828389042505
 30
0.0
 11
599.3772016981181
 21
119.8232019952429
 31
0.0
  0
LINE
  5
170
330
1F
100
AcDbEntity
  8
0
  6
CONTINUOUS
 62
     7
100
AcDbLine
 10
598.9413453725541
 20
121.8811735079156
 30
0.0
 11
599.2752992375869
 21
120.2828389042505
 31
0.0
  0
LINE
  5
171
330
1F
100
AcDbEntity
  8
0
  6
CONTINUOUS
 62
     7
100
AcDbLine
 10
596.6411309502331
 20
121.4005698251969
 30
0.0
 11
596.9750848152659
 21
119.8022352215317
 31
0.0
  0
LINE
  5
172
330
1F
100
AcDbEntity
  8
0
  6
CONTINUOUS
 62
     7
100
AcDbLine
 10
596.9750848152659
 20
119.8022352215317
 30
0.0
 11
597.0657449669071
 21
119.3402493597472
 31
0.0
  0
LINE
  5
173
330
1F
100
AcDbEntity
  8
0
  6
CONTINUOUS
 62
     7
100
AcDbLine
 10
590.967861147936
 20
121.9087942437362
 30
0.0
 11
590.6228419331921
 21
120.3128116527594
 31
0.0
  0
LINE
  5
174
330
1F
100
AcDbEntity
  8
0
  6
CONTINUOUS
 62
     7
100
AcDbLine
 10
590.6228419331921
 20
120.3128116527594
 30
0.0
 11
590.5177575243429
 21
119.8538917614916
 31
0.0
  0
LINE
  5
175
330
1F
100
AcDbEntity
  8
0
  6
CONTINUOUS
 62
     7
100
AcDbLine
 10
592.9196714988665
 20
119.8162834715439
 30
0.0
 11
592.8258128554043
 21
119.3549367964374
 31
0.0
  0
LINE
  5
176
330
1F
100
AcDbEntity
  8
0
  6
CONTINUOUS
 62
     7
100
AcDbLine
 10
593.2646907136103
 20
121.4122660625208
 30
0.0
 11
592.9196714988665
 21
119.8162834715439
 31
0.0
  0
LINE
  5
177
330
1F
100
AcDbEntity
  8
0
  6
CONTINUOUS
 62
     7
100
AcDbLine
 10
596.3030809480802
 20
150.32110892724
 30
0.0
 11
596.3043611843765
 21
150.6906843064174
 31
0.0
  0
LINE
  5
178
330
1F
100
AcDbEntity
  8
0
  6
CONTINUOUS
 62
     7
100
AcDbLine
 10
593.8043758293738
 20
150.6992420662177
 30
0.0
 11
593.8030959477021
 21
150.3297690591605
 31
0.0
  0
LINE
  5
179
330
1F
100
AcDbEntity
  8
0
  6
CONTINUOUS
 62
     7
100
AcDbLine
 10
596.2991819339524
 20
149.1955513808039
 30
0.0
 11
596.3028622254722
 21
150.2579686374041
 31
0.0
  0
LINE
  5
17A
330
1F
100
AcDbEntity
  8
0
  6
CONTINUOUS
 62
     7
100
AcDbLine
 10
596.3028622254722
 20
150.2579686374041
 30
0.0
 11
596.3030809480802
 21
150.32110892724
 31
0.0
  0
LINE
  5
17B
330
1F
100
AcDbEntity
  8
0
  6
CONTINUOUS
 62
     7
100
AcDbLine
 10
593.8030959477021
 20
150.3297690591605
 30
0.0
 11
593.8028763149737
 21
150.2663660380609
 31
0.0
  0
LINE
  5
17C
330
1F
100
AcDbEntity
  8
0
  6
CONTINUOUS
 62
     7
100
AcDbLine
 10
593.8028763149737
 20
150.2663660380609
 30
0.0
 11
593.7991969335743
 21
149.2042115127244
 31
0.0
  0
LINE
  5
17D
330
1F
100
AcDbEntity
  8
0
  6
CONTINUOUS
 62
     7
100
AcDbLine
 10
596.2972358812501
 20
148.6337698040044
 30
0.0
 11
596.2991819339524
 21
149.1955513808039
 31
0.0
  0
LINE
  5
17E
330
1F
100
AcDbEntity
  8
0
  6
CONTINUOUS
 62
     7
100
AcDbLine
 10
593.7991969335743
 20
149.2042115127244
 30
0.0
 11
593.7972508808721
 21
148.6424299359249
 31
0.0
  0
ARC
  5
17F
330
1F
100
AcDbEntity
  8
0
  6
CONTINUOUS
 62
     7
100
AcDbCircle
 10
595.0000000000007
 20
135.0000000000067
 30
0.0
 40
13.25
100
AcDbArc
 50
72.81986179884734
 51
82.48950207316324
  0
ARC
  5
180
330
1F
100
AcDbEntity
  8
0
  6
CONTINUOUS
 62
     7
100
AcDbCircle
 10
596.7972328813258
 20
148.6320377776203
 30
0.0
 40
0.5000000000000306
100
AcDbArc
 50
179.8015239994305
 51
262.4895020731632
  0
ARC
  5
181
330
1F
100
AcDbEntity
  8
0
  6
CONTINUOUS
 62
     7
100
AcDbCircle
 10
593.2972538807965
 20
148.644161962309
 30
0.0
 40
0.5000000000000018
100
AcDbArc
 50
277.1135459256971
 51
359.8015239994297
  0
ARC
  5
182
330
1F
100
AcDbEntity
  8
0
  6
CONTINUOUS
 62
     7
100
AcDbCircle
 10
595.0000000000007
 20
135.0000000000067
 30
0.0
 40
13.25000000000001
100
AcDbArc
 50
97.11354592569711
 51
106.783186200013
  0
ARC
  5
183
330
1F
100
AcDbEntity
  8
0
  6
CONTINUOUS
 62
     7
100
AcDbCircle
 10
595.0000000000007
 20
135.0000000000067
 30
0.0
 40
13.25000000000005
100
AcDbArc
 50
48.81986179884727
 51
58.78318620001301
  0
ARC
  5
184
330
1F
100
AcDbEntity
  8
0
  6
CONTINUOUS
 62
     7
100
AcDbCircle
 10
595.0000000000007
 20
135.0000000000067
 30
0.0
 40
13.24999999999999
100
AcDbArc
 50
120.8198617988473
 51
130.783186200013
  0
ARC
  5
185
330
1F
100
AcDbEntity
  8
0
  6
CONTINUOUS
 62
     7
100
AcDbCircle
 10
595.0000000000007
 20
135.0000000000067
 30
0.0
 40
13.25000000000001
100
AcDbArc
 50
24.81986179884733
 51
34.78318620001301
  0
ARC
  5
186
330
1F
100
AcDbEntity
  8
0
  6
CONTINUOUS
 62
     7
100
AcDbCircle
 10
595.0000000000007
 20
135.0000000000067
 30
0.0
 40
13.25000000000004
100
AcDbArc
 50
144.8198617988472
 51
154.783186200013
  0
ARC
  5
187
330
1F
100
AcDbEntity
  8
0
  6
CONTINUOUS
 62
     7
100
AcDbCircle
 10
595.0000000000007
 20
135.0000000000067
 30
0.0
 40
13.25000000000001
100
AcDbArc
 50
0.8198617988473417
 51
10.78318620001301
  0
ARC
  5
188
330
1F
100
AcDbEntity
  8
0
  6
CONTINUOUS
 62
     7
100
AcDbCircle
 10
595.0000000000007
 20
135.0000000000067
 30
0.0
 40
13.24999999999999
100
AcDbArc
 50
168.8198617988473
 51
178.783186200013
  0
LWPOLYLINE
  5
189
330
1F
100
AcDbEntity
  8
0
  6
CONTINUOUS
 62
     7
100
AcDbPolyline
 90
        8
 70
     0
 43
0.0
 10
581.3036343794705
 20
134.794629150451
 10
581.4047456755983
 20
134.8156158796332
 10
581.499388341376
 20
134.8569231208495
 10
581.5835252604608
 20
134.9167888554881
 10
581.6535674539471
 20
134.9926594262349
 10
581.7065271733212
 20
135.0812984669271
 10
581.740145347087
 20
135.1789249543144
 10
581.7529879446453
 20
135.2813744929366
  0
ARC
  5
18A
330
1F
100
AcDbEntity
  8
0
  6
CONTINUOUS
 62
     7
100
AcDbCircle
 10
595.0000000000007
 20
135.0000000000067
 30
0.0
 40
13.25000000000007
100
AcDbArc
 50
336.8198617988473
 51
346.7831862000131
  0
ARC
  5
18B
330
1F
100
AcDbEntity
  8
0
  6
CONTINUOUS
 62
     7
100
AcDbCircle
 10
595.0000000000007
 20
135.0000000000067
 30
0.0
 40
13.24999999999995
100
AcDbArc
 50
192.8198617988473
 51
202.783186200013
  0
LWPOLYLINE
  5
18C
330
1F
100
AcDbEntity
  8
0
  6
CONTINUOUS
 62
     7
100
AcDbPolyline
 90
        8
 70
     0
 43
0.0
 10
582.5712792510869
 20
129.2415706184295
 10
582.6551129446042
 20
129.3018686187088
 10
582.7247721533976
 20
129.3780993014599
 10
582.7772854657053
 20
129.4670109394347
 10
582.8104128521543
 20
129.5648108813615
 10
582.82274121737
 20
129.6673273328321
 10
582.8137446775528
 20
129.7701873100743
 10
582.7838069927926
 20
129.8690031757395
  0
ARC
  5
18D
330
1F
100
AcDbEntity
  8
0
  6
CONTINUOUS
 62
     7
100
AcDbCircle
 10
595.0000000000007
 20
135.0000000000067
 30
0.0
 40
13.24999999999999
100
AcDbArc
 50
312.8198617988472
 51
322.7831862000131
  0
ARC
  5
18E
330
1F
100
AcDbEntity
  8
0
  6
CONTINUOUS
 62
     7
100
AcDbCircle
 10
595.0000000000007
 20
135.0000000000067
 30
0.0
 40
13.24999999999998
100
AcDbArc
 50
216.8198617988474
 51
226.783186200013
  0
LWPOLYLINE
  5
18F
330
1F
100
AcDbEntity
  8
0
  6
CONTINUOUS
 62
     7
100
AcDbPolyline
 90
        8
 70
     0
 43
0.0
 10
585.9879628515739
 20
124.6841968401715
 10
586.0400233352664
 20
124.7733800395094
 10
586.072654377041
 20
124.8713531862136
 10
586.0844640538053
 20
124.9739370975819
 10
586.0749486071469
 20
125.0767559122449
 10
586.0445139318587
 20
125.1754237487021
 10
585.9944582619239
 20
125.2657317912803
 10
585.9269167925155
 20
125.3438278231009
  0
ARC
  5
190
330
1F
100
AcDbEntity
  8
0
  6
CONTINUOUS
 62
     7
100
AcDbCircle
 10
595.0000000000007
 20
135.0000000000067
 30
0.0
 40
13.25000000000001
100
AcDbArc
 50
288.8198617988473
 51
298.7831862000132
  0
ARC
  5
191
330
1F
100
AcDbEntity
  8
0
  6
CONTINUOUS
 62
     7
100
AcDbCircle
 10
595.0000000000007
 20
135.0000000000067
 30
0.0
 40
13.24999999999999
100
AcDbArc
 50
240.8198617988472
 51
250.783186200013
  0
ARC
  5
192
330
1F
100
AcDbEntity
  8
0
  6
CONTINUOUS
 62
     7
100
AcDbCircle
 10
595.0000000000007
 20
135.0000000000067
 30
0.0
 40
13.24999999999999
100
AcDbArc
 50
264.8198617988473
 51
274.783186200013
  0
ARC
  5
193
330
1F
100
AcDbEntity
  8
0
  6
CONTINUOUS
 62
     7
100
AcDbCircle
 10
595.0000000000229
 20
135.0000000002254
 30
0.0
 40
13.25000000061561
100
AcDbArc
 50
72.79865203373771
 51
72.81986179865942
  0
LWPOLYLINE
  5
194
330
1F
100
AcDbEntity
  8
0
  6
CONTINUOUS
 62
     7
100
AcDbPolyline
 90
       38
 70
     0
 43
0.0
 10
-599.5224373523394
 20
147.930018262544
 10
-599.513567601688
 20
147.9113253213552
 10
-599.5038973289535
 20
147.892952770453
 10
-599.493453870695
 20
147.8749668949664
 10
-599.4821260358376
 20
147.8572132877726
 10
-599.4700384341468
 20
147.8399222324633
 10
-599.457065285328
 20
147.8229475699007
 10
-599.4433530529926
 20
147.8065131440341
 10
-599.4288956872614
 20
147.7906235101935
 10
-599.4142715142389
 20
147.7758558831556
 10
-599.3990464907664
 20
147.761708518975
 10
-599.3831339009155
 20
147.7481142481867
 10
-599.3666665813204
 20
147.7351975106528
 10
-599.353798339774
 20
147.7258485959144
 10
-599.3406393206558
 20
147.716913604836
 10
-599.327147370132
 20
147.7083679610195
 10
-599.3133894568598
 20
147.7002574380943
 10
-599.2944879754975
 20
147.6900485490163
 10
-599.2805559820368
 20
147.6831771796826
 10
-599.2664173213367
 20
147.6767417749444
 10
-599.2520294803298
 20
147.6707263281713
 10
-599.237461105617
 20
147.6651623341767
 10
-599.2175236150373
 20
147.6583740086024
 10
-599.197281796025
 20
147.6524213941586
 10
-599.1765461866001
 20
147.6472689244893
 10
-599.1555709110347
 20
147.6429998808914
 10
-599.1343540918431
 20
147.6396215932836
 10
-599.1189307755552
 20
147.637748044198
 10
-599.1034567154572
 20
147.6363543666161
 10
-599.0878864883995
 20
147.6354395277244
 10
-599.0722953093232
 20
147.6350105320544
 10
-599.0512315458757
 20
147.635203262449
 10
-599.030157187158
 20
147.6362854924093
 10
-599.0088816356567
 20
147.6382863791293
 10
-598.9876723169456
 20
147.6412004137113
 10
-598.966529886628
 20
147.6450351461913
 10
-598.9423564880077
 20
147.6505857929404
 10
-598.9184294465413
 20
147.6573461149117
210
0.0
220
0.0
230
-1.0
  0
ARC
  5
195
330
1F
100
AcDbEntity
  8
0
  6
CONTINUOUS
 62
     7
100
AcDbCircle
 10
595.0000000000229
 20
135.0000000002254
 30
0.0
 40
13.25000000118358
100
AcDbArc
 50
58.78318619960481
 51
58.80439596452878
  0
LWPOLYLINE
  5
196
330
1F
100
AcDbEntity
  8
0
  6
CONTINUOUS
 62
     7
100
AcDbPolyline
 90
       38
 70
     0
 43
0.0
 10
-601.8629882959721
 20
146.3341030368321
 10
-601.8455088649002
 20
146.3451877874708
 10
-601.8284450667729
 20
146.3570282613248
 10
-601.8118593776311
 20
146.3695892513157
 10
-601.7956120592836
 20
146.3829999642996
 10
-601.7799165544372
 20
146.3971086463754
 10
-601.7646430930498
 20
146.4120579889713
 10
-601.7499960734384
 20
146.4276753279204
 10
-601.7359807715685
 20
146.4439661304238
 10
-601.7262898828028
 20
146.4561123487956
 10
-601.7169809058266
 20
146.4685536868249
 10
-601.7080291202243
 20
146.4813282859025
 10
-601.6994799893899
 20
146.4943757840271
 10
-601.6885875927583
 20
146.5124085562085
 10
-601.6784470118531
 20
146.530917346496
 10
-601.6689830195164
 20
146.5500797980555
 10
-601.6603313728234
 20
146.5696652804561
 10
-601.6524988695561
 20
146.5896772106677
 10
-601.6473754868118
 20
146.6043455501911
 10
-601.6427101733586
 20
146.6191659443591
 10
-601.6384922300911
 20
146.6341825708494
 10
-601.6347445785552
 20
146.6493234170029
 10
-601.6304361749771
 20
146.6699438247173
 10
-601.6269947874372
 20
146.6907645346685
 10
-601.6244082403542
 20
146.7119780948645
 10
-601.622728294437
 20
146.7333219140731
 10
-601.6219624969489
 20
146.754796966379
 10
-601.622100586056
 20
146.7755827540376
 10
-601.6231021489237
 20
146.7963448565509
 10
-601.6249822974354
 20
146.8171919697539
 10
-601.6277330218716
 20
146.837942164809
 10
-601.6304032807077
 20
146.8536245505848
 10
-601.6335710012636
 20
146.8692140679183
 10
-601.6372491793952
 20
146.8847577864746
 10
-601.6414219073765
 20
146.9001761041742
 10
-601.6478076913706
 20
146.9206907292026
 10
-601.6562423878328
 20
146.9439417880359
 10
-601.665841667603
 20
146.9668026948719
210
0.0
220
0.0
230
-1.0
  0
ARC
  5
197
330
1F
100
AcDbEntity
  8
0
  6
CONTINUOUS
 62
     7
100
AcDbCircle
 10
595.0000000000229
 20
135.0000000002254
 30
0.0
 40
13.25000000045528
100
AcDbArc
 50
106.7831862003779
 51
106.8043959652991
  0
LWPOLYLINE
  5
198
330
1F
100
AcDbEntity
  8
0
  6
CONTINUOUS
 62
     7
100
AcDbPolyline
 90
       38
 70
     0
 43
0.0
 10
-591.1693554966739
 20
147.6841894770347
 10
-591.1494218992831
 20
147.6786168741976
 10
-591.1292048028196
 20
147.6738588243658
 10
-591.1087721758727
 20
147.6699381981522
 10
-591.087934495935
 20
147.6668376061049
 10
-591.0669473591812
 20
147.6646141238875
 10
-591.0456178921074
 20
147.6632667927661
 10
-591.0242111783657
 20
147.6628319754139
 10
-591.002726685344
 20
147.6633172509089
 10
-590.9872158157359
 20
147.6642429235326
 10
-590.9717411783487
 20
147.6656498855217
 10
-590.9562578874187
 20
147.6675452875993
 10
-590.9408412216029
 20
147.669922525589
 10
-590.9201518243043
 20
147.6738941771792
 10
-590.8996117395266
 20
147.6787430550202
 10
-590.8790386158757
 20
147.6845321209182
 10
-590.8586946843776
 20
147.6912079401609
 10
-590.8385819543323
 20
147.6987778508842
 10
-590.824253041515
 20
147.7047854704284
 10
-590.8101176382578
 20
147.7112352462127
 10
-590.7961357550491
 20
147.7181487878881
 10
-590.7823762452322
 20
147.725494943609
 10
-590.7641694112414
 20
147.7360909217012
 10
-590.746393870647
 20
147.7474652466329
 10
-590.7288983853393
 20
147.7597377099494
 10
-590.7119127333084
 20
147.772771069523
 10
-590.6954412407729
 20
147.7865715858532
 10
-590.6800867898789
 20
147.8005826127583
 10
-590.665327717199
 20
147.8152194772649
 10
-590.6510933578097
 20
147.8305661414008
 10
-590.6375135516367
 20
147.8464949186312
 10
-590.6276460197105
 20
147.8589728719712
 10
-590.6181803693489
 20
147.8717583702971
 10
-590.6090903168986
 20
147.8848925671655
 10
-590.6004243738868
 20
147.8983103766442
 10
-590.5894519599664
 20
147.9167829024606
 10
-590.5778169694656
 20
147.9386090985865
 10
-590.5672511767382
 20
147.9610396861291
210
0.0
220
0.0
230
-1.0
  0
ARC
  5
199
330
1F
100
AcDbEntity
  8
0
  6
CONTINUOUS
 62
     7
100
AcDbCircle
 10
595.0000000000229
 20
135.0000000002254
 30
0.0
 40
13.25000000134392
100
AcDbArc
 50
120.7986520344899
 51
120.8198617994142
  0
LWPOLYLINE
  5
19A
330
1F
100
AcDbEntity
  8
0
  6
CONTINUOUS
 62
     7
100
AcDbPolyline
 90
       38
 70
     0
 43
0.0
 10
-588.4172250826587
 20
147.0126968771857
 10
-588.4251816235446
 20
146.9935973488136
 10
-588.4323644142197
 20
146.9741172995444
 10
-588.4387424869625
 20
146.9543213978095
 10
-588.4443561872752
 20
146.9340236940046
 10
-588.4491177613066
 20
146.913470881032
 10
-588.4530516630188
 20
146.8924716863639
 10
-588.456089547224
 20
146.8712847345128
 10
-588.4582239804932
 20
146.8499085776529
 10
-588.459412984349
 20
146.8291592279101
 10
-588.459738995646
 20
146.8083783961262
 10
-588.4591939067427
 20
146.7874566946629
 10
-588.4577741258574
 20
146.7665761068982
 10
-588.4561111892003
 20
146.7507574947922
 10
-588.4539460791443
 20
146.7349997618282
 10
-588.451268853092
 20
146.7192551367821
 10
-588.4480903053857
 20
146.7036040156017
 10
-588.4430294287929
 20
146.6827263973944
 10
-588.438813528125
 20
146.6677750650167
 10
-588.4341353552487
 20
146.6529618662036
 10
-588.4289783586138
 20
146.6382444970628
 10
-588.4233650665547
 20
146.6236950461038
 10
-588.415068990418
 20
146.6043363267389
 10
-588.4059482244106
 20
146.5853106471695
 10
-588.3959024246761
 20
146.5664534111683
 10
-588.3850397434779
 20
146.5480091959376
 10
-588.373353477342
 20
146.5299815109068
 10
-588.3644255826703
 20
146.51726610418
 10
-588.3551071197376
 20
146.5048340841637
 10
-588.3453684620538
 20
146.4926510037918
 10
-588.3352547328568
 20
146.4807774456054
 10
-588.3210170974536
 20
146.4652529806002
 10
-588.3061113454313
 20
146.4503158331584
 10
-588.2903882741423
 20
146.4358438716953
 10
-588.2740309201317
 20
146.42203214597
 10
-588.2570341113138
 20
146.408886195151
 10
-588.2367340160276
 20
146.3946359666771
 10
-588.2156998019713
 20
146.3813782479621
210
0.0
220
0.0
230
-1.0
  0
LWPOLYLINE
  5
19B
330
1F
100
AcDbEntity
  8
0
  6
CONTINUOUS
 62
     7
100
AcDbPolyline
 90
       38
 70
     0
 43
0.0
 10
-604.3905643237157
 20
144.9727184637728
 10
-604.3748582991495
 20
144.9592492648646
 10
-604.35855127574
 20
144.9463983587123
 10
-604.3416951872678
 20
144.9342151810139
 10
-604.3241256525964
 20
144.9226038993285
 10
-604.3060501731861
 20
144.9117242048273
 10
-604.2872943947434
 20
144.9014937339489
 10
-604.2680831639715
 20
144.8920574061987
 10
-604.2484128068501
 20
144.8834218437852
 10
-604.229046424966
 20
144.8758791322276
 10
-604.2093834225151
 20
144.8691474468807
 10
-604.1893172602719
 20
144.8632006959308
 10
-604.1690199047923
 20
144.8580985313216
 10
-604.1534616349825
 20
144.8547918580973
 10
-604.137806084563
 20
144.8519815928459
 10
-604.1220047479684
 20
144.8496624294193
 10
-604.1061374219238
 20
144.847848945502
 10
-604.0847177302094
 20
144.8462105863355
 10
-604.0691953831714
 20
144.8455999303445
 10
-604.0536615589915
 20
144.8454716069686
 10
-604.0380709095674
 20
144.8458282850457
 10
-604.0224989567836
 20
144.8466708154313
 10
-604.0015240920717
 20
144.8485786794276
 10
-603.9806111238422
 20
144.8513737850562
 10
-603.9595725038239
 20
144.8551007019637
 10
-603.9386742596461
 20
144.8597321497475
 10
-603.917917657487
 20
144.8652755882635
 10
-603.9030657158847
 20
144.8698372438987
 10
-603.8883625988298
 20
144.8748579233333
 10
-603.8737663901268
 20
144.8803551583048
 10
-603.8593486510437
 20
144.8863047550983
 10
-603.8401843361391
 20
144.8950482275099
 10
-603.821372134041
 20
144.9046086076941
 10
-603.8027497845558
 20
144.9150900550655
 10
-603.7845593524312
 20
144.9263787652159
 10
-603.7668045074671
 20
144.9384813687881
 10
-603.7469786603874
 20
144.9533843439193
 10
-603.7278698910055
 20
144.9692922098732
210
0.0
220
0.0
230
-1.0
  0
LWPOLYLINE
  5
19C
330
1F
100
AcDbEntity
  8
0
  6
CONTINUOUS
 62
     7
100
AcDbPolyline
 90
       38
 70
     0
 43
0.0
 10
-605.8796468051131
 20
142.5627895247799
 10
-605.8681871245193
 20
142.580025473492
 10
-605.8574145238377
 20
142.5977827565661
 10
-605.847371757763
 20
142.6160037994404
 10
-605.837983722268
 20
142.6348634750944
 10
-605.829383683096
 20
142.6541363344706
 10
-605.8215111272467
 20
142.6740055149066
 10
-605.8144825530305
 20
142.6942301435519
 10
-605.808305003993
 20
142.7148130690144
 10
-605.8043922486673
 20
142.7298508312005
 10
-605.8009484231009
 20
142.7450028610899
 10
-605.7979664575714
 20
142.7603140572759
 10
-605.7954633335187
 20
142.7757107846979
 10
-605.7928472232753
 20
142.7966148786541
 10
-605.7911115448806
 20
142.8176480457839
 10
-605.7902598288906
 20
142.8390031688365
 10
-605.7903222897177
 20
142.8604143390523
 10
-605.7913065272515
 20
142.8818819130817
 10
-605.7925922353951
 20
142.897365975523
 10
-605.7943582568545
 20
142.9128026332283
 10
-605.7966127861906
 20
142.928236596233
 10
-605.7993474730912
 20
142.9435927546666
 10
-605.8037986259853
 20
142.9641828200772
 10
-605.8091233077022
 20
142.9846032234935
 10
-605.8153887116255
 20
143.0050348185287
 10
-605.822535318039
 20
143.0252166631784
 10
-605.8305704179069
 20
143.0451465775647
 10
-605.8391509100794
 20
143.0640791735638
 10
-605.8485105911673
 20
143.0826389256873
 10
-605.8587074771417
 20
143.1009189859647
 10
-605.8696602536356
 20
143.1187564119794
 10
-605.8784782574119
 20
143.1319968921547
 10
-605.8877129420842
 20
143.1449501968764
 10
-605.8973953249152
 20
143.1576540405325
 10
-605.9074784963916
 20
143.1700421732598
 10
-605.9216562500709
 20
143.1861858834247
 10
-605.9388187863283
 20
143.2039960824829
 10
-605.9568865332632
 20
143.2209761812507
210
0.0
220
0.0
230
-1.0
  0
LWPOLYLINE
  5
19D
330
1F
100
AcDbEntity
  8
0
  6
CONTINUOUS
 62
     7
100
AcDbPolyline
 90
       38
 70
     0
 43
0.0
 10
-586.3414074661193
 20
145.0295201945239
 10
-586.3254638005398
 20
145.0163216440276
 10
-586.308929837115
 20
145.0037519152683
 10
-586.2918583659248
 20
144.9918595469061
 10
-586.2740833224708
 20
144.980551567138
 10
-586.2558149907135
 20
144.969984077507
 10
-586.2368775618917
 20
144.9600777534449
 10
-586.2174984119401
 20
144.9509736331414
 10
-586.1976739716044
 20
144.9426784237957
 10
-586.1831275821544
 20
144.9372152287808
 10
-586.1684185344643
 20
144.9322064504513
 10
-586.1535029148874
 20
144.927640364633
 10
-586.1384521800597
 20
144.923541556699
 10
-586.117936058901
 20
144.918754704964
 10
-586.0971995414569
 20
144.9148299701594
 10
-586.0760504325664
 20
144.9117507017631
 10
-586.054750026047
 20
144.9095747437038
 10
-586.0332971727975
 20
144.9083096169582
 10
-586.0177635405739
 20
144.9079697566058
 10
-586.0022268469853
 20
144.9081125335069
 10
-585.986641770358
 20
144.9087414238606
 10
-585.9710838819478
 20
144.9098559742172
 10
-585.950141338898
 20
144.9121304953342
 10
-585.9292762197911
 20
144.9152914944991
 10
-585.9083016381273
 20
144.9193868926529
 10
-585.8874833279484
 20
144.9243847720016
 10
-585.8668226950771
 20
144.9302926114279
 10
-585.8470969081588
 20
144.9368471036011
 10
-585.8276604752186
 20
144.9442154890085
 10
-585.808414690203
 20
144.9524457287655
 10
-585.7895301025791
 20
144.9614739860737
 10
-585.7754404227558
 20
144.9688596768571
 10
-585.761592790195
 20
144.9766897839237
 10
-585.7479464549256
 20
144.9849912123935
 10
-585.7345722072662
 20
144.9937242347248
 10
-585.71703495523
 20
145.006136843971
 10
-585.6975283487652
 20
145.021343689321
 10
-585.6787526749332
 20
145.0375375556173
210
0.0
220
0.0
230
-1.0
  0
LWPOLYLINE
  5
19E
330
1F
100
AcDbEntity
  8
0
  6
CONTINUOUS
 62
     7
100
AcDbPolyline
 90
       38
 70
     0
 43
0.0
 10
-584.1003318734686
 20
143.2966888941878
 10
-584.1153690133078
 20
143.2824768235309
 10
-584.1298540689492
 20
143.2676024171735
 10
-584.1437324469499
 20
143.2521121569602
 10
-584.1571166372789
 20
143.2358525794691
 10
-584.1698261337609
 20
143.2190133571734
 10
-584.1819610737474
 20
143.2014297002468
 10
-584.1933538287369
 20
143.1833100754458
 10
-584.2039981968378
 20
143.1646501366674
 10
-584.2135239267697
 20
143.1461782738976
 10
-584.2222740786693
 20
143.127326640156
 10
-584.2302857377982
 20
143.1079920071873
 10
-584.2374816035925
 20
143.0883391641708
 10
-584.2423964445492
 20
143.0732117656616
 10
-584.2468277655005
 20
143.0579357306935
 10
-584.250785913739
 20
143.042463374063
 10
-584.2542480504094
 20
143.0268725315777
 10
-584.2581164019314
 20
143.0057414343418
 10
-584.2603462397672
 20
142.9903679512772
 10
-584.2620975869444
 20
142.9749326364569
 10
-584.2633725294129
 20
142.9593901112302
 10
-584.2641623267913
 20
142.9438153948267
 10
-584.2644573846493
 20
142.9227560065266
 10
-584.2638635913332
 20
142.9016654336293
 10
-584.2623562254862
 20
142.8803524964756
 10
-584.2599346106068
 20
142.8590846169465
 10
-584.2565911953534
 20
142.8378622745166
 10
-584.2536069795773
 20
142.8226148705508
 10
-584.2501506981808
 20
142.8074674948036
 10
-584.2462092969031
 20
142.7923766281354
 10
-584.2417993567335
 20
142.7774159687256
 10
-584.2351069983652
 20
142.7574426962086
 10
-584.2275654015199
 20
142.7377342174729
 10
-584.219087938188
 20
142.7181182735801
 10
-584.2097624866891
 20
142.6988474990218
 10
-584.1995820691053
 20
142.6799248504031
 10
-584.1868330993593
 20
142.6586498262995
 10
-584.1730097886581
 20
142.6379829119738
210
0.0
220
0.0
230
-1.0
  0
LWPOLYLINE
  5
19F
330
1F
100
AcDbEntity
  8
0
  6
CONTINUOUS
 62
     7
100
AcDbPolyline
 90
       38
 70
     0
 43
0.0
 10
-607.6349774129233
 20
140.2910450433135
 10
-607.6151508287743
 20
140.285128533541
 10
-607.595026687182
 20
140.2800213105591
 10
-607.5746725393257
 20
140.2757474127537
 10
-607.553899236999
 20
140.2722861526652
 10
-607.53296129447
 20
140.2696990169904
 10
-607.5116659308869
 20
140.267981679152
 10
-607.4902774980075
 20
140.2671750763125
 10
-607.4687953329418
 20
140.2672867525191
 10
-607.448035365562
 20
140.2682731597934
 10
-607.4273342958891
 20
140.2701211228322
 10
-607.406584183001
 20
140.2728501389843
 10
-607.3859663887949
 20
140.2764447579126
 10
-607.3704082569144
 20
140.2797520800431
 10
-607.3549631620873
 20
140.283552461011
 10
-607.3395846340696
 20
140.2878607823997
 10
-607.3243515000759
 20
140.2926579053345
 10
-607.3041172572986
 20
140.2998733632637
 10
-607.2896885115022
 20
140.3056290085838
 10
-607.2754454631638
 20
140.3118299548477
 10
-607.2613477702444
 20
140.318497084895
 10
-607.2474647714928
 20
140.3256004585031
 10
-607.2290792773078
 20
140.3358746250526
 10
-607.2111112020564
 20
140.3469341515976
 10
-607.1934073399756
 20
140.3588960372907
 10
-607.1761996234584
 20
140.371627157059
 10
-607.1594922434131
 20
140.3851338108188
 10
-607.1477797121249
 20
140.3953419194742
 10
-607.1363898406255
 20
140.4059088348397
 10
-607.1252914673646
 20
140.4168676218069
 10
-607.1145401263431
 20
140.4281670717278
 10
-607.1005889441308
 20
140.4439494603446
 10
-607.0872916992984
 20
140.4603349141654
 10
-607.0745425252339
 20
140.477484584717
 10
-607.0625162706654
 20
140.4951960498959
 10
-607.0512189850465
 20
140.513473874454
 10
-607.0391687585796
 20
140.5351523181778
 10
-607.0281823411063
 20
140.5574571135724
210
0.0
220
0.0
230
-1.0
  0
LWPOLYLINE
  5
1A0
330
1F
100
AcDbEntity
  8
0
  6
CONTINUOUS
 62
     7
100
AcDbPolyline
 90
       38
 70
     0
 43
0.0
 10
-583.0106087455167
 20
140.6406557550506
 10
-583.0014118163706
 20
140.6221134061811
 10
-582.991419858467
 20
140.603905418789
 10
-582.9806613554917
 20
140.5860976068069
 10
-582.9690224150158
 20
140.5685374917496
 10
-582.9566316487784
 20
140.551453209665
 10
-582.9433607116931
 20
140.5347007860887
 10
-582.9293599566123
 20
140.5185015479425
 10
-582.9146233947963
 20
140.5028601708117
 10
-582.9035566883899
 20
140.4919527442078
 10
-582.89215655837
 20
140.4813942888362
 10
-582.8803876562754
 20
140.4711562328417
 10
-582.868305261219
 20
140.4612901001122
 10
-582.8515098399316
 20
140.4485724352042
 10
-582.8341624220726
 20
140.4365527100566
 10
-582.8160942010031
 20
140.4251375408462
 10
-582.7975203532579
 20
140.4144860484013
 10
-582.778436770024
 20
140.4046046360943
 10
-582.7643843245241
 20
140.3979760607878
 10
-582.7501327760721
 20
140.3917871513826
 10
-582.7356393073608
 20
140.386022649559
 10
-582.7209731406026
 20
140.3807128786694
 10
-582.7009160444444
 20
140.3742726574465
 10
-582.6805691154718
 20
140.3686737653723
 10
-582.65974213317
 20
140.3638839668172
 10
-582.6386908398014
 20
140.3599821871973
 10
-582.6174134777136
 20
140.3569758306118
 10
-582.5967271225325
 20
140.3549404568106
 10
-582.5759740651617
 20
140.3537663023422
 10
-582.5550446255914
 20
140.3534570344969
 10
-582.5341205732777
 20
140.3540237041752
 10
-582.5182449791995
 20
140.3550400793685
 10
-582.5024097459113
 20
140.3565608985299
 10
-582.4865667031639
 20
140.3585941662026
 10
-582.4707966797783
 20
140.3611323824882
 10
-582.4497269398247
 20
140.3653388222606
 10
-582.4257215868652
 20
140.3712969151238
 10
-582.401982516506
 20
140.3784539935746
210
0.0
220
0.0
230
-1.0
  0
LWPOLYLINE
  5
1A1
330
1F
100
AcDbEntity
  8
0
  6
CONTINUOUS
 62
     7
100
AcDbPolyline
 90
       38
 70
     0
 43
0.0
 10
-608.0151155431616
 20
137.4838009981086
 10
-608.0116570959286
 20
137.5042078927781
 10
-608.0090383732168
 20
137.524811589509
 10
-608.007275015699
 20
137.5455421014208
 10
-608.0063695396814
 20
137.5665897304893
 10
-608.0063519910855
 20
137.5876943146914
 10
-608.0072415772004
 20
137.6090477711645
 10
-608.0090467527142
 20
137.6303826674781
 10
-608.0117751108589
 20
137.6516987410973
 10
-608.0143170399152
 20
137.6670278814019
 10
-608.0173338344849
 20
137.6822706795317
 10
-608.0208372979589
 20
137.6974710279077
 10
-608.0248129935767
 20
137.712554750581
 10
-608.0309255189494
 20
137.7327156585591
 10
-608.0378948576275
 20
137.7526363768541
 10
-608.0458026874165
 20
137.7724916766188
 10
-608.0545684557194
 20
137.7920263488051
 10
-608.0641992504434
 20
137.8112376280758
 10
-608.0716717388563
 20
137.8248600783706
 10
-608.079563734074
 20
137.8382438612585
 10
-608.0879009074101
 20
137.851426488361
 10
-608.0966450805379
 20
137.8643427397751
 10
-608.1090861451314
 20
137.8813422535175
 10
-608.1222562102631
 20
137.8978314771347
 10
-608.1362902199347
 20
137.9139482986123
 10
-608.1510276655054
 20
137.9294785444168
 10
-608.1664743209656
 20
137.9444172576285
 10
-608.1820135711556
 20
137.9582230441227
 10
-608.1981129965734
 20
137.9713712961042
 10
-608.21486348579
 20
137.983923514965
 10
-608.2321244797828
 20
137.9957639189333
 10
-608.2455655155374
 20
138.0042730941998
 10
-608.2592704034518
 20
138.0123504422463
 10
-608.2732828190291
 20
138.0200178010233
 10
-608.2875329620493
 20
138.0272337280871
 10
-608.3070512230018
 20
138.0362151292399
 10
-608.3299740406189
 20
138.0455049233052
 10
-608.353386177133
 20
138.0536682006687
210
0.0
220
0.0
230
-1.0
  0
LWPOLYLINE
  5
1A2
330
1F
100
AcDbEntity
  8
0
  6
CONTINUOUS
 62
     7
100
AcDbPolyline
 90
       38
 70
     0
 43
0.0
 10
-581.6680903037322
 20
138.1461080283338
 10
-581.6876079844385
 20
138.1392408115211
 10
-581.7068907073328
 20
138.1315439680644
 10
-581.7258696929545
 20
138.1230377560883
 10
-581.7447101252003
 20
138.1136277335729
 10
-581.7631699567288
 20
138.1034137564687
 10
-581.7814076936236
 20
138.0922860113086
 10
-581.7991854085597
 20
138.0803667612973
 10
-581.8164992035464
 20
138.0676495135354
 10
-581.8327145743107
 20
138.0546490906232
 10
-581.8483758860569
 20
138.0409862736595
 10
-581.8635590045712
 20
138.0265818428753
 10
-581.8781262864767
 20
138.011554899705
 10
-581.8887690843959
 20
137.9997343794229
 10
-581.8990306207047
 20
137.9875814076751
 10
-581.908939743445
 20
137.9750566304837
 10
-581.9184439296091
 20
137.9622218649976
 10
-581.9305726361249
 20
137.944491047415
 10
-581.9388626532451
 20
137.9313536285492
 10
-581.9467406966385
 20
137.9179651038795
 10
-581.9542271290749
 20
137.9042848663781
 10
-581.9612834527493
 20
137.890377894488
 10
-581.9701186264175
 20
137.8712591968084
 10
-581.9781544780517
 20
137.8517504822389
 10
-581.9854461833411
 20
137.8316670443886
 10
-581.991884353993
 20
137.8112529101443
 10
-581.9974618964933
 20
137.7905054461203
 10
-582.0009373576311
 20
137.7753624595795
 10
-582.0039408802239
 20
137.7601188469778
 10
-582.0064782394395
 20
137.7447295419564
 10
-582.0085346070156
 20
137.7292686152485
 10
-582.0105446952422
 20
137.7083000954893
 10
-582.0116712641818
 20
137.6872280604791
 10
-582.0119052392324
 20
137.665859909061
 10
-582.0112241455284
 20
137.6444621776601
 10
-582.0096204058651
 20
137.6230347290949
 10
-582.0066269743494
 20
137.5984135543067
 10
-582.0024047430043
 20
137.57391094161
210
0.0
220
0.0
230
-1.0
  0
LWPOLYLINE
  5
1A3
330
1F
100
AcDbEntity
  8
0
  6
CONTINUOUS
 62
     7
100
AcDbPolyline
 90
       38
 70
     0
 43
0.0
 10
-608.6946881222701
 20
134.6945018672315
 10
-608.6741691750567
 20
134.6971610648841
 10
-608.653707562185
 20
134.7006806103238
 10
-608.6333747720204
 20
134.705054988169
 10
-608.6129895947305
 20
134.7103422329914
 10
-608.5928095495611
 20
134.7164949954045
 10
-608.5726567626635
 20
134.7235877339199
 10
-608.5527893820291
 20
134.7315503249498
 10
-608.5332098705186
 20
134.7403899299459
 10
-608.5146459046015
 20
134.7497348972731
 10
-608.4964861707163
 20
134.7598429790999
 10
-608.4786399902104
 20
134.7707758906691
 10
-608.4612667612029
 20
134.7824457508659
 10
-608.4483989095949
 20
134.7917952023089
 10
-608.4358348675701
 20
134.8015491091014
 10
-608.4235382353332
 20
134.8117399673974
 10
-608.4115732406465
 20
134.8223182310484
 10
-608.3960231312049
 20
134.8371398878468
 10
-608.3851828478794
 20
134.8482666311139
 10
-608.3746933278339
 20
134.8597246470746
 10
-608.3645262105986
 20
134.871549421738
 10
-608.3547326624866
 20
134.8836854007397
 10
-608.3421155578002
 20
134.9005493731081
 10
-608.3301992189726
 20
134.9179610279573
 10
-608.3188912734175
 20
134.9360895637293
 10
-608.3083494550739
 20
134.9547190292155
 10
-608.2985801549339
 20
134.97385347508
 10
-608.2920322370248
 20
134.9879429620313
 10
-608.2859250233366
 20
135.0022289976635
 10
-608.2802434950802
 20
135.0167544628024
 10
-608.2750175566559
 20
135.0314499883071
 10
-608.2686917932829
 20
135.0515423747587
 10
-608.2632087201495
 20
135.0719197083935
 10
-608.2585371695243
 20
135.0927722682868
 10
-608.2547545411813
 20
135.1138440152613
 10
-608.2518682182242
 20
135.1351366588903
 10
-608.2496772059991
 20
135.1598421713444
 10
-608.2487127918239
 20
135.1846871944233
210
0.0
220
0.0
230
-1.0
  0
LWPOLYLINE
  5
1A4
330
1F
100
AcDbEntity
  8
0
  6
CONTINUOUS
 62
     7
100
AcDbPolyline
 90
       38
 70
     0
 43
0.0
 10
-581.7528846930145
 20
135.2764706917815
 10
-581.7520247329027
 20
135.2557906851103
 10
-581.7503024808159
 20
135.23509276552
 10
-581.747717188958
 20
135.2144486423884
 10
-581.7442268300049
 20
135.1936726954641
 10
-581.7398561053363
 20
135.1730256485041
 10
-581.7345463255723
 20
135.1523237716409
 10
-581.7283448231086
 20
135.1318304110931
 10
-581.7212442252276
 20
135.1115474023804
 10
-581.7155707359403
 20
135.0970817373381
 10
-581.7094507096382
 20
135.0827992577789
 10
-581.702863475115
 20
135.0686594844992
 10
-581.6958385757003
 20
135.0547319709542
 10
-581.6856679352064
 20
135.0362824926723
 10
-581.6747091430767
 20
135.0182460968555
 10
-581.6628459693958
 20
135.000468813291
 10
-581.650210267438
 20
134.98318352627
 10
-581.6367956791296
 20
134.9663944143594
 10
-581.6266542158431
 20
134.9546232649878
 10
-581.6161520347262
 20
134.9431727879369
 10
-581.6052562263403
 20
134.9320116286703
 10
-581.5940176947045
 20
134.9211956441589
 10
-581.5783140995763
 20
134.9071542533533
 10
-581.5620035296038
 20
134.8937635693439
 10
-581.5449253211108
 20
134.8809167737639
 10
-581.527281004421
 20
134.8687899883184
 10
-581.5090659623206
 20
134.8573892620865
 10
-581.4909958976169
 20
134.847115956932
 10
-581.4725146079707
 20
134.8376022845623
 10
-581.4535204040855
 20
134.8288069843348
 10
-581.4341748458161
 20
134.8208140840477
 10
-581.4192583719243
 20
134.8152854031466
 10
-581.4041735936029
 20
134.8102339709534
 10
-581.3888732493979
 20
134.8056475073768
 10
-581.3734342305959
 20
134.801552036962
 10
-581.352475152175
 20
134.7968249756097
 10
-581.3281217963295
 20
134.7925041076025
 10
-581.3035240303709
 20
134.7893868743235
210
0.0
220
0.0
230
-1.0
  0
LWPOLYLINE
  5
1A5
330
1F
100
AcDbEntity
  8
0
  6
CONTINUOUS
 62
     7
100
AcDbPolyline
 90
       38
 70
     0
 43
0.0
 10
-607.9001525651852
 20
131.975340714242
 10
-607.9052933482583
 20
131.9953900173898
 10
-607.9112813044633
 20
132.0152775614338
 10
-607.918102256037
 20
132.0349330485427
 10
-607.925835904526
 20
132.0545293047483
 10
-607.9344038808179
 20
132.0738164394385
 10
-607.9439017913762
 20
132.0929619653343
 10
-607.954228585374
 20
132.1117181319223
 10
-607.9653910927916
 20
132.130081610919
 10
-607.9739481836033
 20
132.1430515817225
 10
-607.9829039671215
 20
132.1557495298196
 10
-607.9922870789361
 20
132.1682107520605
 10
-608.0020541603341
 20
132.1803733573036
 10
-608.0158384101554
 20
132.1963050751581
 10
-608.0303077039345
 20
132.2116688714511
 10
-608.0456077438917
 20
132.2265911862189
 10
-608.061561138696
 20
132.2408716380878
 10
-608.0781732387094
 20
132.2545048178848
 10
-608.0905404462596
 20
132.2639102106211
 10
-608.1031938175661
 20
132.2729269410424
 10
-608.1161720618913
 20
132.2815788362562
 10
-608.1294137742744
 20
132.2898218434408
 10
-608.1476935774757
 20
132.3002914351533
 10
-608.1664318021146
 20
132.3099983424081
 10
-608.1858078097674
 20
132.3190136454778
 10
-608.2055878562703
 20
132.3272069718497
 10
-608.2257752002654
 20
132.3345714446586
 10
-608.2455863309453
 20
132.3408632757414
 10
-608.2656417637797
 20
132.3463265753652
 10
-608.2860495444794
 20
132.3509805601349
 10
-608.3066341732987
 20
132.354776628644
 10
-608.3223741638415
 20
132.3570831852948
 10
-608.3381795553724
 20
132.3588879298084
 10
-608.354099129744
 20
132.360193047718
 10
-608.3700522651217
 20
132.3609890697744
 10
-608.3915361487109
 20
132.3612551960622
 10
-608.4162556842741
 20
132.3604182953457
 10
-608.4409640392718
 20
132.3583532464876
210
0.0
220
0.0
230
-1.0
  0
LWPOLYLINE
  5
1A6
330
1F
100
AcDbEntity
  8
0
  6
CONTINUOUS
 62
     7
100
AcDbPolyline
 90
       38
 70
     0
 43
0.0
 10
-581.5410570370781
 20
132.4515365028879
 10
-581.5616804743446
 20
132.4532015440931
 10
-581.5824267065254
 20
132.4540131176945
 10
-581.6032246607353
 20
132.4539617552827
 10
-581.6242636530028
 20
132.4530283661232
 10
-581.6452819470043
 20
132.4512057236428
 10
-581.6664690104135
 20
132.44845797848
 10
-581.6875577568783
 20
132.4448000498682
 10
-581.7085472663068
 20
132.4402244207934
 10
-581.7286484929864
 20
132.4349433289655
 10
-581.7485129814996
 20
132.4288317539555
 10
-581.7682422602737
 20
132.4218481822986
 10
-581.7876621429095
 20
132.4140454339641
 10
-581.8021926613442
 20
132.407575667252
 10
-581.8165101001597
 20
132.400647117946
 10
-581.8306568200583
 20
132.393235567954
 10
-581.8445596955855
 20
132.3853761270199
 10
-581.8628515935528
 20
132.3741114085301
 10
-581.8757683706849
 20
132.3654816329345
 10
-581.8884109250218
 20
132.3564548959618
 10
-581.9008143752459
 20
132.3470023835308
 10
-581.9129171227481
 20
132.3371677979348
 10
-581.9287647304345
 20
132.3232955873924
 10
-581.9440407552678
 20
132.3087419651309
 10
-581.9588707296061
 20
132.2933606354406
 10
-581.9730554675946
 20
132.2773300357485
 10
-581.98658956008
 20
132.260644875145
 10
-581.9959237593273
 20
132.2482246659718
 10
-582.004867749567
 20
132.2355205756183
 10
-582.0134451368164
 20
132.2224937828894
 10
-582.021612247503
 20
132.2092059235693
 10
-582.0319772198087
 20
132.1908678041273
 10
-582.0415771605292
 20
132.1720757591291
 10
-582.0504821175502
 20
132.1526501476895
 10
-582.0585631489304
 20
132.1328253215976
 10
-582.0658133883447
 20
132.1125980736049
 10
-582.0730930865627
 20
132.0888879729294
 10
-582.0792019967311
 20
132.0647863861963
210
0.0
220
0.0
230
-1.0
  0
LWPOLYLINE
  5
1A7
330
1F
100
AcDbEntity
  8
0
  6
CONTINUOUS
 62
     7
100
AcDbPolyline
 90
       38
 70
     0
 43
0.0
 10
-607.3864628429409
 20
129.1507820936697
 10
-607.3687994450448
 20
129.1615571993153
 10
-607.3515383596472
 20
129.1730949517961
 10
-607.3347426513113
 20
129.1853612356225
 10
-607.3182703814051
 20
129.1984827726928
 10
-607.3023375467353
 20
129.2123115646766
 10
-607.28681193646
 20
129.2269879806209
 10
-607.271900858672
 20
129.2423429611933
 10
-607.2576094761308
 20
129.2583820469697
 10
-607.2444513900317
 20
129.2744697446026
 10
-607.231972974899
 20
129.2910901660405
 10
-607.2201164935124
 20
129.3083365732941
 10
-607.2089918188295
 20
129.3260638499142
 10
-607.2010392159381
 20
129.3398388255779
 10
-607.1935286637222
 20
129.3538597190991
 10
-607.1864401266914
 20
129.3681710223221
 10
-607.1798121275915
 20
129.3827013488035
 10
-607.1716349066763
 20
129.4025664053602
 10
-607.1662574692896
 20
129.41714033158
 10
-607.1613352108475
 20
129.4318742221853
 10
-607.1568566562314
 20
129.4468120305008
 10
-607.1528459521991
 20
129.4618821938746
 10
-607.1481788490343
 20
129.4824200380351
 10
-607.1443746898703
 20
129.5031731878851
 10
-607.1414179073571
 20
129.5243337852085
 10
-607.1393647633481
 20
129.5456403925866
 10
-607.1382227438588
 20
129.5670941110349
 10
-607.1379716338213
 20
129.5826287759892
 10
-607.1382030706735
 20
129.5981637465428
 10
-607.138920775272
 20
129.6137443049711
 10
-607.1401238516747
 20
129.6292949161953
 10
-607.1425172890958
 20
129.6502231443306
 10
-607.1457964608182
 20
129.6710689316715
 10
-607.150010287175
 20
129.6920187838616
 10
-607.1551253358625
 20
129.7128073161489
 10
-607.1611490470275
 20
129.7334330873278
 10
-607.1691960949628
 20
129.7568938609663
 10
-607.178420440058
 20
129.7799831815293
210
0.0
220
0.0
230
-1.0
  0
LWPOLYLINE
  5
1A8
330
1F
100
AcDbEntity
  8
0
  6
CONTINUOUS
 62
     7
100
AcDbPolyline
 90
       38
 70
     0
 43
0.0
 10
-582.7857072233545
 20
129.8644813342473
 10
-582.7933329271929
 20
129.8452394307998
 10
-582.800178173955
 20
129.8256304373431
 10
-582.8062131136633
 20
129.8057195594976
 10
-582.811474851005
 20
129.7853201306729
 10
-582.8158799059073
 20
129.7646803808294
 10
-582.8194493926234
 20
129.7436085932596
 10
-582.8221194388917
 20
129.7223645985252
 10
-582.8238825628263
 20
129.7009470747024
 10
-582.8245832884982
 20
129.6854244161242
 10
-582.8248015740598
 20
129.6698874828452
 10
-582.8245349998003
 20
129.6542908875363
 10
-582.8237822649553
 20
129.6387101867952
 10
-582.8219950013937
 20
129.6177189775425
 10
-582.8193197097102
 20
129.5967845677488
 10
-582.8157128339207
 20
129.5757190236599
 10
-582.8112001054106
 20
129.5547887252207
 10
-582.8057740162141
 20
129.5339949036801
 10
-582.8012970862753
 20
129.5191165189075
 10
-582.7963601950179
 20
129.5043843657173
 10
-582.7909460312125
 20
129.4897564148407
 10
-582.7850783789178
 20
129.4753043986898
 10
-582.7764435790801
 20
129.4560897223337
 10
-582.7669896138326
 20
129.4372226173049
 10
-582.7566131565477
 20
129.4185401523654
 10
-582.745426679186
 20
129.400285192466
 10
-582.7334235033305
 20
129.3824613857257
 10
-582.7210942074531
 20
129.3657264970091
 10
-582.7080802684084
 20
129.3495183071198
 10
-582.6943055706168
 20
129.3337577618221
 10
-582.6798835291655
 20
129.3185873366426
 10
-582.668505369308
 20
129.3074695588014
 10
-582.6567793411659
 20
129.2967193137706
 10
-582.6446672640159
 20
129.2863061601638
 10
-582.632228796407
 20
129.2762851470895
 10
-582.6150043945854
 20
129.2634419364642
 10
-582.5945139523227
 20
129.2495892249189
 10
-582.5733106679627
 20
129.2367366778634
210
0.0
220
0.0
230
-1.0
  0
LWPOLYLINE
  5
1A9
330
1F
100
AcDbEntity
  8
0
  6
CONTINUOUS
 62
     7
100
AcDbPolyline
 90
       38
 70
     0
 43
0.0
 10
-605.5546360144812
 20
126.9898714990511
 10
-605.5674871397647
 20
127.0060965040207
 10
-605.5810464028598
 20
127.0218291583401
 10
-605.5952722590315
 20
127.0370110083606
 10
-605.6103078139456
 20
127.0517675209787
 10
-605.6259798341866
 20
127.0659022853511
 10
-605.6424437941672
 20
127.0795294453106
 10
-605.6595066101509
 20
127.0924637705754
 10
-605.6771731679003
 20
127.1046994426041
 10
-605.6902658217275
 20
127.1130676181262
 10
-605.703612057863
 20
127.1210251256073
 10
-605.7172523927428
 20
127.128592563181
 10
-605.7311220428159
 20
127.1357310260536
 10
-605.7501945950658
 20
127.1446788150324
 10
-605.7696619716021
 20
127.1528291493686
 10
-605.7897087058222
 20
127.1602382753511
 10
-605.8100912402346
 20
127.1667952870406
 10
-605.8308122625286
 20
127.1724930667235
 10
-605.8459357866784
 20
127.1760551240519
 10
-605.8611626512222
 20
127.1791457274024
 10
-605.8765379101893
 20
127.181770899445
 10
-605.8919875494594
 20
127.1839153715726
 10
-605.912945347228
 20
127.1860447537347
 10
-605.9340117221026
 20
127.1872909321783
 10
-605.955379439988
 20
127.187645889038
 10
-605.9767819376867
 20
127.1870855954135
 10
-605.9982193950437
 20
127.1856024435668
 10
-606.0188768817407
 20
127.1832924044844
 10
-606.0394205554566
 20
127.180126097613
 10
-606.0599569369574
 20
127.176077132045
 10
-606.0803059312748
 20
127.1711724903634
 10
-606.0956232892477
 20
127.1668776037991
 10
-606.1107962886123
 20
127.1620976880579
 10
-606.1258703827443
 20
127.1568148983568
 10
-606.1407680684428
 20
127.1510533759606
 10
-606.1605028160212
 20
127.1425582117307
 10
-606.182744837262
 20
127.1317393239691
 10
-606.2044771116955
 20
127.1198030145974
210
0.0
220
0.0
230
-1.0
  0
LWPOLYLINE
  5
1AA
330
1F
100
AcDbEntity
  8
0
  6
CONTINUOUS
 62
     7
100
AcDbPolyline
 90
       38
 70
     0
 43
0.0
 10
-583.7411972793715
 20
127.1976174681581
 10
-583.759360493537
 20
127.2075268666304
 10
-583.7779830229866
 20
127.2167065288412
 10
-583.7970037905583
 20
127.2251188970214
 10
-583.816603509951
 20
127.232823532683
 10
-583.8365460124475
 20
127.2397073762695
 10
-583.8570189666294
 20
127.2458147412049
 10
-583.8777723087738
 20
127.2510506230811
 10
-583.8988082557802
 20
127.2554077805287
 10
-583.9193196536683
 20
127.2587591685393
 10
-583.9399525684214
 20
127.2612555823241
 10
-583.9608166359204
 20
127.2629003927777
 10
-583.9817312451547
 20
127.2636710053519
 10
-583.9976370254617
 20
127.2636706736502
 10
-584.0135347515428
 20
127.2631645559049
 10
-584.0294729722106
 20
127.2621477574378
 10
-584.0453706036187
 20
127.2606226097938
 10
-584.066662857702
 20
127.2577717625605
 10
-584.0819729667346
 20
127.2551417968348
 10
-584.0971940195165
 20
127.252037652387
 10
-584.1123698183025
 20
127.248447290299
 10
-584.1274263146395
 20
127.2443855801911
 10
-584.1475461610039
 20
127.2381584880137
 10
-584.1674209955646
 20
127.2310764115647
 10
-584.1872250016625
 20
127.223056761673
 10
-584.2067036369249
 20
127.2141815328532
 10
-584.2258541118514
 20
127.2044436915184
 10
-584.2394330813598
 20
127.196893826713
 10
-584.2527710420802
 20
127.1889259112428
 10
-584.265905349185
 20
127.1805140816138
 10
-584.2787710353482
 20
127.1716968812744
 10
-584.295698693859
 20
127.1591599895977
 10
-584.3121120893969
 20
127.1458972499122
 10
-584.3281482804207
 20
127.1317730431451
 10
-584.3435941531451
 20
127.1169490148964
 10
-584.3584447393762
 20
127.101419442413
 10
-584.374738841372
 20
127.0827201076564
 10
-584.3901226069879
 20
127.0631869301892
210
0.0
220
0.0
230
-1.0
  0
LWPOLYLINE
  5
1AB
330
1F
100
AcDbEntity
  8
0
  6
CONTINUOUS
 62
     7
100
AcDbPolyline
 90
       38
 70
     0
 43
0.0
 10
-603.9365056105848
 20
124.6184452345902
 10
-603.9247519239696
 20
124.6354731345739
 10
-603.9136759645231
 20
124.6530341118746
 10
-603.9033214685717
 20
124.671071349773
 10
-603.8936103111618
 20
124.6897583461264
 10
-603.884679618851
 20
124.7088720439161
 10
-603.8764657042606
 20
124.7285944516415
 10
-603.8690891901311
 20
124.7486868061198
 10
-603.862557046434
 20
124.7691520690353
 10
-603.8570799927769
 20
124.7892007879011
 10
-603.8524405277361
 20
124.8094597270917
 10
-603.848623838813
 20
124.8300375695368
 10
-603.8456712757721
 20
124.8507570554052
 10
-603.8440089988841
 20
124.8665757368558
 10
-603.8428505791867
 20
124.8824392772401
 10
-603.8421958098118
 20
124.8983964710486
 10
-603.8420508475567
 20
124.914366434908
 10
-603.8426604309518
 20
124.9358400424759
 10
-603.8436756472804
 20
124.9513411874051
 10
-603.8451717536436
 20
124.966803329116
 10
-603.8471561444264
 20
124.9822712883201
 10
-603.849621771637
 20
124.9976698679106
 10
-603.8537116545303
 20
125.0183304040274
 10
-603.8586774487092
 20
125.0388366407327
 10
-603.8645830837958
 20
125.0593704400922
 10
-603.8713736213729
 20
125.0796700833823
 10
-603.8790563480791
 20
125.0997335315936
 10
-603.8851454651196
 20
125.1140272898523
 10
-603.891675534978
 20
125.1281250577878
 10
-603.8986683747863
 20
125.1420666894084
 10
-603.9060924431761
 20
125.1557835443985
 10
-603.9167912343177
 20
125.1739289334459
 10
-603.9282656523148
 20
125.1916387484837
 10
-603.9406362467951
 20
125.2090634732034
 10
-603.9537645341262
 20
125.2259742647132
 10
-603.9676567250294
 20
125.242366780226
 10
-603.9845504254317
 20
125.2605262341524
 10
-604.0023685567298
 20
125.2778674989141
210
0.0
220
0.0
230
-1.0
  0
LWPOLYLINE
  5
1AC
330
1F
100
AcDbEntity
  8
0
  6
CONTINUOUS
 62
     7
100
AcDbPolyline
 90
       38
 70
     0
 43
0.0
 10
-585.9304919381432
 20
125.3404698087454
 10
-585.9452847524608
 20
125.3259931084348
 10
-585.9595138927193
 20
125.3108636142226
 10
-585.9731255680925
 20
125.2951287533273
 10
-585.986229599541
 20
125.278633089169
 10
-585.9986487600031
 20
125.2615694366962
 10
-586.0104803165185
 20
125.2437712419218
 10
-586.0215602362624
 20
125.225449892686
 10
-586.0318822218667
 20
125.2066011381943
 10
-586.038836000663
 20
125.192705494767
 10
-586.0453548545319
 20
125.1786005846809
 10
-586.0514550336472
 20
125.1642439603624
 10
-586.0571046180652
 20
125.1497041171295
 10
-586.0640097655426
 20
125.1298007476849
 10
-586.0700805565411
 20
125.1095880735508
 10
-586.0753536402348
 20
125.0888766928851
 10
-586.0797441769286
 20
125.0679204217735
 10
-586.0832448069604
 20
125.0467173312532
 10
-586.0852065122275
 20
125.0313043189726
 10
-586.0866885441783
 20
125.0158378127671
 10
-586.0876921830616
 20
125.0002723758779
 10
-586.0882099804955
 20
124.9846832129724
 10
-586.0881370112852
 20
124.9636176431676
 10
-586.0871743272405
 20
124.9425364109811
 10
-586.0852938048954
 20
124.921248644595
 10
-586.0824994104235
 20
124.9000219586495
 10
-586.0787835589639
 20
124.8788569695103
 10
-586.0743268791779
 20
124.8585541115224
 10
-586.0690305190234
 20
124.8384539473921
 10
-586.0628570977129
 20
124.8184532984864
 10
-586.0558522750669
 20
124.7987284527469
 10
-586.0499798164502
 20
124.7839439427562
 10
-586.0436400752808
 20
124.7693536999167
 10
-586.0368105533596
 20
124.7549143851388
 10
-586.0295233609936
 20
124.7407005536035
 10
-586.019011891325
 20
124.7219619014993
 10
-586.0059273462623
 20
124.7009726060901
 10
-585.9917847839923
 20
124.6806070674055
210
0.0
220
0.0
230
-1.0
  0
ARC
  5
1AD
330
1F
100
AcDbEntity
  8
0
  6
CONTINUOUS
 62
     7
100
AcDbCircle
 10
595.0000000000229
 20
135.0000000002254
 30
0.0
 40
13.25000000149684
100
AcDbArc
 50
298.7831861994737
 51
298.8043959643971
  0
LWPOLYLINE
  5
1AE
330
1F
100
AcDbEntity
  8
0
  6
CONTINUOUS
 62
     7
100
AcDbPolyline
 90
       38
 70
     0
 43
0.0
 10
-601.3841270110156
 20
123.3894262714085
 10
-601.4024664021991
 20
123.3990215274411
 10
-601.4212524524132
 20
123.4078789731774
 10
-601.440423433413
 20
123.415962106318
 10
-601.4601611107138
 20
123.4233273402585
 10
-601.4802273402285
 20
123.4298657051426
 10
-601.50081058138
 20
123.43561823941
 10
-601.5216591034552
 20
123.4404942610087
 10
-601.5427750032061
 20
123.444486467218
 10
-601.5581393812589
 20
123.4468059138884
 10
-601.5735683845375
 20
123.4486470554184
 10
-601.5891074046629
 20
123.4500122296205
 10
-601.6046814349118
 20
123.4508922450409
 10
-601.6257444720375
 20
123.4513089511415
 10
-601.6468438450722
 20
123.4508365566707
 10
-601.66817101109
 20
123.4494513886757
 10
-601.6894583597407
 20
123.4471511932962
 10
-601.7107054513166
 20
123.4439283749951
 10
-601.7259702973472
 20
123.4410311848432
 10
-601.7411377919173
 20
123.4376612677262
 10
-601.7562515435708
 20
123.4338058005026
 10
-601.7712377267425
 20
123.4294809388604
 10
-601.7912497254487
 20
123.4229019219515
 10
-601.8110016829612
 20
123.4154718960097
 10
-601.8306664385372
 20
123.4071051313937
 10
-601.8499907011441
 20
123.3978880976307
 10
-601.8689715407327
 20
123.3878137715567
 10
-601.8869035163291
 20
123.3773012890526
 10
-601.9043832431078
 20
123.366052858909
 10
-601.9214972984813
 20
123.3540010459335
 10
-601.9380921323145
 20
123.3412437511654
 10
-601.9503383473702
 20
123.3310900462908
 10
-601.9622554051357
 20
123.3205519611505
 10
-601.973877571209
 20
123.3095947061708
 10
-601.9851438620298
 20
123.298271858886
 10
-601.9997171564565
 20
123.2824842952099
 10
-602.0156358158399
 20
123.2635541043838
 10
-602.0306343020283
 20
123.2438104308268
210
0.0
220
0.0
230
-1.0
  0
LWPOLYLINE
  5
1AF
330
1F
100
AcDbEntity
  8
0
  6
CONTINUOUS
 62
     7
100
AcDbPolyline
 90
       38
 70
     0
 43
0.0
 10
-598.9413453725541
 20
121.8811735079156
 10
-598.9375337164141
 20
121.9015099236366
 10
-598.9345580169294
 20
121.9220576732455
 10
-598.9324351197798
 20
121.94274706292
 10
-598.9311642222054
 20
121.9637683671209
 10
-598.9307798700871
 20
121.9848620387262
 10
-598.9312979116352
 20
122.0062202547646
 10
-598.932731427471
 20
122.0275758325262
 10
-598.9350879896057
 20
122.0489286427016
 10
-598.9382390007254
 20
122.0694717771714
 10
-598.9422406914301
 20
122.0898662794821
 10
-598.9471237351592
 20
122.1102174612161
 10
-598.952853808733
 20
122.1303465689956
 10
-598.9577692806237
 20
122.1454737625019
 10
-598.9631632947344
 20
122.1604369995012
 10
-598.9690555085887
 20
122.1752809401192
 10
-598.9754186484693
 20
122.1899291895226
 10
-598.9847096336678
 20
122.2092983662716
 10
-598.9919419635856
 20
122.2230464411285
 10
-598.9995977443722
 20
122.2365632891741
 10
-599.0077019613599
 20
122.2498868485984
 10
-599.0162175904692
 20
122.2629512901028
 10
-599.028357281513
 20
122.2801621237861
 10
-599.0412343981081
 20
122.2968757327271
 10
-599.0549813128372
 20
122.3132322536698
 10
-599.0694413863631
 20
122.3290149401304
 10
-599.0846204460219
 20
122.3442189656384
 10
-599.0959969264864
 20
122.3548002965439
 10
-599.1076965209485
 20
122.365023229711
 10
-599.1197553704358
 20
122.3749152997609
 10
-599.1321167419429
 20
122.3844266296754
 10
-599.149270968621
 20
122.396651677023
 10
-599.1669566017794
 20
122.408163331849
 10
-599.185344976214
 20
122.4190500358956
 10
-599.2042165020424
 20
122.4291590571461
 10
-599.22357508667
 20
122.4384839021392
 10
-599.2463943652654
 20
122.4482021017962
 10
-599.2697253659924
 20
122.456796848539
210
0.0
220
0.0
230
-1.0
  0
ARC
  5
1B0
330
1F
100
AcDbEntity
  8
0
  6
CONTINUOUS
 62
     7
100
AcDbCircle
 10
595.0000000000229
 20
135.0000000002254
 30
0.0
 40
13.25000000062762
100
AcDbArc
 50
288.7986520335309
 51
288.8198617984513
  0
LWPOLYLINE
  5
1B1
330
1F
100
AcDbEntity
  8
0
  6
CONTINUOUS
 62
     7
100
AcDbPolyline
 90
       38
 70
     0
 43
0.0
 10
-587.8880867950733
 20
123.292801255605
 10
-587.9006492014008
 20
123.3092415863245
 10
-587.9139280235974
 20
123.3252020901539
 10
-587.9278827410194
 20
123.3406236140437
 10
-587.9426542179965
 20
123.3556340730262
 10
-587.9580726891344
 20
123.3700341235857
 10
-587.9742915743199
 20
123.3839405797385
 10
-587.9911210707489
 20
123.3971649405595
 10
-588.0085661489902
 20
123.4097014924233
 10
-588.0259411110518
 20
123.421105874839
 10
-588.0437748336398
 20
123.4317786247961
 10
-588.0621661030491
 20
123.4417674146901
 10
-588.0809591129419
 20
123.450978142258
 10
-588.0954899012069
 20
123.4574473029211
 10
-588.1102190532879
 20
123.4634511290926
 10
-588.125192911577
 20
123.4690048958427
 10
-588.14033645397
 20
123.4740777533721
 10
-588.1609474400043
 20
123.4801337147809
 10
-588.1760036239978
 20
123.4839583038916
 10
-588.1911713169194
 20
123.4873134867439
 10
-588.2064954307897
 20
123.4902060812214
 10
-588.221902270961
 20
123.4926195531787
 10
-588.2428154517839
 20
123.4951143001751
 10
-588.2638525566191
 20
123.4967283248954
 10
-588.2852063019085
 20
123.4974570251246
 10
-588.3066108014503
 20
123.4972717748691
 10
-588.3280663677263
 20
123.4961650140354
 10
-588.3435421803069
 20
123.4947909338108
 10
-588.3589678569278
 20
123.492936918195
 10
-588.3743880428681
 20
123.490594533428
 10
-588.3897277104893
 20
123.4877725661097
 10
-588.4102911092657
 20
123.4832046446633
 10
-588.4306799344214
 20
123.4777644584703
 10
-588.4510745563356
 20
123.4713838600401
 10
-588.4712145386891
 20
123.4641238387909
 10
-588.4910976704641
 20
123.4559771459808
 10
-588.5135887779754
 20
123.4455218620007
 10
-588.535587406207
 20
123.4339345576367
210
0.0
220
0.0
230
-1.0
  0
ARC
  5
1B2
330
1F
100
AcDbEntity
  8
0
  6
CONTINUOUS
 62
     7
100
AcDbCircle
 10
595.0000000000229
 20
135.0000000002254
 30
0.0
 40
13.25000000135485
100
AcDbArc
 50
240.7986520343017
 51
240.8198617992246
  0
ARC
  5
1B3
330
1F
100
AcDbEntity
  8
0
  6
CONTINUOUS
 62
     7
100
AcDbCircle
 10
595.0000000000229
 20
135.0000000002254
 30
0.0
 40
13.25000000079929
100
AcDbArc
 50
250.7831862002335
 51
250.8043959651548
  0
LWPOLYLINE
  5
1B4
330
1F
100
AcDbEntity
  8
0
  6
CONTINUOUS
 62
     7
100
AcDbPolyline
 90
       38
 70
     0
 43
0.0
 10
-590.6434769907211
 20
122.4866788073896
 10
-590.6628791035338
 20
122.4794704632164
 10
-590.6820317896705
 20
122.471436495245
 10
-590.7008666183784
 20
122.4625983516954
 10
-590.71954713785
 20
122.4528587023949
 10
-590.7378330182032
 20
122.4423216078238
 10
-590.75588086091
 20
122.4308744754128
 10
-590.7734548353479
 20
122.4186436994028
 10
-590.7905509175388
 20
122.4056228351291
 10
-590.8025553779325
 20
122.3957568898395
 10
-590.8142476310528
 20
122.3855228700392
 10
-590.8256597871557
 20
122.3748886074815
 10
-590.8367348263656
 20
122.3639036927422
 10
-590.8511384221516
 20
122.3485296364991
 10
-590.8649056009177
 20
122.3325336530087
 10
-590.8781468800191
 20
122.3157576216402
 10
-590.8906815182357
 20
122.2983989075132
 10
-590.9025035767613
 20
122.2804527549882
 10
-590.910564720572
 20
122.2671701650458
 10
-590.9182094189428
 20
122.2536436052567
 10
-590.9254573222341
 20
122.2398320878006
 10
-590.9322710375164
 20
122.2258012860299
 10
-590.9407725159726
 20
122.2065272511705
 10
-590.948467569948
 20
122.1868770283883
 10
-590.95540814194
 20
122.166664808757
 10
-590.9614890065484
 20
122.1461366836037
 10
-590.9667029839595
 20
122.1252901309658
 10
-590.9708895206876
 20
122.1049298522983
 10
-590.97422652821
 20
122.0844132149095
 10
-590.976721824009
 20
122.0636307562917
 10
-590.9783454176403
 20
122.0427620950152
 10
-590.978994061709
 20
122.0268672289654
 10
-590.9791368063554
 20
122.0109597738522
 10
-590.9787707260475
 20
121.9949909866054
 10
-590.9778948306865
 20
121.9790420372103
 10
-590.9759138217701
 20
121.9576480268113
 10
-590.9724976106181
 20
121.9331513873961
 10
-590.967861147936
 20
121.9087942437362
210
0.0
220
0.0
230
-1.0
  0
ARC
  5
1B5
330
1F
100
AcDbEntity
  8
0
  6
CONTINUOUS
 62
     7
100
AcDbCircle
 10
595.0000000000229
 20
135.0000000002254
 30
0.0
 40
13.25000000117158
100
AcDbArc
 50
274.7831861998386
 51
274.8043959647611
  0
LWPOLYLINE
  5
1B6
330
1F
100
AcDbEntity
  8
0
  6
CONTINUOUS
 62
     7
100
AcDbPolyline
 90
       38
 70
     0
 43
0.0
 10
-596.1097444493724
 20
121.7965547201917
 10
-596.1304010591123
 20
121.7978611203491
 10
-596.1511656176974
 20
121.7983118246671
 10
-596.1719668867474
 20
121.7978985937749
 10
-596.1929938627183
 20
121.7965990331782
 10
-596.2139846681276
 20
121.7944104558866
 10
-596.2351281610623
 20
121.7912936990268
 10
-596.2561574903593
 20
121.7872683085278
 10
-596.2770716012128
 20
121.7823267601961
 10
-596.2920510629449
 20
121.7781964246139
 10
-596.3068950185312
 20
121.773602850096
 10
-596.3216458861555
 20
121.7685297099046
 10
-596.3362314052644
 20
121.7629991152121
 10
-596.3556429367952
 20
121.7548126861639
 10
-596.374726033049
 20
121.7457992441817
 10
-596.3936459701084
 20
121.7358592903394
 10
-596.4121573570266
 20
121.7250996125686
 10
-596.4302567027266
 20
121.7135134508462
 10
-596.4430234400829
 20
121.7046579637114
 10
-596.4555089670755
 20
121.6954102154113
 10
-596.4677479064507
 20
121.6857407542302
 10
-596.4796793863084
 20
121.6756943666862
 10
-596.4952853295725
 20
121.6615445224984
 10
-596.510307576828
 20
121.6467230111563
 10
-596.5248691552068
 20
121.6310812146763
 10
-596.5387738421618
 20
121.6148011496465
 10
-596.5520161043817
 20
121.5978775918458
 10
-596.5641219673902
 20
121.5809803696478
 10
-596.5755153436733
 20
121.5635947719927
 10
-596.5862478972689
 20
121.5456239795605
 10
-596.5962191730888
 20
121.5272198838676
 10
-596.6032767633908
 20
121.512963028499
 10
-596.6098773120066
 20
121.498488904616
 10
-596.616037971923
 20
121.483751793287
 10
-596.6217248238321
 20
121.4688254442742
 10
-596.6286168101066
 20
121.4484752943369
 10
-596.6354596268087
 20
121.4247070024155
 10
-596.6411309502331
 20
121.4005698251969
210
0.0
220
0.0
230
-1.0
  0
LWPOLYLINE
  5
1B7
330
1F
100
AcDbEntity
  8
0
  6
CONTINUOUS
 62
     7
100
AcDbPolyline
 90
       38
 70
     0
 43
0.0
 10
-593.2646907136103
 20
121.4122660625208
 10
-593.26948015792
 20
121.4323946429504
 10
-593.2751192438711
 20
121.4523762722896
 10
-593.2815950137266
 20
121.4721404303084
 10
-593.2889841257241
 20
121.4918612678879
 10
-593.2972125717713
 20
121.5112876258583
 10
-593.3063729953678
 20
121.5305886206233
 10
-593.3163686732579
 20
121.5495148482639
 10
-593.3272064702227
 20
121.5680631108357
 10
-593.3384407076705
 20
121.5855485663312
 10
-593.3503916254438
 20
121.6025522370341
 10
-593.363130079203
 20
121.6191578538505
 10
-593.3765520076147
 20
121.6352160779388
 10
-593.3871952985386
 20
121.6470361543175
 10
-593.3982090724144
 20
121.6585118083177
 10
-593.4096294521935
 20
121.6696758435594
 10
-593.4214004495169
 20
121.6804695631099
 10
-593.4377663407721
 20
121.6943852024168
 10
-593.4499652487328
 20
121.7040030401612
 10
-593.4624569498941
 20
121.7132374087176
 10
-593.475279700345
 20
121.722112803897
 10
-593.488372901718
 20
121.7305841466924
 10
-593.506463338045
 20
121.7413693684429
 10
-593.5250252066126
 20
121.7514004147953
 10
-593.5442364345405
 20
121.7607514662558
 10
-593.5638657659368
 20
121.7692882260168
 10
-593.5839165612358
 20
121.7770039146868
 10
-593.5986133083
 20
121.7820432099972
 10
-593.6134594611958
 20
121.7866236703789
 10
-593.6284992357346
 20
121.7907557500799
 10
-593.6436605169256
 20
121.7944169595688
 10
-593.6643040575062
 20
121.798607843469
 10
-593.6851428991838
 20
121.8019308683838
 10
-593.7063695365802
 20
121.8043971417251
 10
-593.7277212426478
 20
121.8059564511045
 10
-593.7491989458503
 20
121.8066012751651
 10
-593.7739981420631
 20
121.8061978555449
 10
-593.7988078702377
 20
121.804559974476
210
0.0
220
0.0
230
-1.0
  0
ARC
  5
1B8
330
1F
100
AcDbEntity
  8
0
  6
CONTINUOUS
 62
     7
100
AcDbCircle
 10
595.0000000000229
 20
135.0000000002254
 30
0.0
 40
13.2500000009999
100
AcDbArc
 50
264.7986520339154
 51
264.8198617988371
  0
ARC
  5
1B9
330
1F
100
AcDbEntity
  8
0
  6
CONTINUOUS
 62
     7
100
AcDbCircle
 10
595.0
 20
135.0000000009765
 30
0.0
 40
15.05
100
AcDbArc
 50
253.3239253894049
 51
262.2791226110251
  0
ARC
  5
1BA
330
1F
100
AcDbEntity
  8
0
  6
CONTINUOUS
 62
     7
100
AcDbCircle
 10
595.0
 20
135.0000000009765
 30
0.0
 40
15.04999999999998
100
AcDbArc
 50
229.3239253908085
 51
238.2791226124278
  0
ARC
  5
1BB
330
1F
100
AcDbEntity
  8
0
  6
CONTINUOUS
 62
     7
100
AcDbCircle
 10
595.0
 20
135.0000000009765
 30
0.0
 40
15.05000000000004
100
AcDbArc
 50
205.3239253918339
 51
214.2791226134519
  0
ARC
  5
1BC
330
1F
100
AcDbEntity
  8
0
  6
CONTINUOUS
 62
     7
100
AcDbCircle
 10
595.0
 20
135.0000000009765
 30
0.0
 40
15.04999999999998
100
AcDbArc
 50
181.3239253923034
 51
190.2791226139208
  0
ARC
  5
1BD
330
1F
100
AcDbEntity
  8
0
  6
CONTINUOUS
 62
     7
100
AcDbCircle
 10
595.0
 20
135.0000000009765
 30
0.0
 40
15.04999999999996
100
AcDbArc
 50
157.3239253921358
 51
166.2791226137535
  0
ARC
  5
1BE
330
1F
100
AcDbEntity
  8
0
  6
CONTINUOUS
 62
     7
100
AcDbCircle
 10
595.0
 20
135.0000000009765
 30
0.0
 40
15.05000000000003
100
AcDbArc
 50
133.3239253913603
 51
142.279122612979
  0
ARC
  5
1BF
330
1F
100
AcDbEntity
  8
0
  6
CONTINUOUS
 62
     7
100
AcDbCircle
 10
595.0
 20
135.0000000009765
 30
0.0
 40
15.04999999999998
100
AcDbArc
 50
109.3239253901109
 51
118.2791226117308
  0
ARC
  5
1C0
330
1F
100
AcDbEntity
  8
0
  6
CONTINUOUS
 62
     7
100
AcDbCircle
 10
595.0
 20
135.0000000009765
 30
0.0
 40
15.05
100
AcDbArc
 50
85.03586572463558
 51
94.56741629563071
  0
ARC
  5
1C1
330
1F
100
AcDbEntity
  8
0
  6
CONTINUOUS
 62
     7
100
AcDbCircle
 10
595.0
 20
135.0000000009765
 30
0.0
 40
15.05
100
AcDbArc
 50
61.32392538710076
 51
70.27912260872068
  0
ARC
  5
1C2
330
1F
100
AcDbEntity
  8
0
  6
CONTINUOUS
 62
     7
100
AcDbCircle
 10
595.0
 20
135.0000000009765
 30
0.0
 40
15.04999999999997
100
AcDbArc
 50
37.32392538586026
 51
46.27912260747905
  0
ARC
  5
1C3
330
1F
100
AcDbEntity
  8
0
  6
CONTINUOUS
 62
     7
100
AcDbCircle
 10
595.0
 20
135.0000000009765
 30
0.0
 40
15.05000000000001
100
AcDbArc
 50
13.32392538509708
 51
22.27912260671468
  0
ARC
  5
1C4
330
1F
100
AcDbEntity
  8
0
  6
CONTINUOUS
 62
     7
100
AcDbCircle
 10
595.0
 20
135.0000000009765
 30
0.0
 40
15.05000000000003
100
AcDbArc
 50
349.3239253849428
 51
358.2791226065601
  0
ARC
  5
1C5
330
1F
100
AcDbEntity
  8
0
  6
CONTINUOUS
 62
     7
100
AcDbCircle
 10
595.0
 20
135.0000000009765
 30
0.0
 40
15.05
100
AcDbArc
 50
325.323925385424
 51
334.2791226070422
  0
ARC
  5
1C6
330
1F
100
AcDbEntity
  8
0
  6
CONTINUOUS
 62
     7
100
AcDbCircle
 10
595.0
 20
135.0000000009765
 30
0.0
 40
15.04999999999999
100
AcDbArc
 50
301.3239253864579
 51
310.2791226080772
  0
ARC
  5
1C7
330
1F
100
AcDbEntity
  8
0
  6
CONTINUOUS
 62
     7
100
AcDbCircle
 10
595.0
 20
135.0000000009765
 30
0.0
 40
15.04999999999999
100
AcDbArc
 50
277.323925387866
 51
286.2791226094862
  0
CIRCLE
  5
1C8
330
1F
100
AcDbEntity
  8
0
  6
CONTINUOUS
 62
     7
100
AcDbCircle
 10
595.0
 20
135.0000000001306
 30
0.0
 40
12.9
  0
ARC
  5
1C9
330
1F
100
AcDbEntity
  8
0
  6
CONTINUOUS
 62
     7
100
AcDbCircle
 10
594.9999999989767
 20
135.0000000010233
 30
0.0
 40
15.75000000000004
100
AcDbArc
 50
180.0
 51
225.0
  0
ARC
  5
1CA
330
1F
100
AcDbEntity
  8
0
  6
CONTINUOUS
 62
     7
100
AcDbCircle
 10
594.9999999989767
 20
135.0000000010233
 30
0.0
 40
15.75000000000001
100
AcDbArc
 50
225.0
 51
180.0
  0
ARC
  5
1CB
330
1F
100
AcDbEntity
  8
0
  6
CONTINUOUS
 62
     7
100
AcDbCircle
 10
594.9999999991646
 20
135.0000000008354
 30
0.0
 40
23.00000000000003
100
AcDbArc
 50
168.3377102707015
 51
191.6622897292994
  0
ARC
  5
1CC
330
1F
100
AcDbEntity
  8
0
  6
CONTINUOUS
 62
     7
100
AcDbCircle
 10
594.9999999991646
 20
135.0000000008354
 30
0.0
 40
23.0
100
AcDbArc
 50
123.3377102707009
 51
146.6622897292991
  0
ARC
  5
1CD
330
1F
100
AcDbEntity
  8
0
  6
CONTINUOUS
 62
     7
100
AcDbCircle
 10
594.9999999991646
 20
135.0000000008354
 30
0.0
 40
22.99999999999997
100
AcDbArc
 50
78.33771027070067
 51
101.6622897292985
  0
ARC
  5
1CE
330
1F
100
AcDbEntity
  8
0
  6
CONTINUOUS
 62
     7
100
AcDbCircle
 10
594.9999999991646
 20
135.0000000008354
 30
0.0
 40
22.99999999999997
100
AcDbArc
 50
33.33771027070125
 51
56.66228972929881
  0
ARC
  5
1CF
330
1F
100
AcDbEntity
  8
0
  6
CONTINUOUS
 62
     7
100
AcDbCircle
 10
594.9999999991646
 20
135.0000000008354
 30
0.0
 40
22.99999999999992
100
AcDbArc
 50
348.3377102707015
 51
11.6622897292994
  0
ARC
  5
1D0
330
1F
100
AcDbEntity
  8
0
  6
CONTINUOUS
 62
     7
100
AcDbCircle
 10
594.9999999991646
 20
135.0000000008354
 30
0.0
 40
23.0
100
AcDbArc
 50
303.3377102707009
 51
326.6622897292991
  0
ARC
  5
1D1
330
1F
100
AcDbEntity
  8
0
  6
CONTINUOUS
 62
     7
100
AcDbCircle
 10
594.9999999991646
 20
135.0000000008354
 30
0.0
 40
23.00000000000002
100
AcDbArc
 50
258.3377102707007
 51
281.6622897292985
  0
ARC
  5
1D2
330
1F
100
AcDbEntity
  8
0
  6
CONTINUOUS
 62
     7
100
AcDbCircle
 10
594.9999999991646
 20
135.0000000008354
 30
0.0
 40
23.00000000000006
100
AcDbArc
 50
213.3377102707012
 51
236.6622897292987
  0
ARC
  5
1D3
330
1F
100
AcDbEntity
  8
0
  6
CONTINUOUS
 62
     7
100
AcDbCircle
 10
594.9999999999975
 20
135.0000000000024
 30
0.0
 40
23.50000000000001
100
AcDbArc
 50
180.0000000000059
 51
45.0
  0
ARC
  5
1D4
330
1F
100
AcDbEntity
  8
0
  6
CONTINUOUS
 62
     7
100
AcDbCircle
 10
594.9999999999975
 20
135.0000000000024
 30
0.0
 40
23.49999999999996
100
AcDbArc
 50
45.0
 51
180.0000000000059
  0
ARC
  5
1D5
330
1F
100
AcDbEntity
  8
0
  6
CONTINUOUS
 62
     7
100
AcDbCircle
 10
595.0
 20
135.0
 30
0.0
 40
23.49999999999996
100
AcDbArc
 50
45.00000000000829
 51
180.0
  0
ARC
  5
1D6
330
1F
100
AcDbEntity
  8
0
  6
CONTINUOUS
 62
     7
100
AcDbCircle
 10
595.0
 20
135.0
 30
0.0
 40
23.5
100
AcDbArc
 50
180.0
 51
45.00000000000829
  0
ARC
  5
1D7
330
1F
100
AcDbEntity
  8
0
  6
CONTINUOUS
 62
     7
100
AcDbCircle
 10
595.0
 20
135.0
 30
0.0
 40
11.25000000000001
100
AcDbArc
 50
191.3077294341373
 51
258.6922705658625
  0
ARC
  5
1D8
330
1F
100
AcDbEntity
  8
0
  6
CONTINUOUS
 62
     7
100
AcDbCircle
 10
595.0
 20
135.0
 30
0.0
 40
11.25000000000001
100
AcDbArc
 50
101.3077294341374
 51
168.6922705658627
  0
ARC
  5
1D9
330
1F
100
AcDbEntity
  8
0
  6
CONTINUOUS
 62
     7
100
AcDbCircle
 10
582.4975002499499
 20
137.5
 30
0.0
 40
1.500000000000025
100
AcDbArc
 50
270.0
 51
348.6922705658626
  0
ARC
  5
1DA
330
1F
100
AcDbEntity
  8
0
  6
CONTINUOUS
 62
     7
100
AcDbCircle
 10
582.4975002499499
 20
132.5
 30
0.0
 40
1.500000000000001
100
AcDbArc
 50
11.30772943413734
 51
90.0
  0
LINE
  5
1DB
330
1F
100
AcDbEntity
  8
0
  6
CONTINUOUS
 62
     7
100
AcDbLine
 10
582.4975002499499
 20
136.0
 30
0.0
 11
582.2824985570649
 21
136.0
 31
0.0
  0
LINE
  5
1DC
330
1F
100
AcDbEntity
  8
0
  6
CONTINUOUS
 62
     7
100
AcDbLine
 10
582.1388180947407
 20
136.0
 30
0.0
 11
582.2824985570649
 21
136.0
 31
0.0
  0
LINE
  5
1DD
330
1F
100
AcDbEntity
  8
0
  6
CONTINUOUS
 62
     7
100
AcDbLine
 10
582.2824985570649
 20
134.0
 30
0.0
 11
582.1388180947611
 21
134.0
 31
0.0
  0
LINE
  5
1DE
330
1F
100
AcDbEntity
  8
0
  6
CONTINUOUS
 62
     7
100
AcDbLine
 10
582.2824985570649
 20
134.0
 30
0.0
 11
582.4975002499499
 21
134.0
 31
0.0
  0
ARC
  5
1DF
330
1F
100
AcDbEntity
  8
0
  6
CONTINUOUS
 62
     7
100
AcDbCircle
 10
592.4999999999999
 20
147.50249975005
 30
0.0
 40
1.500000000000057
100
AcDbArc
 50
281.3077294341374
 51
0.0
  0
ARC
  5
1E0
330
1F
100
AcDbEntity
  8
0
  6
CONTINUOUS
 62
     7
100
AcDbCircle
 10
592.4999999999999
 20
122.49750024995
 30
0.0
 40
1.500000000000009
100
AcDbArc
 50
0.0
 51
78.69227056586254
  0
ARC
  5
1E1
330
1F
100
AcDbEntity
  8
0
  6
CONTINUOUS
 62
     7
100
AcDbCircle
 10
595.0
 20
135.0
 30
0.0
 40
11.25000000000001
100
AcDbArc
 50
11.30772943413733
 51
78.6922705658627
  0
ARC
  5
1E2
330
1F
100
AcDbEntity
  8
0
  6
CONTINUOUS
 62
     7
100
AcDbCircle
 10
595.0
 20
135.0
 30
0.0
 40
11.25000000000001
100
AcDbArc
 50
281.3077294341373
 51
348.6922705658627
  0
LINE
  5
1E3
330
1F
100
AcDbEntity
  8
0
  6
CONTINUOUS
 62
     7
100
AcDbLine
 10
594.0
 20
122.49750024995
 30
0.0
 11
594.0
 21
122.2824985570648
 31
0.0
  0
LINE
  5
1E4
330
1F
100
AcDbEntity
  8
0
  6
CONTINUOUS
 62
     7
100
AcDbLine
 10
594.0
 20
122.138818094886
 30
0.0
 11
594.0
 21
122.2824985570648
 31
0.0
  0
LINE
  5
1E5
330
1F
100
AcDbEntity
  8
0
  6
CONTINUOUS
 62
     7
100
AcDbLine
 10
594.0
 20
147.7175014429351
 30
0.0
 11
594.0
 21
147.8611819053751
 31
0.0
  0
LINE
  5
1E6
330
1F
100
AcDbEntity
  8
0
  6
CONTINUOUS
 62
     7
100
AcDbLine
 10
594.0
 20
147.7175014429351
 30
0.0
 11
594.0
 21
147.50249975005
 31
0.0
  0
LINE
  5
1E7
330
1F
100
AcDbEntity
  8
0
  6
CONTINUOUS
 62
     7
100
AcDbLine
 10
596.0
 20
122.2824985570648
 30
0.0
 11
596.0
 21
122.138818094886
 31
0.0
  0
LINE
  5
1E8
330
1F
100
AcDbEntity
  8
0
  6
CONTINUOUS
 62
     7
100
AcDbLine
 10
596.0
 20
122.2824985570648
 30
0.0
 11
596.0
 21
122.49750024995
 31
0.0
  0
ARC
  5
1E9
330
1F
100
AcDbEntity
  8
0
  6
CONTINUOUS
 62
     7
100
AcDbCircle
 10
597.4999999999999
 20
147.50249975005
 30
0.0
 40
1.499999999999987
100
AcDbArc
 50
180.0
 51
258.6922705658627
  0
LINE
  5
1EA
330
1F
100
AcDbEntity
  8
0
  6
CONTINUOUS
 62
     7
100
AcDbLine
 10
596.0
 20
147.50249975005
 30
0.0
 11
596.0
 21
147.7175014429352
 31
0.0
  0
LINE
  5
1EB
330
1F
100
AcDbEntity
  8
0
  6
CONTINUOUS
 62
     7
100
AcDbLine
 10
596.0
 20
147.8611819053752
 30
0.0
 11
596.0
 21
147.7175014429352
 31
0.0
  0
ARC
  5
1EC
330
1F
100
AcDbEntity
  8
0
  6
CONTINUOUS
 62
     7
100
AcDbCircle
 10
597.4999999999999
 20
122.49750024995
 30
0.0
 40
1.499999999999946
100
AcDbArc
 50
101.3077294341373
 51
180.0
  0
ARC
  5
1ED
330
1F
100
AcDbEntity
  8
0
  6
CONTINUOUS
 62
     7
100
AcDbCircle
 10
607.50249975005
 20
137.5
 30
0.0
 40
1.500000000000001
100
AcDbArc
 50
191.3077294341374
 51
270.0
  0
ARC
  5
1EE
330
1F
100
AcDbEntity
  8
0
  6
CONTINUOUS
 62
     7
100
AcDbCircle
 10
607.50249975005
 20
132.5
 30
0.0
 40
1.500000000000025
100
AcDbArc
 50
90.0
 51
168.6922705658626
  0
LINE
  5
1EF
330
1F
100
AcDbEntity
  8
0
  6
CONTINUOUS
 62
     7
100
AcDbLine
 10
607.7175014429351
 20
136.0
 30
0.0
 11
607.8611819052592
 21
136.0
 31
0.0
  0
LINE
  5
1F0
330
1F
100
AcDbEntity
  8
0
  6
CONTINUOUS
 62
     7
100
AcDbLine
 10
607.7175014429351
 20
136.0
 30
0.0
 11
607.50249975005
 21
136.0
 31
0.0
  0
LINE
  5
1F1
330
1F
100
AcDbEntity
  8
0
  6
CONTINUOUS
 62
     7
100
AcDbLine
 10
607.50249975005
 20
134.0
 30
0.0
 11
607.7175014429351
 21
134.0
 31
0.0
  0
LINE
  5
1F2
330
1F
100
AcDbEntity
  8
0
  6
CONTINUOUS
 62
     7
100
AcDbLine
 10
607.8611819052388
 20
134.0
 30
0.0
 11
607.7175014429351
 21
134.0
 31
0.0
  0
ARC
  5
1F3
330
1F
100
AcDbEntity
  8
0
  6
CONTINUOUS
 62
     7
100
AcDbCircle
 10
595.0
 20
135.0
 30
0.0
 40
12.7567567567567
100
AcDbArc
 50
175.5039808655698
 51
184.4960191344302
  0
ARC
  5
1F4
330
1F
100
AcDbEntity
  8
0
  6
CONTINUOUS
 62
     7
100
AcDbCircle
 10
595.0
 20
135.0
 30
0.0
 40
12.75675675675673
100
AcDbArc
 50
85.50398086556989
 51
94.49601913443036
  0
ARC
  5
1F5
330
1F
100
AcDbEntity
  8
0
  6
CONTINUOUS
 62
     7
100
AcDbCircle
 10
595.0
 20
135.0
 30
0.0
 40
12.75675675675674
100
AcDbArc
 50
265.5039808655697
 51
274.4960191344302
  0
ARC
  5
1F6
330
1F
100
AcDbEntity
  8
0
  6
CONTINUOUS
 62
     7
100
AcDbCircle
 10
595.0
 20
135.0
 30
0.0
 40
12.7567567567567
100
AcDbArc
 50
355.5039808655697
 51
4.496019134430185
  0
CIRCLE
  5
1F7
330
1F
100
AcDbEntity
  8
0
  6
CONTINUOUS
 62
     7
100
AcDbCircle
 10
595.0
 20
135.0
 30
0.0
 40
11.00000000000001
  0
CIRCLE
  5
1F8
330
1F
100
AcDbEntity
  8
0
  6
CONTINUOUS
 62
     7
100
AcDbCircle
 10
365.0
 20
135.0
 30
0.0
 40
20.85000000000001
  0
CIRCLE
  5
1F9
330
1F
100
AcDbEntity
  8
0
  6
CONTINUOUS
 62
     7
100
AcDbCircle
 10
365.0
 20
135.0
 30
0.0
 40
24.99999999999999
  0
CIRCLE
  5
1FA
330
1F
100
AcDbEntity
  8
0
  6
CONTINUOUS
 62
     7
100
AcDbCircle
 10
365.0
 20
135.0
 30
0.0
 40
14.00000000000001
  0
CIRCLE
  5
1FB
330
1F
100
AcDbEntity
  8
0
  6
CONTINUOUS
 62
     7
100
AcDbCircle
 10
365.0
 20
135.0
 30
0.0
 40
11.00000000000001
  0
MTEXT
  5
1FC
330
1F
100
AcDbEntity
  8
0
 62
     4
100
AcDbMText
 10
470.2110166312368
 20
92.37160185069402
 30
0.0
 40
3.0
 41
0.0
 71
     1
 72
     1
  1
{\fＭＳ ゴシック;FEKH-20BA}
  0
LINE
  5
1FD
330
1F
100
AcDbEntity
  8
0
  6
CENTER
 62
     1
100
AcDbLine
 10
337.9999999999999
 20
135.0
 30
0.0
 11
392.0
 21
135.0
 31
0.0
  0
LINE
  5
1FF
330
1F
100
AcDbEntity
  8
0
  6
CENTER
 62
     1
100
AcDbLine
 10
567.9999999999999
 20
135.0
 30
0.0
 11
622.0
 21
135.0
 31
0.0
  0
LINE
  5
200
330
1F
100
AcDbEntity
  8
0
  6
CENTER
 62
     1
100
AcDbLine
 10
410.5499999994538
 20
135.0
 30
0.0
 11
549.4500000002263
 21
135.0
 31
0.0
  0
LINE
  5
201
330
1F
100
AcDbEntity
  8
0
  6
CENTER
 62
     1
100
AcDbLine
 10
595.0
 20
108.0
 30
0.0
 11
595.0
 21
162.0
 31
0.0
  0
LINE
  5
202
330
1F
100
AcDbEntity
  8
0
  6
CENTER
 62
     1
100
AcDbLine
 10
365.0
 20
108.0
 30
0.0
 11
365.0
 21
162.0
 31
0.0
  0
ENDSEC
  0
SECTION
  2
OBJECTS
  0
DICTIONARY
  5
C
330
0
100
AcDbDictionary
  3
ACAD_GROUP
350
D
  3
ACAD_LAYOUT
350
1A
  3
ACAD_MATERIAL
350
43
  3
ACAD_MLEADERSTYLE
350
6B
  3
ACAD_MLINESTYLE
350
17
  3
ACAD_PLOTSETTINGS
350
19
  3
ACAD_SCALELIST
350
47
  3
ACAD_VISUALSTYLE
350
2A
  3
ACDBHEADERROUNDTRIPXREC
350
203
  3
ACDBVARIABLEDICTIONARY
350
224
  0
DICTIONARY
  5
22B
330
8
100
AcDbDictionary
280
     1
  3
ACAD_XREC_ROUNDTRIP
360
22C
  0
DICTIONARY
  5
D
102
{ACAD_REACTORS
330
C
102
}
330
C
100
AcDbDictionary
  0
DICTIONARY
  5
1A
102
{ACAD_REACTORS
330
C
102
}
330
C
100
AcDbDictionary
  0
DICTIONARY
  5
43
102
{ACAD_REACTORS
330
C
102
}
330
C
100
AcDbDictionary
  3
BYBLOCK
350
45
  3
BYLAYER
350
44
  3
GLOBAL
350
46
  0
DICTIONARY
  5
6B
102
{ACAD_REACTORS
330
C
102
}
330
C
100
AcDbDictionary
  3
STANDARD
350
6C
  0
DICTIONARY
  5
17
102
{ACAD_REACTORS
330
C
102
}
330
C
100
AcDbDictionary
  3
STANDARD
350
18
  0
DICTIONARY
  5
19
102
{ACAD_REACTORS
330
C
102
}
330
C
100
AcDbDictionary
  0
DICTIONARY
  5
47
102
{ACAD_REACTORS
330
C
102
}
330
C
100
AcDbDictionary
  3
A0
350
48
  3
A1
350
49
  3
A2
350
4A
  3
A3
350
4B
  3
A4
350
4C
  3
A5
350
4D
  3
A6
350
4E
  3
A7
350
4F
  3
A8
350
50
  3
A9
350
51
  3
B0
350
52
  3
B1
350
53
  3
B2
350
54
  3
B3
350
55
  3
B4
350
56
  3
B5
350
57
  3
B6
350
58
  3
B7
350
59
  3
B8
350
5A
  3
B9
350
5B
  3
C0
350
5C
  3
C1
350
5D
  3
C2
350
5E
  3
C3
350
5F
  3
C4
350
60
  3
C5
350
61
  3
C6
350
62
  3
C7
350
63
  3
C8
350
64
  3
C9
350
65
  3
D0
350
66
  3
D1
350
67
  3
D2
350
68
  0
DICTIONARY
  5
2A
102
{ACAD_REACTORS
330
C
102
}
330
C
100
AcDbDictionary
  3
2DWIREFRAME
350
2F
  3
BASIC
350
32
  3
BRIGHTEN
350
36
  3
COLORCHANGE
350
3A
  3
CONCEPTUAL
350
34
  3
DIM
350
35
  3
EDGECOLOROFF
350
3D
  3
FACEPATTERN
350
39
  3
FLAT
350
2B
  3
FLATWITHEDGES
350
2C
  3
GOURAUD
350
2D
  3
GOURAUDWITHEDGES
350
2E
  3
HIDDEN
350
31
  3
JITTEROFF
350
3B
  3
LINEPATTERN
350
38
  3
OVERHANGOFF
350
3C
  3
REALISTIC
350
33
  3
SHADED
350
42
  3
SHADED_WITH_EDGES
350
41
  3
SHADES_OF_GRAY
350
3E
  3
SKETCHY
350
3F
  3
THICKEN
350
37
  3
WIREFRAME
350
30
  3
X-RAY
350
40
  0
DICTIONARY
  5
203
102
{ACAD_REACTORS
330
C
102
}
330
C
100
AcDbDictionary
  3
CEPSNID
350
20D
  3
CEPSNTYPE
350
20C
  3
DIMSTYLEDATA
350
223
  3
FINGERPRINTGUID
350
20E
  3
HYPERLINKBASE
350
206
  3
INSUNITS
350
20B
  3
LAYOUTDICT
350
208
  3
LWETCUNION
350
20A
  3
PLOTSETDICT
350
209
  3
PSVPSCALE
350
210
  3
PUCSBASE
350
213
  3
PUCSORGBACK
350
219
  3
PUCSORGBOTTOM
350
215
  3
PUCSORGFRONT
350
218
  3
PUCSORGLEFT
350
216
  3
PUCSORGRIGHT
350
217
  3
PUCSORGTOP
350
214
  3
PUCSORTHOREF
350
211
  3
PUCSORTHOVIEW
350
212
  3
STYLESHEET
350
207
  3
TSTACKALIGN
350
204
  3
TSTACKSIZE
350
205
  3
UCSBASE
350
21C
  3
UCSORGBACK
350
222
  3
UCSORGBOTTOM
350
21E
  3
UCSORGFRONT
350
221
  3
UCSORGLEFT
350
21F
  3
UCSORGRIGHT
350
220
  3
UCSORGTOP
350
21D
  3
UCSORTHOREF
350
21A
  3
UCSORTHOVIEW
350
21B
  3
VERSIONGUID
350
20F
  0
DICTIONARY
  5
224
102
{ACAD_REACTORS
330
C
102
}
330
C
100
AcDbDictionary
  3
CANNOSCALE
350
22D
  3
CMLEADERSTYLE
350
226
  3
CTABLESTYLE
350
225
  3
DIMASSOC
350
229
  3
HIDETEXT
350
22A
  3
MSLTSCALE
350
22E
  0
XRECORD
  5
22C
102
{ACAD_REACTORS
330
22B
102
}
330
22B
100
AcDbXrecord
102
VTR_0.000_0.000_1.000_1.000_VISUALSTYLE
340
2F
102
VTR_0.000_0.000_1.000_1.000_GRIDDISPLAY
 70
     3
102
VTR_0.000_0.000_1.000_1.000_GRIDMAJOR
 70
     5
102
VTR_0.000_0.000_1.000_1.000_DEFAULTLIGHTING
280
     1
102
VTR_0.000_0.000_1.000_1.000_DEFAULTLIGHTINGTYPE
 70
     1
102
VTR_0.000_0.000_1.000_1.000_BRIGHTNESS
141
0.0
102
VTR_0.000_0.000_1.000_1.000_CONTRAST
142
0.0
  0
MATERIAL
  5
45
102
{ACAD_REACTORS
330
43
102
}
102
{ACAD_XDICTIONARY
360
231
102
}
330
43
100
AcDbMaterial
  1
BYBLOCK
  0
MATERIAL
  5
44
102
{ACAD_REACTORS
330
43
102
}
102
{ACAD_XDICTIONARY
360
22F
102
}
330
43
100
AcDbMaterial
  1
BYLAYER
  0
MATERIAL
  5
46
102
{ACAD_REACTORS
330
43
102
}
102
{ACAD_XDICTIONARY
360
233
102
}
330
43
100
AcDbMaterial
  1
GLOBAL
  0
ACAD_PROXY_OBJECT
  5
6C
102
{ACAD_REACTORS
330
6B
102
}
330
6B
100
AcDbProxyObject
 90
      499
 91
      505
 93
      610
310
40901902A4063FBFFFFFE056BD1B81E855B9FC0AD7A3703D0AD73F4214DD185B99185C9900AD7A3703D0AC73F90141901A02B5E8DC0F42B1CFC02B5E8DC0F42B1CFE5764000000000000300FC0
340
14
340
0
340
11
340
0
 94
        0
1001
ACAD_MLEADERVER
1070
     2
  0
MLINESTYLE
  5
18
102
{ACAD_REACTORS
330
17
102
}
330
17
100
AcDbMlineStyle
  2
Standard
 70
     0
  3

 62
   256
 51
90.0
 52
90.0
 71
     2
 49
0.5
 62
   256
  6
BYLAYER
 49
-0.5
 62
   256
  6
BYLAYER
  0
ACAD_PROXY_OBJECT
  5
48
102
{ACAD_REACTORS
330
47
102
}
330
47
100
AcDbProxyObject
 90
      499
 91
      503
 93
       41
310
903313A31580
  0
ACAD_PROXY_OBJECT
  5
49
102
{ACAD_REACTORS
330
47
102
}
330
47
100
AcDbProxyObject
 90
      499
 91
      503
 93
      105
310
903313A324000000000000004000
  0
ACAD_PROXY_OBJECT
  5
4A
102
{ACAD_REACTORS
330
47
102
}
330
47
100
AcDbProxyObject
 90
      499
 91
      503
 93
      105
310
903313A344000000000000104000
  0
ACAD_PROXY_OBJECT
  5
4B
102
{ACAD_REACTORS
330
47
102
}
330
47
100
AcDbProxyObject
 90
      499
 91
      503
 93
      105
310
903313A354000000000000144000
  0
ACAD_PROXY_OBJECT
  5
4C
102
{ACAD_REACTORS
330
47
102
}
330
47
100
AcDbProxyObject
 90
      499
 91
      503
 93
      105
310
903313A384000000000000204000
  0
ACAD_PROXY_OBJECT
  5
4D
102
{ACAD_REACTORS
330
47
102
}
330
47
100
AcDbProxyObject
 90
      499
 91
      503
 93
      113
310
904313A31304000000000000244000
  0
ACAD_PROXY_OBJECT
  5
4E
102
{ACAD_REACTORS
330
47
102
}
330
47
100
AcDbProxyObject
 90
      499
 91
      503
 93
      113
310
904313A31364000000000000304000
  0
ACAD_PROXY_OBJECT
  5
4F
102
{ACAD_REACTORS
330
47
102
}
330
47
100
AcDbProxyObject
 90
      499
 91
      503
 93
      113
310
904313A32304000000000000344000
  0
ACAD_PROXY_OBJECT
  5
50
102
{ACAD_REACTORS
330
47
102
}
330
47
100
AcDbProxyObject
 90
      499
 91
      503
 93
      113
310
904313A333040000000000003E4000
  0
ACAD_PROXY_OBJECT
  5
51
102
{ACAD_REACTORS
330
47
102
}
330
47
100
AcDbProxyObject
 90
      499
 91
      503
 93
      113
310
904313A34304000000000000444000
  0
ACAD_PROXY_OBJECT
  5
52
102
{ACAD_REACTORS
330
47
102
}
330
47
100
AcDbProxyObject
 90
      499
 91
      503
 93
      113
310
904313A35304000000000000494000
  0
ACAD_PROXY_OBJECT
  5
53
102
{ACAD_REACTORS
330
47
102
}
330
47
100
AcDbProxyObject
 90
      499
 91
      503
 93
      121
310
905313A3130304000000000000594000
  0
ACAD_PROXY_OBJECT
  5
54
102
{ACAD_REACTORS
330
47
102
}
330
47
100
AcDbProxyObject
 90
      499
 91
      503
 93
      105
310
903323A310000000000000010100
  0
ACAD_PROXY_OBJECT
  5
55
102
{ACAD_REACTORS
330
47
102
}
330
47
100
AcDbProxyObject
 90
      499
 91
      503
 93
      105
310
903343A310000000000000410100
  0
ACAD_PROXY_OBJECT
  5
56
102
{ACAD_REACTORS
330
47
102
}
330
47
100
AcDbProxyObject
 90
      499
 91
      503
 93
      105
310
903383A310000000000000810100
  0
ACAD_PROXY_OBJECT
  5
57
102
{ACAD_REACTORS
330
47
102
}
330
47
100
AcDbProxyObject
 90
      499
 91
      503
 93
      113
310
90431303A310000000000000910100
  0
ACAD_PROXY_OBJECT
  5
58
102
{ACAD_REACTORS
330
47
102
}
330
47
100
AcDbProxyObject
 90
      499
 91
      503
 93
      121
310
9053130303A310000000000001650100
  0
ACAD_PROXY_OBJECT
  5
59
102
{ACAD_REACTORS
330
47
102
}
330
47
100
AcDbProxyObject
 90
      499
 91
      503
 93
      257
310
90E312F31323822203D2031272D3022000000000000200FC000000000000284000
  0
ACAD_PROXY_OBJECT
  5
5A
102
{ACAD_REACTORS
330
47
102
}
330
47
100
AcDbProxyObject
 90
      499
 91
      503
 93
      249
310
90D312F363422203D2031272D3022000000000000240FC000000000000284000
  0
ACAD_PROXY_OBJECT
  5
5B
102
{ACAD_REACTORS
330
47
102
}
330
47
100
AcDbProxyObject
 90
      499
 91
      503
 93
      249
310
90D312F333222203D2031272D3022000000000000280FC000000000000284000
  0
ACAD_PROXY_OBJECT
  5
5C
102
{ACAD_REACTORS
330
47
102
}
330
47
100
AcDbProxyObject
 90
      499
 91
      503
 93
      249
310
90D312F313622203D2031272D30220000000000002C0FC000000000000284000
  0
ACAD_PROXY_OBJECT
  5
5D
102
{ACAD_REACTORS
330
47
102
}
330
47
100
AcDbProxyObject
 90
      499
 91
      503
 93
      249
310
90D332F333222203D2031272D30220000000000002E0FC000000000000284000
  0
ACAD_PROXY_OBJECT
  5
5E
102
{ACAD_REACTORS
330
47
102
}
330
47
100
AcDbProxyObject
 90
      499
 91
      503
 93
      241
310
90C312F3822203D2031272D3022000000000000300FC000000000000284000
  0
ACAD_PROXY_OBJECT
  5
5F
102
{ACAD_REACTORS
330
47
102
}
330
47
100
AcDbProxyObject
 90
      499
 91
      503
 93
      249
310
90D332F313622203D2031272D3022000000000000320FC000000000000284000
  0
ACAD_PROXY_OBJECT
  5
60
102
{ACAD_REACTORS
330
47
102
}
330
47
100
AcDbProxyObject
 90
      499
 91
      503
 93
      241
310
90C312F3422203D2031272D3022000000000000340FC000000000000284000
  0
ACAD_PROXY_OBJECT
  5
61
102
{ACAD_REACTORS
330
47
102
}
330
47
100
AcDbProxyObject
 90
      499
 91
      503
 93
      241
310
90C332F3822203D2031272D3022000000000000360FC000000000000284000
  0
ACAD_PROXY_OBJECT
  5
62
102
{ACAD_REACTORS
330
47
102
}
330
47
100
AcDbProxyObject
 90
      499
 91
      503
 93
      241
310
90C312F3222203D2031272D3022000000000000380FC000000000000284000
  0
ACAD_PROXY_OBJECT
  5
63
102
{ACAD_REACTORS
330
47
102
}
330
47
100
AcDbProxyObject
 90
      499
 91
      503
 93
      241
310
90C332F3422203D2031272D30220000000000003A0FC000000000000284000
  0
ACAD_PROXY_OBJECT
  5
64
102
{ACAD_REACTORS
330
47
102
}
330
47
100
AcDbProxyObject
 90
      499
 91
      503
 93
      161
310
90A3122203D2031272D30224000000000000284000
  0
ACAD_PROXY_OBJECT
  5
65
102
{ACAD_REACTORS
330
47
102
}
330
47
100
AcDbProxyObject
 90
      499
 91
      503
 93
      257
310
90E312D312F3222203D2031272D30220000000000003E0FC000000000000284000
  0
ACAD_PROXY_OBJECT
  5
66
102
{ACAD_REACTORS
330
47
102
}
330
47
100
AcDbProxyObject
 90
      499
 91
      503
 93
      225
310
90A3322203D2031272D302200000000000002100000000000000284000
  0
ACAD_PROXY_OBJECT
  5
67
102
{ACAD_REACTORS
330
47
102
}
330
47
100
AcDbProxyObject
 90
      499
 91
      503
 93
      225
310
90A3622203D2031272D302200000000000006100000000000000284000
  0
ACAD_PROXY_OBJECT
  5
68
102
{ACAD_REACTORS
330
47
102
}
330
47
100
AcDbProxyObject
 90
      499
 91
      503
 93
      249
310
90D31272D3022203D2031272D30220000000000000A100000000000000284000
  0
ACAD_PROXY_OBJECT
  5
2F
102
{ACAD_REACTORS
330
2A
102
}
330
2A
100
AcDbProxyObject
 90
      499
 91
      501
 93
      436
310
42CC9915DA5C99599C985B595049028333333333333E33F0000000000000F90107901411070040501600405405064090741402480A0340
1001
ACAD
1000
AcDbSavedByObjectVersion
1070
     0
  0
ACAD_PROXY_OBJECT
  5
32
102
{ACAD_REACTORS
330
2A
102
}
330
2A
100
AcDbProxyObject
 90
      499
 91
      501
 93
      388
310
4150985CDA58D07406404333333333333E33F0000000000000F90107A41107004050150841D405064090741402480A0350
1001
ACAD
1000
AcDbSavedByObjectVersion
1070
     0
  0
ACAD_PROXY_OBJECT
  5
36
102
{ACAD_REACTORS
330
2A
102
}
330
2A
100
AcDbProxyObject
 90
      499
 91
      501
 93
      428
310
42109C9A59DA1D195B90C409028333333333333E33F0000000000000F9010790141107004050150841D405064090741402480A029950
1001
ACAD
1000
AcDbSavedByObjectVersion
1070
     0
  0
ACAD_PROXY_OBJECT
  5
3A
102
{ACAD_REACTORS
330
2A
102
}
330
2A
100
AcDbProxyObject
 90
      499
 91
      501
 93
      452
310
42D0DBDB1BDC90DA185B99D95104090240C333333333333E33F0000000000000F90108901411070040501508421405064090741402480A0350
1001
ACAD
1000
AcDbSavedByObjectVersion
1070
     0
  0
ACAD_PROXY_OBJECT
  5
34
102
{ACAD_REACTORS
330
2A
102
}
330
2A
100
AcDbProxyObject
 90
      499
 91
      501
 93
      500
310
4290DBDB98D95C1D1D585B10940D028333333333333E33F0000000000000F90107902409070040501000000000018199010841D405064090740C02480A0340
1001
ACAD
1000
AcDbSavedByObjectVersion
1070
     0
  0
ACAD_PROXY_OBJECT
  5
35
102
{ACAD_REACTORS
330
2A
102
}
330
2A
100
AcDbProxyObject
 90
      499
 91
      501
 93
      412
310
40D11A5B50B409028333333333333E33F0000000000000F9010790141107004050150841D405064090741402480A02677FFFFFD0
1001
ACAD
1000
AcDbSavedByObjectVersion
1070
     0
  0
ACAD_PROXY_OBJECT
  5
3D
102
{ACAD_REACTORS
330
2A
102
}
330
2A
100
AcDbProxyObject
 90
      499
 91
      501
 93
      452
310
43115919D950DBDB1BDC93D999916409028333333333333E33F0000000000000F9010790141107004050150841D405064090741402480A0350
1001
ACAD
1000
AcDbSavedByObjectVersion
1070
     0
  0
ACAD_PROXY_OBJECT
  5
39
102
{ACAD_REACTORS
330
2A
102
}
330
2A
100
AcDbProxyObject
 90
      499
 91
      501
 93
      444
310
42D19858D95C185D1D195C9B90F409028333333333333E33F0000000000000F9010790141107004050150841D405064090741402480A0350
1001
ACAD
1000
AcDbSavedByObjectVersion
1070
     0
  0
ACAD_PROXY_OBJECT
  5
2B
102
{ACAD_REACTORS
330
2A
102
}
330
2A
100
AcDbProxyObject
 90
      499
 91
      501
 93
      380
310
41119B185D240901404333333333333E33F0000000000000F9010740A907004050150841D405064090741402480A1B50
1001
ACAD
1000
AcDbSavedByObjectVersion
1070
     0
  0
ACAD_PROXY_OBJECT
  5
2C
102
{ACAD_REACTORS
330
2A
102
}
330
2A
100
AcDbProxyObject
 90
      499
 91
      501
 93
      468
310
43519B185D15DA5D1A115919D95CD0140901404333333333333E33F0000000000000F90107409019070040501600405405064090741402480A1B50
1001
ACAD
1000
AcDbSavedByObjectVersion
1070
     0
  0
ACAD_PROXY_OBJECT
  5
2D
102
{ACAD_REACTORS
330
2A
102
}
330
2A
100
AcDbProxyObject
 90
      499
 91
      501
 93
      404
310
41D1DBDD5C985D5910240902404333333333333E33F0000000000000F9010740A9070040501641D405064090741402480A1B50
1001
ACAD
1000
AcDbSavedByObjectVersion
1070
     0
  0
ACAD_PROXY_OBJECT
  5
2E
102
{ACAD_REACTORS
330
2A
102
}
330
2A
100
AcDbProxyObject
 90
      499
 91
      501
 93
      492
310
4411DBDD5C985D5915DA5D1A115919D95CD0340902404333333333333E33F0000000000000F90107409019070040501600405405064090741402480A1B50
1001
ACAD
1000
AcDbSavedByObjectVersion
1070
     0
  0
ACAD_PROXY_OBJECT
  5
31
102
{ACAD_REACTORS
330
2A
102
}
330
2A
100
AcDbProxyObject
 90
      499
 91
      501
 93
      476
310
41921A5919195B90640502408333333333333E33F0000000000000F901079024090700405020000000000001110200405405064090740C02480A0340
1001
ACAD
1000
AcDbSavedByObjectVersion
1070
     0
  0
ACAD_PROXY_OBJECT
  5
3B
102
{ACAD_REACTORS
330
2A
102
}
330
2A
100
AcDbProxyObject
 90
      499
 91
      501
 93
      428
310
42529A5D1D195C93D999914409028333333333333E33F0000000000000F9010790141107004050150A41D405064090741402480A0350
1001
ACAD
1000
AcDbSavedByObjectVersion
1070
     0
  0
ACAD_PROXY_OBJECT
  5
38
102
{ACAD_REACTORS
330
2A
102
}
330
2A
100
AcDbProxyObject
 90
      499
 91
      501
 93
      444
310
42D31A5B995C185D1D195C9B90E409028333333333333E33F0000000000000F9010790141107004050750841D405064090741402483A0350
1001
ACAD
1000
AcDbSavedByObjectVersion
1070
     0
  0
ACAD_PROXY_OBJECT
  5
3C
102
{ACAD_REACTORS
330
2A
102
}
330
2A
100
AcDbProxyObject
 90
      499
 91
      501
 93
      444
310
42D3DD995C9A185B99D3D999915409028333333333333E33F0000000000000F9010790141107004050150941D405064090741402480A0350
1001
ACAD
1000
AcDbSavedByObjectVersion
1070
     0
  0
ACAD_PROXY_OBJECT
  5
33
102
{ACAD_REACTORS
330
2A
102
}
330
2A
100
AcDbProxyObject
 90
      499
 91
      501
 93
      428
310
425499585B1A5CDD1A58D08409038333333333333E33F0000000000000F9010740A907004050150800405405064090740C02480A1B40
1001
ACAD
1000
AcDbSavedByObjectVersion
1070
     0
  0
ACAD_PROXY_OBJECT
  5
42
102
{ACAD_REACTORS
330
2A
102
}
330
2A
100
AcDbProxyObject
 90
      499
 91
      501
 93
      420
310
4194DA1859195911B40902404333333333333E33F0000000000000F9010740A41107004050150800405405064090840C02480A0B40
1001
ACAD
1000
AcDbSavedByObjectVersion
1070
     0
  0
ACAD_PROXY_OBJECT
  5
41
102
{ACAD_REACTORS
330
2A
102
}
330
2A
100
AcDbProxyObject
 90
      499
 91
      501
 93
      516
310
4454DA18591959081DDA5D1A08195919D95CD1A40902404333333333333E33F0000000000000F901074090142907004050250800405405064090740C02480A0B40
1001
ACAD
1000
AcDbSavedByObjectVersion
1070
     0
  0
ACAD_PROXY_OBJECT
  5
3E
102
{ACAD_REACTORS
330
2A
102
}
330
2A
100
AcDbProxyObject
 90
      499
 91
      501
 93
      532
310
4394DA1859195CC81BD98811DC985E5174090240C333333333333E33F0000000000000F901079024090741D01000000000000111010841D405064090740C02480A0340
1001
ACAD
1000
AcDbSavedByObjectVersion
1070
     0
  0
ACAD_PROXY_OBJECT
  5
3F
102
{ACAD_REACTORS
330
2A
102
}
330
2A
100
AcDbProxyObject
 90
      499
 91
      501
 93
      476
310
41D4DAD95D18DA1E51840502408333333333333E33F0000000000000F901079024090741D01000000000000111010B41D405064090741802480A0340
1001
ACAD
1000
AcDbSavedByObjectVersion
1070
     0
  0
ACAD_PROXY_OBJECT
  5
37
102
{ACAD_REACTORS
330
2A
102
}
330
2A
100
AcDbProxyObject
 90
      499
 91
      501
 93
      412
310
41D51A1A58DAD95B90D409028333333333333E33F0000000000000F9010790141107004050150C41D405064090741402480A0350
1001
ACAD
1000
AcDbSavedByObjectVersion
1070
     0
  0
ACAD_PROXY_OBJECT
  5
30
102
{ACAD_REACTORS
330
2A
102
}
330
2A
100
AcDbProxyObject
 90
      499
 91
      501
 93
      420
310
4255DA5C99599C985B595059028333333333333E33F0000000000000F90107901411070040501600405405064090740C02480A0340
1001
ACAD
1000
AcDbSavedByObjectVersion
1070
     0
  0
ACAD_PROXY_OBJECT
  5
40
102
{ACAD_REACTORS
330
2A
102
}
330
2A
100
AcDbProxyObject
 90
      499
 91
      501
 93
      404
310
41560B54985E51940902404000000000000E03F0000000000000F9010740501907004050150841D405064090740C02480A1B40
1001
ACAD
1000
AcDbSavedByObjectVersion
1070
     0
  0
XRECORD
  5
20D
102
{ACAD_REACTORS
330
203
102
}
330
203
100
AcDbXrecord
340
0
  0
XRECORD
  5
20C
102
{ACAD_REACTORS
330
203
102
}
330
203
100
AcDbXrecord
 90
        0
  0
XRECORD
  5
223
102
{ACAD_REACTORS
330
203
102
}
330
203
100
AcDbXrecord
1000
DSTYLE
1002
{
1070
   179
 70
     2
1070
   171
 70
     2
1070
   143
 40
25.4
1070
   274
 70
     2
1070
    41
 40
3.0
1070
   141
 40
0.09
1070
    43
 40
0.38
1070
   278
 70
    46
1070
    44
 40
1.5
1070
    42
 40
0.0625
1070
   147
 40
1.5
1070
   272
 70
     4
1070
    73
 70
     1
1070
   172
 70
     0
1070
    74
 70
     1
1070
   283
 70
     1
1070
   340
340
6E
1070
   140
 40
3.0
1070
   284
 70
     0
1070
    78
 70
     0
1002
}
  0
XRECORD
  5
20E
102
{ACAD_REACTORS
330
203
102
}
330
203
100
AcDbXrecord
  1
{92785E06-22DA-42F5-A7B9-39825F85FB4C}
  0
XRECORD
  5
206
102
{ACAD_REACTORS
330
203
102
}
330
203
100
AcDbXrecord
  1

  0
XRECORD
  5
20B
102
{ACAD_REACTORS
330
203
102
}
330
203
100
AcDbXrecord
 90
        4
  0
XRECORD
  5
208
102
{ACAD_REACTORS
330
203
102
}
330
203
100
AcDbXrecord
340
1A
  0
XRECORD
  5
20A
102
{ACAD_REACTORS
330
203
102
}
330
203
100
AcDbXrecord
 90
    10269
  0
XRECORD
  5
209
102
{ACAD_REACTORS
330
203
102
}
330
203
100
AcDbXrecord
340
19
  0
XRECORD
  5
210
102
{ACAD_REACTORS
330
203
102
}
330
203
100
AcDbXrecord
 40
0.0
  0
XRECORD
  5
213
102
{ACAD_REACTORS
330
203
102
}
330
203
100
AcDbXrecord
340
0
  0
XRECORD
  5
219
102
{ACAD_REACTORS
330
203
102
}
330
203
100
AcDbXrecord
 10
0.0
 20
0.0
 30
0.0
  0
XRECORD
  5
215
102
{ACAD_REACTORS
330
203
102
}
330
203
100
AcDbXrecord
 10
0.0
 20
0.0
 30
0.0
  0
XRECORD
  5
218
102
{ACAD_REACTORS
330
203
102
}
330
203
100
AcDbXrecord
 10
0.0
 20
0.0
 30
0.0
  0
XRECORD
  5
216
102
{ACAD_REACTORS
330
203
102
}
330
203
100
AcDbXrecord
 10
0.0
 20
0.0
 30
0.0
  0
XRECORD
  5
217
102
{ACAD_REACTORS
330
203
102
}
330
203
100
AcDbXrecord
 10
0.0
 20
0.0
 30
0.0
  0
XRECORD
  5
214
102
{ACAD_REACTORS
330
203
102
}
330
203
100
AcDbXrecord
 10
0.0
 20
0.0
 30
0.0
  0
XRECORD
  5
211
102
{ACAD_REACTORS
330
203
102
}
330
203
100
AcDbXrecord
340
0
  0
XRECORD
  5
212
102
{ACAD_REACTORS
330
203
102
}
330
203
100
AcDbXrecord
 70
     0
  0
XRECORD
  5
207
102
{ACAD_REACTORS
330
203
102
}
330
203
100
AcDbXrecord
  1

  0
XRECORD
  5
204
102
{ACAD_REACTORS
330
203
102
}
330
203
100
AcDbXrecord
 90
        1
  0
XRECORD
  5
205
102
{ACAD_REACTORS
330
203
102
}
330
203
100
AcDbXrecord
 90
       70
  0
XRECORD
  5
21C
102
{ACAD_REACTORS
330
203
102
}
330
203
100
AcDbXrecord
340
0
  0
XRECORD
  5
222
102
{ACAD_REACTORS
330
203
102
}
330
203
100
AcDbXrecord
 10
0.0
 20
0.0
 30
0.0
  0
XRECORD
  5
21E
102
{ACAD_REACTORS
330
203
102
}
330
203
100
AcDbXrecord
 10
0.0
 20
0.0
 30
0.0
  0
XRECORD
  5
221
102
{ACAD_REACTORS
330
203
102
}
330
203
100
AcDbXrecord
 10
0.0
 20
0.0
 30
0.0
  0
XRECORD
  5
21F
102
{ACAD_REACTORS
330
203
102
}
330
203
100
AcDbXrecord
 10
0.0
 20
0.0
 30
0.0
  0
XRECORD
  5
220
102
{ACAD_REACTORS
330
203
102
}
330
203
100
AcDbXrecord
 10
0.0
 20
0.0
 30
0.0
  0
XRECORD
  5
21D
102
{ACAD_REACTORS
330
203
102
}
330
203
100
AcDbXrecord
 10
0.0
 20
0.0
 30
0.0
  0
XRECORD
  5
21A
102
{ACAD_REACTORS
330
203
102
}
330
203
100
AcDbXrecord
340
0
  0
XRECORD
  5
21B
102
{ACAD_REACTORS
330
203
102
}
330
203
100
AcDbXrecord
 70
     0
  0
XRECORD
  5
20F
102
{ACAD_REACTORS
330
203
102
}
330
203
100
AcDbXrecord
  1
{FAEB1C32-E019-11D5-929B-00C0DF256EC4}
  0
DICTIONARYVAR
  5
22D
102
{ACAD_REACTORS
330
224
102
}
330
224
100
DictionaryVariables
280
     0
  1
1:1
  0
DICTIONARYVAR
  5
226
102
{ACAD_REACTORS
330
224
102
}
330
224
100
DictionaryVariables
280
     0
  1
Standard
  0
DICTIONARYVAR
  5
225
102
{ACAD_REACTORS
330
224
102
}
330
224
100
DictionaryVariables
280
     0
  1
Standard
  0
DICTIONARYVAR
  5
229
102
{ACAD_REACTORS
330
224
102
}
330
224
100
DictionaryVariables
280
     0
  1
2
  0
DICTIONARYVAR
  5
22A
102
{ACAD_REACTORS
330
224
102
}
330
224
100
DictionaryVariables
280
     0
  1
1
  0
DICTIONARYVAR
  5
22E
102
{ACAD_REACTORS
330
224
102
}
330
224
100
DictionaryVariables
280
     0
  1
1
  0
DICTIONARY
  5
231
330
45
100
AcDbDictionary
280
     1
  3
ACAD_XREC_ROUNDTRIP
360
232
  0
DICTIONARY
  5
22F
330
44
100
AcDbDictionary
280
     1
  3
ACAD_XREC_ROUNDTRIP
360
230
  0
DICTIONARY
  5
233
330
46
100
AcDbDictionary
280
     1
  3
ACAD_XREC_ROUNDTRIP
360
234
  0
XRECORD
  5
232
102
{ACAD_REACTORS
330
231
102
}
330
231
100
AcDbXrecord
102
MATERIAL
148
0.0
149
0.0
149
0.0
 93
        0
 94
      127
282
     0
 72
     1
 77
     1
171
     1
175
     1
179
     1
273
     0
  0
XRECORD
  5
230
102
{ACAD_REACTORS
330
22F
102
}
330
22F
100
AcDbXrecord
102
MATERIAL
148
0.0
149
0.0
149
0.0
 93
        0
 94
      127
282
     0
 72
     1
 77
     1
171
     1
175
     1
179
     1
273
     0
  0
XRECORD
  5
234
102
{ACAD_REACTORS
330
233
102
}
330
233
100
AcDbXrecord
102
MATERIAL
148
0.0
149
0.0
149
0.0
 93
        0
 94
      127
282
     0
 72
     1
 77
     1
171
     1
175
     1
179
     1
273
     0
  0
ENDSEC
  0
EOF
