  0
SECTION
  2
HEADER
  9
$ACADVER
  1
AC1014
  9
$ACADMAINTVER
 70
     9
  9
$DWGCODEPAGE
  3
ANSI_932
  9
$INSBASE
 10
0.0
 20
0.0
 30
0.0
  9
$EXTMIN
 10
-157.5
 20
267.2125109416031
 30
0.0
  9
$EXTMAX
 10
426.788347507249
 20
516.7033803838606
 30
0.0
  9
$LIMMIN
 10
0.0
 20
0.0
  9
$LIMMAX
 10
12.0
 20
9.0
  9
$ORTHOMODE
 70
     0
  9
$REGENMODE
 70
     1
  9
$FILLMODE
 70
     1
  9
$QTEXTMODE
 70
     0
  9
$MIRRTEXT
 70
     1
  9
$DRAGMODE
 70
     2
  9
$LTSCALE
 40
1.0
  9
$OSMODE
 70
    37
  9
$ATTMODE
 70
     1
  9
$TEXTSIZE
 40
0.2
  9
$TRACEWID
 40
0.05
  9
$TEXTSTYLE
  7
STANDARD
  9
$CLAYER
  8
0
  9
$CELTYPE
  6
BYLAYER
  9
$CECOLOR
 62
   256
  9
$CELTSCALE
 40
1.0
  9
$DELOBJ
 70
     1
  9
$DISPSILH
 70
     0
  9
$DIMSCALE
 40
1.0
  9
$DIMASZ
 40
3.0
  9
$DIMEXO
 40
0.0625
  9
$DIMDLI
 40
0.38
  9
$DIMRND
 40
0.0
  9
$DIMDLE
 40
0.0
  9
$DIMEXE
 40
1.5
  9
$DIMTP
 40
0.0
  9
$DIMTM
 40
0.0
  9
$DIMTXT
 40
3.0
  9
$DIMCEN
 40
0.09
  9
$DIMTSZ
 40
0.0
  9
$DIMTOL
 70
     0
  9
$DIMLIM
 70
     0
  9
$DIMTIH
 70
     1
  9
$DIMTOH
 70
     1
  9
$DIMSE1
 70
     0
  9
$DIMSE2
 70
     0
  9
$DIMTAD
 70
     1
  9
$DIMZIN
 70
     0
  9
$DIMBLK
  1

  9
$DIMASO
 70
     1
  9
$DIMSHO
 70
     1
  9
$DIMPOST
  1

  9
$DIMAPOST
  1

  9
$DIMALT
 70
     0
  9
$DIMALTD
 70
     2
  9
$DIMALTF
 40
25.4
  9
$DIMLFAC
 40
1.0
  9
$DIMTOFL
 70
     0
  9
$DIMTVP
 40
0.0
  9
$DIMTIX
 70
     0
  9
$DIMSOXD
 70
     0
  9
$DIMSAH
 70
     0
  9
$DIMBLK1
  1

  9
$DIMBLK2
  1

  9
$DIMSTYLE
  2
STANDARD
  9
$DIMCLRD
 70
     0
  9
$DIMCLRE
 70
     0
  9
$DIMCLRT
 70
     0
  9
$DIMTFAC
 40
1.0
  9
$DIMGAP
 40
1.5
  9
$DIMJUST
 70
     0
  9
$DIMSD1
 70
     0
  9
$DIMSD2
 70
     0
  9
$DIMTOLJ
 70
     1
  9
$DIMTZIN
 70
     0
  9
$DIMALTZ
 70
     0
  9
$DIMALTTZ
 70
     0
  9
$DIMFIT
 70
     3
  9
$DIMUPT
 70
     0
  9
$DIMUNIT
 70
     2
  9
$DIMDEC
 70
     2
  9
$DIMTDEC
 70
     4
  9
$DIMALTU
 70
     2
  9
$DIMALTTD
 70
     2
  9
$DIMTXSTY
  7
ＭＳ_ゴシック
  9
$DIMAUNIT
 70
     0
  9
$LUNITS
 70
     2
  9
$LUPREC
 70
     4
  9
$SKETCHINC
 40
0.1
  9
$FILLETRAD
 40
0.5
  9
$AUNITS
 70
     0
  9
$AUPREC
 70
     0
  9
$MENU
  1
.
  9
$ELEVATION
 40
0.0
  9
$PELEVATION
 40
0.0
  9
$THICKNESS
 40
0.0
  9
$LIMCHECK
 70
     0
  9
$CHAMFERA
 40
0.0
  9
$CHAMFERB
 40
0.0
  9
$CHAMFERC
 40
0.0
  9
$CHAMFERD
 40
0.0
  9
$SKPOLY
 70
     0
  9
$TDCREATE
 40
2460202.621794653
  9
$TDUPDATE
 40
2460202.621794988
  9
$TDINDWG
 40
0.0000000116
  9
$TDUSRTIMER
 40
0.0000000116
  9
$USRTIMER
 70
     1
  9
$ANGBASE
 50
0.0
  9
$ANGDIR
 70
     0
  9
$PDMODE
 70
     0
  9
$PDSIZE
 40
0.0
  9
$PLINEWID
 40
0.0
  9
$COORDS
 70
     1
  9
$SPLFRAME
 70
     0
  9
$SPLINETYPE
 70
     6
  9
$SPLINESEGS
 70
     8
  9
$ATTDIA
 70
     0
  9
$ATTREQ
 70
     1
  9
$HANDLING
 70
     1
  9
$HANDSEED
  5
2A9
  9
$SURFTAB1
 70
     6
  9
$SURFTAB2
 70
     6
  9
$SURFTYPE
 70
     6
  9
$SURFU
 70
     6
  9
$SURFV
 70
     6
  9
$UCSNAME
  2

  9
$UCSORG
 10
0.0
 20
0.0
 30
0.0
  9
$UCSXDIR
 10
1.0
 20
0.0
 30
0.0
  9
$UCSYDIR
 10
0.0
 20
1.0
 30
0.0
  9
$PUCSNAME
  2

  9
$PUCSORG
 10
0.0
 20
0.0
 30
0.0
  9
$PUCSXDIR
 10
1.0
 20
0.0
 30
0.0
  9
$PUCSYDIR
 10
0.0
 20
1.0
 30
0.0
  9
$USERI1
 70
     0
  9
$USERI2
 70
     0
  9
$USERI3
 70
     0
  9
$USERI4
 70
     0
  9
$USERI5
 70
     0
  9
$USERR1
 40
0.0
  9
$USERR2
 40
0.0
  9
$USERR3
 40
0.0
  9
$USERR4
 40
0.0
  9
$USERR5
 40
0.0
  9
$WORLDVIEW
 70
     1
  9
$SHADEDGE
 70
     3
  9
$SHADEDIF
 70
    70
  9
$TILEMODE
 70
     1
  9
$MAXACTVP
 70
    64
  9
$PINSBASE
 10
0.0
 20
0.0
 30
0.0
  9
$PLIMCHECK
 70
     0
  9
$PEXTMIN
 10
1.000000000000000E+20
 20
1.000000000000000E+20
 30
1.000000000000000E+20
  9
$PEXTMAX
 10
-1.000000000000000E+20
 20
-1.000000000000000E+20
 30
-1.000000000000000E+20
  9
$PLIMMIN
 10
0.0
 20
0.0
  9
$PLIMMAX
 10
12.0
 20
9.0
  9
$UNITMODE
 70
     0
  9
$VISRETAIN
 70
     1
  9
$PLINEGEN
 70
     0
  9
$PSLTSCALE
 70
     1
  9
$TREEDEPTH
 70
  3020
  9
$PICKSTYLE
 70
     1
  9
$CMLSTYLE
  2
STANDARD
  9
$CMLJUST
 70
     0
  9
$CMLSCALE
 40
1.0
  9
$PROXYGRAPHICS
 70
     1
  9
$MEASUREMENT
 70
     1
  0
ENDSEC
  0
SECTION
  2
CLASSES
  0
CLASS
  1
ACDBDICTIONARYWDFLT
  2
AcDbDictionaryWithDefault
  3
ObjectDBX Classes
 90
        0
280
     0
281
     0
  0
CLASS
  1
VISUALSTYLE
  2
AcDbVisualStyle
  3
ObjectDBX Classes
 90
     4095
280
     0
281
     0
  0
CLASS
  1
MATERIAL
  2
AcDbMaterial
  3
ObjectDBX Classes
 90
     1153
280
     0
281
     0
  0
CLASS
  1
SCALE
  2
AcDbScale
  3
ObjectDBX Classes
 90
     1153
280
     0
281
     0
  0
CLASS
  1
TABLESTYLE
  2
AcDbTableStyle
  3
ObjectDBX Classes
 90
     4095
280
     0
281
     0
  0
CLASS
  1
MLEADERSTYLE
  2
AcDbMLeaderStyle
  3
ACDB_MLEADERSTYLE_CLASS
 90
     4095
280
     0
281
     0
  0
CLASS
  1
SUN
  2
AcDbSun
  3
SCENEOE
 90
     1153
280
     0
281
     0
  0
CLASS
  1
DICTIONARYVAR
  2
AcDbDictionaryVar
  3
ObjectDBX Classes
 90
        0
280
     0
281
     0
  0
CLASS
  1
XRECORD
  2
AcDbXrecord
  3
ObjectDBX Classes
 90
        0
280
     0
281
     0
  0
CLASS
  1
LWPOLYLINE
  2
AcDbPolyline
  3
ObjectDBX Classes
 90
        0
280
     0
281
     1
  0
CLASS
  1
HATCH
  2
AcDbHatch
  3
ObjectDBX Classes
 90
        0
280
     0
281
     1
  0
CLASS
  1
ACDBPLACEHOLDER
  2
AcDbPlaceHolder
  3
ObjectDBX Classes
 90
        0
280
     0
281
     0
  0
CLASS
  1
LAYOUT
  2
AcDbLayout
  3
ObjectDBX Classes
 90
        0
280
     0
281
     0
  0
ENDSEC
  0
SECTION
  2
TABLES
  0
TABLE
  2
VPORT
  5
8
102
{ACAD_XDICTIONARY
360
29E
102
}
330
0
100
AcDbSymbolTable
 70
     1
  0
VPORT
  5
29
330
8
100
AcDbSymbolTableRecord
100
AcDbViewportTableRecord
  2
*ACTIVE
 70
     0
 10
0.0
 20
0.0
 11
1.0
 21
1.0
 12
134.6441737536245
 22
391.9579456627318
 13
0.0
 23
0.0
 14
0.5
 24
0.5
 15
0.5
 25
0.5
 16
0.0
 26
0.0
 36
1.0
 17
0.0
 27
0.0
 37
0.0
 40
249.4908694422575
 41
1.6
 42
50.0
 43
0.0
 44
0.0
 50
0.0
 51
0.0
 71
     0
 72
   100
 73
     1
 74
     3
 75
     0
 76
     0
 77
     0
 78
     0
  0
ENDTAB
  0
TABLE
  2
LTYPE
  5
5
330
0
100
AcDbSymbolTable
 70
     2
  0
LTYPE
  5
14
330
5
100
AcDbSymbolTableRecord
100
AcDbLinetypeTableRecord
  2
BYBLOCK
 70
     0
  3

 72
    65
 73
     0
 40
0.0
  0
LTYPE
  5
15
330
5
100
AcDbSymbolTableRecord
100
AcDbLinetypeTableRecord
  2
BYLAYER
 70
     0
  3

 72
    65
 73
     0
 40
0.0
  0
LTYPE
  5
16
330
5
100
AcDbSymbolTableRecord
100
AcDbLinetypeTableRecord
  2
CONTINUOUS
 70
     0
  3
Solid line
 72
    65
 73
     0
 40
0.0
  0
LTYPE
  5
119
330
5
100
AcDbSymbolTableRecord
100
AcDbLinetypeTableRecord
  2
CENTER
 70
     0
  3

 72
    65
 73
     0
 40
0.0
  0
ENDTAB
  0
TABLE
  2
LAYER
  5
2
330
0
100
AcDbSymbolTable
 70
     1
  0
LAYER
  5
10
330
2
100
AcDbSymbolTableRecord
100
AcDbLayerTableRecord
  2
0
 70
     0
 62
     7
  6
CONTINUOUS
  0
ENDTAB
  0
TABLE
  2
STYLE
  5
3
330
0
100
AcDbSymbolTable
 70
     2
  0
STYLE
  5
11
330
3
100
AcDbSymbolTableRecord
100
AcDbTextStyleTableRecord
  2
STANDARD
 70
     0
 40
0.0
 41
1.0
 50
0.0
 71
     0
 42
0.2
  3
txt
  4

  0
STYLE
  5
6E
330
3
100
AcDbSymbolTableRecord
100
AcDbTextStyleTableRecord
  2
ＭＳ_ゴシック
 70
     0
 40
0.0
 41
1.0
 50
0.0
 71
     0
 42
0.2
  3
ＭＳ ゴシック.shx
  4

  0
ENDTAB
  0
TABLE
  2
VIEW
  5
6
330
0
100
AcDbSymbolTable
 70
     0
  0
ENDTAB
  0
TABLE
  2
UCS
  5
7
330
0
100
AcDbSymbolTable
 70
     0
  0
ENDTAB
  0
TABLE
  2
APPID
  5
9
330
0
100
AcDbSymbolTable
 70
     2
  0
APPID
  5
12
330
9
100
AcDbSymbolTableRecord
100
AcDbRegAppTableRecord
  2
ACAD
 70
     0
  0
APPID
  5
2A8
330
9
100
AcDbSymbolTableRecord
100
AcDbRegAppTableRecord
  2
ACAD_MLEADERVER
 70
     0
  0
ENDTAB
  0
TABLE
  2
DIMSTYLE
  5
A
330
0
100
AcDbSymbolTable
 70
     1
  0
DIMSTYLE
105
27
330
A
100
AcDbSymbolTableRecord
100
AcDbDimStyleTableRecord
  2
STANDARD
 70
     0
  3

  4

  5

  6

  7

 40
1.0
 41
0.18
 42
0.0625
 43
0.38
 44
0.18
 45
0.0
 46
0.0
 47
0.0
 48
0.0
140
0.18
141
0.09
142
0.0
143
25.4
144
1.0
145
0.0
146
1.0
147
0.09
 71
     0
 72
     0
 73
     1
 74
     1
 75
     0
 76
     0
 77
     0
 78
     0
170
     0
171
     2
172
     0
173
     0
174
     0
175
     0
176
     0
177
     0
178
     0
270
     2
271
     4
272
     4
273
     2
274
     2
340
11
275
     0
280
     0
281
     0
282
     0
283
     1
284
     0
285
     0
286
     0
287
     3
288
     0
  0
ENDTAB
  0
TABLE
  2
BLOCK_RECORD
  5
1
330
0
100
AcDbSymbolTable
 70
     0
  0
BLOCK_RECORD
  5
1F
330
1
100
AcDbSymbolTableRecord
100
AcDbBlockTableRecord
  2
*MODEL_SPACE
  0
BLOCK_RECORD
  5
1B
330
1
100
AcDbSymbolTableRecord
100
AcDbBlockTableRecord
  2
*PAPER_SPACE
  0
ENDTAB
  0
ENDSEC
  0
SECTION
  2
BLOCKS
  0
BLOCK
  5
20
330
1F
100
AcDbEntity
  8
0
100
AcDbBlockBegin
  2
*MODEL_SPACE
 70
     0
 10
0.0
 20
0.0
 30
0.0
  3
*MODEL_SPACE
  1

  0
ENDBLK
  5
21
330
1F
100
AcDbEntity
  8
0
100
AcDbBlockEnd
  0
BLOCK
  5
1C
330
1B
100
AcDbEntity
 67
     1
  8
0
100
AcDbBlockBegin
  2
*PAPER_SPACE
 70
     0
 10
0.0
 20
0.0
 30
0.0
  3
*PAPER_SPACE
  1

  0
ENDBLK
  5
1D
330
1B
100
AcDbEntity
 67
     1
  8
0
100
AcDbBlockEnd
  0
ENDSEC
  0
SECTION
  2
ENTITIES
  0
MTEXT
  5
6F
330
1F
100
AcDbEntity
  8
0
 62
     7
100
AcDbMText
 10
172.7110166312367
 20
269.8716018506941
 30
0.0
 40
3.0
 41
0.0
 71
     1
 72
     1
  1
{\fＭＳ ゴシック;FEKS-125P}
  0
LWPOLYLINE
  5
70
330
1F
100
AcDbEntity
  8
0
  6
CONTINUOUS
 62
     7
100
AcDbPolyline
 90
        3
 70
     0
 43
0.0
 10
-71.32390826300245
 20
493.1112879494129
 10
-71.38994705960262
 20
493.2024207558164
 10
-71.39744814760877
 20
493.2033803838035
  0
LWPOLYLINE
  5
71
330
1F
100
AcDbEntity
  8
0
  6
CONTINUOUS
 62
     7
100
AcDbPolyline
 90
        9
 70
     0
 43
0.0
 10
-16.91311969102206
 20
487.9120178709658
 10
-16.71802936900593
 20
487.9283571505275
 10
-16.53043625865697
 20
487.9767470798625
 10
-16.35754945800245
 20
488.0553280611236
 10
-16.2060129098355
 20
488.1610802712699
 10
-16.08165007871949
 20
488.2899397121718
 10
-15.98924015851075
 20
488.4369543877808
 10
-15.93233441061881
 20
488.5964746065598
 10
-15.91311969102204
 20
488.7623700959613
  0
LWPOLYLINE
  5
72
330
1F
100
AcDbEntity
  8
0
  6
CONTINUOUS
 62
     7
100
AcDbPolyline
 90
       73
 70
     0
 43
0.0
 10
6.028331361274411
 20
317.6558620105718
 10
6.06839786585424
 20
317.9096471535724
 10
6.108464370434073
 20
318.2196234980809
 10
6.148530875013914
 20
318.5857016688809
 10
6.188597379593758
 20
319.0077922907558
 10
6.228663884173608
 20
319.4857685175117
 10
6.268730388753466
 20
320.0192479055989
 10
6.308796893333327
 20
320.6077412990106
 10
6.348863397913192
 20
321.2507591853942
 10
6.388929902493058
 20
321.9478120523972
 10
6.428996407072927
 20
322.6984103876669
 10
6.469062911652792
 20
323.5020646788507
 10
6.509129416232659
 20
324.358285413596
 10
6.549195920812521
 20
325.2665830795503
 10
6.589262425392381
 20
326.226468164361
 10
6.629328929972234
 20
327.2374511556754
 10
6.669395434552082
 20
328.2990369011221
 10
6.709461939131923
 20
329.4105680066374
 10
6.749528443711758
 20
330.5712044042472
 10
6.789594948291588
 20
331.7800962814829
 10
6.829661452871412
 20
333.0363938258758
 10
6.869727957451232
 20
334.3392472249573
 10
6.909794462031046
 20
335.6878066662588
 10
6.949860966610858
 20
337.0812223373119
 10
6.989927471190665
 20
338.5186444256477
 10
7.029993975770468
 20
339.9992231187978
 10
7.07006048035027
 20
341.5221086042935
 10
7.110126984930067
 20
343.0864510409666
 10
7.150193489509865
 20
344.6913389050825
 10
7.190259994089662
 20
346.33566854389
 10
7.230326498669458
 20
348.0182990034193
 10
7.27039300324926
 20
349.738089329701
 10
7.310459507829066
 20
351.4938985687653
 10
7.350526012408876
 20
353.2845857666427
 10
7.390592516988694
 20
355.1090099693639
 10
7.430659021568522
 20
356.9660302229588
 10
7.47072552614836
 20
358.8545055734581
 10
7.51079203072821
 20
360.7732950668922
 10
7.550858535308071
 20
362.7212577492915
 10
7.59092503988795
 20
364.6972406714234
 10
7.63099154446784
 20
366.69997265123
 10
7.67105804904774
 20
368.7281152238618
 10
7.711124553627648
 20
370.7803291458591
 10
7.751191058207558
 20
372.8552751737615
 10
7.79125756278747
 20
374.9516140641094
 10
7.83132406736738
 20
377.0680065734426
 10
7.871390571947281
 20
379.2031134583012
 10
7.911457076527172
 20
381.355595475225
 10
7.951523581107053
 20
383.5241133807543
 10
7.991590085686916
 20
385.7073279314289
 10
8.03165659026676
 20
387.9038992847231
 10
8.071723094846586
 20
390.1124539658044
 10
8.111789599426391
 20
392.3315676572082
 10
8.151856104006182
 20
394.5598118149981
 10
8.191922608585962
 20
396.7957578952374
 10
8.23198911316573
 20
399.0379773539895
 10
8.27205561774549
 20
401.2850416473177
 10
8.312122122325247
 20
403.5355222312855
 10
8.352188626905004
 20
405.7879905619563
 10
8.39225513148476
 20
408.0410180953934
 10
8.432321636064518
 20
410.2931762876602
 10
8.472388140644284
 20
412.5430365948199
 10
8.512454645224057
 20
414.7891745998317
 10
8.55252114980384
 20
417.0301838355525
 10
8.59258765438363
 20
419.26466271385
 10
8.632654158963433
 20
421.4912096466899
 10
8.672720663543242
 20
423.7084230460373
 10
8.712787168123064
 20
425.9149013238578
 10
8.752853672702896
 20
428.1092428921166
 10
8.792920177282742
 20
430.2900461627794
 10
8.832986681862597
 20
432.4559095478113
 10
8.873053186442462
 20
434.6054314591778
 10
8.913119691022029
 20
436.737210308828
210
0.0
220
0.0
230
-1.0
  0
LWPOLYLINE
  5
73
330
1F
100
AcDbEntity
  8
0
  6
CONTINUOUS
 62
     7
100
AcDbPolyline
 90
      113
 70
     0
 43
0.0
 10
43.97243459719671
 20
317.6504588176366
 10
43.92921265867142
 20
317.9255563153071
 10
43.8859907201461
 20
318.2664777996846
 10
43.84276878162078
 20
318.6728936826848
 10
43.79954684309546
 20
319.144313259371
 10
43.75632490457011
 20
319.6802444581876
 10
43.71310296604477
 20
320.2801952075791
 10
43.66988102751942
 20
320.9436734359899
 10
43.62665908899407
 20
321.6701870718647
 10
43.58343715046871
 20
322.4592440436477
 10
43.54021521194336
 20
323.3103522797836
 10
43.49699327341801
 20
324.2230197087168
 10
43.45377133489267
 20
325.1967535677331
 10
43.41054939636732
 20
326.2309266104966
 10
43.36732745784199
 20
327.3246172485305
 10
43.32410551931665
 20
328.4768649369029
 10
43.28088358079133
 20
329.6867091306818
 10
43.237661642266
 20
330.9531892849354
 10
43.1944397037407
 20
332.2753448547318
 10
43.15121776521539
 20
333.6522152951387
 10
43.10799582669009
 20
335.0828400612244
 10
43.06477388816479
 20
336.5662586080571
 10
43.02155194963952
 20
338.1015103907048
 10
42.97833001111424
 20
339.6876156164327
 10
42.93510807258897
 20
341.323370489052
 10
42.89188613406372
 20
343.0074265762876
 10
42.84866419553848
 20
344.738433029968
 10
42.80544225701321
 20
346.515039001922
 10
42.76222031848795
 20
348.3358936439785
 10
42.71899837996268
 20
350.199646107966
 10
42.67577644143739
 20
352.1049455457131
 10
42.63255450291211
 20
354.0504411090487
 10
42.5893325643868
 20
356.0347819498015
 10
42.54611062586147
 20
358.0566171266343
 10
42.50288868733614
 20
360.1145293848766
 10
42.45966674881077
 20
362.2069187184997
 10
42.41644481028539
 20
364.3321539095105
 10
42.37322287176001
 20
366.4886037399153
 10
42.33000093323462
 20
368.6746369917207
 10
42.28677899470924
 20
370.8886224469331
 10
42.24355705618385
 20
373.1289288875591
 10
42.20033511765845
 20
375.3939250956051
 10
42.15711317913308
 20
377.6819798530777
 10
42.11389124060771
 20
379.9914619419833
 10
42.07066930208235
 20
382.320735209596
 10
42.02744736355702
 20
384.6680852080278
 10
41.9842254250317
 20
387.0317348535622
 10
41.94100348650638
 20
389.4099053085862
 10
41.89778154798108
 20
391.8008177354862
 10
41.85455960945578
 20
394.2026932966491
 10
41.8113376709305
 20
396.6137531544615
 10
41.76811573240522
 20
399.0322184713102
 10
41.72489379387993
 20
401.4563104095818
 10
41.68167185535466
 20
403.884250131663
 10
41.63844991682937
 20
406.3142587998975
 10
41.59522797830409
 20
408.7445570338277
 10
41.5520060397788
 20
411.1733635546271
 10
41.50878410125351
 20
413.5988966687021
 10
41.46556216272823
 20
416.0193746824586
 10
41.42234022420292
 20
418.4330159023031
 10
41.37911828567763
 20
420.8380386346415
 10
41.33589634715233
 20
423.2326611858803
 10
41.29267440862702
 20
425.6151018624253
 10
41.24945247010172
 20
427.983578970683
 10
41.20623053157641
 20
430.3363108170594
 10
41.16300859305111
 20
432.6715187473507
 10
41.11978665452579
 20
434.9874926027657
 10
41.07656471600048
 20
437.2825899453276
 10
41.03334277747517
 20
439.5551712215241
 10
40.99012083894985
 20
441.8035968778428
 10
40.94689890042454
 20
444.0262273607713
 10
40.90367696189922
 20
446.221423116797
 10
40.86045502337389
 20
448.3875445924078
 10
40.81723308484857
 20
450.5229522340909
 10
40.77401114632326
 20
452.6260064883342
 10
40.73078920779794
 20
454.6950678016252
 10
40.68756726927261
 20
456.7285377467186
 10
40.6443453307473
 20
458.7250012553619
 10
40.60112339222198
 20
460.6830943405111
 10
40.55790145369666
 20
462.601453017291
 10
40.51467951517133
 20
464.478713300826
 10
40.47145757664601
 20
466.3135112062408
 10
40.42823563812069
 20
468.1044827486596
 10
40.38501369959535
 20
469.850263943207
 10
40.34179176107003
 20
471.5494908050078
 10
40.29856982254469
 20
473.2007993491862
 10
40.25534788401937
 20
474.8028304796807
 10
40.21212594549403
 20
476.3543913346913
 10
40.1689040069687
 20
477.8544921468194
 10
40.12568206844335
 20
479.3021555023219
 10
40.08246012991802
 20
480.696403987456
 10
40.03923819139268
 20
482.0362601884787
 10
39.99601625286735
 20
483.3207466916473
 10
39.95279431434202
 20
484.5488860832189
 10
39.9095723758167
 20
485.7197009494506
 10
39.86635043729138
 20
486.8322138765996
 10
39.82312849876607
 20
487.885447450923
 10
39.77990656024075
 20
488.878477716803
 10
39.73668462171545
 20
489.8106854398438
 10
39.69346268319015
 20
490.681559195498
 10
39.65024074466485
 20
491.4905876840936
 10
39.60701880613956
 20
492.2372596059585
 10
39.56379686761427
 20
492.9210636614209
 10
39.52057492908898
 20
493.5414885508088
 10
39.47735299056368
 20
494.0980229744501
 10
39.43413105203838
 20
494.5901556326731
 10
39.39090911351308
 20
495.0173752258057
 10
39.34768717498778
 20
495.379173849776
 10
39.30446523646247
 20
495.6752347008738
 10
39.26124329793716
 20
495.9055301352611
 10
39.21802135941186
 20
496.0700565774313
 10
39.17479942088654
 20
496.1688104518778
 10
39.13157748236119
 20
496.2017881830942
  0
LWPOLYLINE
  5
74
330
1F
100
AcDbEntity
  8
0
  6
CONTINUOUS
 62
     7
100
AcDbPolyline
 90
        9
 70
     0
 43
0.0
 10
-15.91311969102204
 20
324.6443906718177
 10
-15.93233441061881
 20
324.8102861612192
 10
-15.98924015851075
 20
324.9698063799983
 10
-16.08165007871949
 20
325.1168210556072
 10
-16.2060129098355
 20
325.2456804965091
 10
-16.35754945800245
 20
325.3514327066554
 10
-16.53043625865696
 20
325.4300136879165
 10
-16.71802936900593
 20
325.4784036172515
 10
-16.91311969102206
 20
325.4947428968132
  0
LWPOLYLINE
  5
75
330
1F
100
AcDbEntity
  8
0
  6
CONTINUOUS
 62
     7
100
AcDbPolyline
 90
      105
 70
     0
 43
0.0
 10
-76.0279010139958
 20
317.6530832806906
 10
-76.07444630192226
 20
317.953265834807
 10
-76.12099158984874
 20
318.3291388939442
 10
-76.16753687777522
 20
318.7803388026761
 10
-76.21408216570168
 20
319.3065019055766
 10
-76.26062745362817
 20
319.9072645472196
 10
-76.30717274155464
 20
320.5822630721789
 10
-76.35371802948113
 20
321.3311338250284
 10
-76.40026331740762
 20
322.1534198298912
 10
-76.44680860533408
 20
323.0482572105244
 10
-76.49335389326058
 20
324.0146712175674
 10
-76.53989918118707
 20
325.0516870992441
 10
-76.58644446911356
 20
326.1583301037784
 10
-76.63298975704006
 20
327.333625479394
 10
-76.67953504496657
 20
328.5765984743152
 10
-76.72608033289309
 20
329.8862743367655
 10
-76.77262562081958
 20
331.261678314969
 10
-76.8191709087461
 20
332.7018351107474
 10
-76.86571619667265
 20
334.2056247434903
 10
-76.91226148459918
 20
335.7715889593122
 10
-76.9588067725257
 20
337.3982212363919
 10
-77.00535206045225
 20
339.0840150529078
 10
-77.05189734837879
 20
340.8274638870388
 10
-77.09844263630531
 20
342.6270612169633
 10
-77.14498792423184
 20
344.48130052086
 10
-77.19153321215836
 20
346.3886752769076
 10
-77.23807850008485
 20
348.3476789632846
 10
-77.28462378801134
 20
350.3568008406924
 10
-77.33116907593781
 20
352.4143617288776
 10
-77.37771436386427
 20
354.5184610053354
 10
-77.42425965179072
 20
356.6671829804985
 10
-77.47080493971717
 20
358.8586119647994
 10
-77.51735022764362
 20
361.0908322686709
 10
-77.56389551557007
 20
363.3619282025456
 10
-77.6104408034965
 20
365.6699840768562
 10
-77.65698609142295
 20
368.0130842020354
 10
-77.70353137934941
 20
370.3893128885158
 10
-77.75007666727588
 20
372.7967449804283
 10
-77.79662195520237
 20
375.2333178299967
 10
-77.84316724312886
 20
377.696865032047
 10
-77.88971253105534
 20
380.185217630058
 10
-77.93625781898186
 20
382.6962066675092
 10
-77.98280310690834
 20
385.2276631878792
 10
-78.02934839483484
 20
387.7774182346478
 10
-78.07589368276132
 20
390.3433028512936
 10
-78.12243897068782
 20
392.9231480812961
 10
-78.1689842586143
 20
395.5147849681343
 10
-78.21552954654076
 20
398.1160375109868
 10
-78.2620748344672
 20
400.7246808104726
 10
-78.30862012239366
 20
403.3384692300802
 10
-78.3551654103201
 20
405.9551570582534
 10
-78.40171069824653
 20
408.572498583436
 10
-78.44825598617298
 20
411.1882480940721
 10
-78.4948012740994
 20
413.8001598786053
 10
-78.54134656202586
 20
416.4059882254797
 10
-78.58789184995231
 20
419.0034874231391
 10
-78.63443713787876
 20
421.5904117605924
 10
-78.68098242580523
 20
424.1645349281972
 10
-78.72752771373172
 20
426.7237011800539
 10
-78.77407300165821
 20
429.2657708078933
 10
-78.82061828958471
 20
431.7886041034464
 10
-78.86716357751125
 20
434.2900613584439
 10
-78.91370886543774
 20
436.7680028646166
 10
-78.96025415336429
 20
439.2202889136954
 10
-79.00679944129082
 20
441.6447797974109
 10
-79.05334472921737
 20
444.0393358074941
 10
-79.0998900171439
 20
446.4018179125661
 10
-79.14643530507048
 20
448.7301742214283
 10
-79.19298059299703
 20
451.0225249742571
 10
-79.23952588092361
 20
453.2770105977358
 10
-79.28607116885016
 20
455.4917715185475
 10
-79.33261645677672
 20
457.6649481633753
 10
-79.37916174470325
 20
459.7946809589025
 10
-79.42570703262976
 20
461.8791103318118
 10
-79.47225232055625
 20
463.9163767087868
 10
-79.5187976084827
 20
465.9046205165102
 10
-79.56534289640913
 20
467.8419889971991
 10
-79.61188818433556
 20
469.7268240639909
 10
-79.65843347226195
 20
471.5576860312313
 10
-79.70497876018833
 20
473.3331467945497
 10
-79.7515240481147
 20
475.0517782495755
 10
-79.79806933604105
 20
476.7121522919384
 10
-79.84461462396743
 20
478.3128408172681
 10
-79.89115991189382
 20
479.8524157211937
 10
-79.93770519982023
 20
481.3294488993448
 10
-79.98425048774668
 20
482.7425122473512
 10
-80.03079577567316
 20
484.0902048731762
 10
-80.07734106359966
 20
485.3714406712448
 10
-80.12388635152621
 20
486.58533588717
 10
-80.17043163945279
 20
487.7310101061344
 10
-80.21697692737939
 20
488.8075829133198
 10
-80.26352221530598
 20
489.8141738939087
 10
-80.31006750323259
 20
490.7499026330834
 10
-80.35661279115921
 20
491.6138887160259
 10
-80.40315807908581
 20
492.4052517279187
 10
-80.4497033670124
 20
493.1231112539438
 10
-80.49624865493898
 20
493.7666572522177
 10
-80.54279394286556
 20
494.3354842064069
 10
-80.5893392307921
 20
494.8293308624864
 10
-80.63588451871863
 20
495.2479361442569
 10
-80.68242980664515
 20
495.5910389755189
 10
-80.72897509457165
 20
495.8583782800735
 10
-80.77552038249812
 20
496.049692981721
 10
-80.82206567042458
 20
496.1647220042623
 10
-80.86861095835192
 20
496.203204271498
  0
LWPOLYLINE
  5
76
330
1F
100
AcDbEntity
  8
0
  6
CONTINUOUS
 62
     7
100
AcDbPolyline
 90
       33
 70
     0
 43
0.0
 10
75.86842524022934
 20
317.2034786007704
 10
75.87340885815955
 20
317.2038811327704
 10
75.87839247608976
 20
317.2051652777471
 10
75.88337609401998
 20
317.2073313757506
 10
75.88835971195019
 20
317.2103797668304
 10
75.89334332988038
 20
317.2143107910365
 10
75.89832694781062
 20
317.219124788419
 10
75.90331056574081
 20
317.2248220392494
 10
75.90829418367103
 20
317.2314023364133
 10
75.91327780160125
 20
317.2388652351385
 10
75.91826141953146
 20
317.2472102890526
 10
75.92324503746168
 20
317.2564370517837
 10
75.92822865539188
 20
317.2665450769595
 10
75.93321227332211
 20
317.2775339182078
 10
75.9381958912523
 20
317.2894031291564
 10
75.94317950918253
 20
317.3021522634332
 10
75.94816312711275
 20
317.315780874666
 10
75.95314674504296
 20
317.3302885164824
 10
75.95813036297318
 20
317.3456747425105
 10
75.9631139809034
 20
317.3619391063779
 10
75.96809759883361
 20
317.3790811617125
 10
75.97308121676382
 20
317.3971004621422
 10
75.97806483469404
 20
317.4159965612946
 10
75.98304845262423
 20
317.4357690127976
 10
75.98803207055447
 20
317.4564173702793
 10
75.99301568848469
 20
317.477941187367
 10
75.9979993064149
 20
317.5003400176888
 10
76.0029829243451
 20
317.5236134148725
 10
76.00796654227533
 20
317.5477609325459
 10
76.01295016020555
 20
317.5727821243369
 10
76.01793377813574
 20
317.598676543873
 10
76.02291739606596
 20
317.6254437447824
 10
76.0279010139958
 20
317.6530832806905
210
0.0
220
0.0
230
-1.0
  0
LWPOLYLINE
  5
77
330
1F
100
AcDbEntity
  8
0
  6
CONTINUOUS
 62
     7
100
AcDbPolyline
 90
       42
 70
     0
 43
0.0
 10
48.41311969102203
 20
311.2479224589835
 10
48.42944114117174
 20
311.2481806584969
 10
48.44576259132148
 20
311.2489560888691
 10
48.46227905178639
 20
311.2502701006924
 10
48.47868912862772
 20
311.2521066736618
 10
48.49509758934724
 20
311.2544792674038
 10
48.51133154769045
 20
311.2573613988541
 10
48.52761538827848
 20
311.2607972349049
 10
48.54369129221985
 20
311.2647360645664
 10
48.55883795205525
 20
311.2689568806313
 10
48.57374482954878
 20
311.273607252834
 10
48.5885417980146
 20
311.278725503223
 10
48.60303339653453
 20
311.2842393295213
 10
48.61729020554485
 20
311.2901664085045
 10
48.63121358919169
 20
311.2964552734948
 10
48.64494242384431
 20
311.3031621007347
 10
48.65833093889686
 20
311.310209374264
 10
48.67598531564947
 20
311.3203110203439
 10
48.69299118326352
 20
311.3309716678967
 10
48.70953004170423
 20
311.342287167857
 10
48.72536012664598
 20
311.354070786434
 10
48.74058311112227
 20
311.3663672019208
 10
48.75509604592719
 20
311.3790621232861
 10
48.76907143076388
 20
311.3922845104669
 10
48.7823525942923
 20
311.4058667327853
 10
48.79904988619864
 20
311.4245541847378
 10
48.81453910903748
 20
311.4437782279375
 10
48.8288894264917
 20
311.463557384451
 10
48.84205595503997
 20
311.4837648316577
 10
48.85425744692047
 20
311.5047183319289
 10
48.8652694403547
 20
311.5260196714099
 10
48.87513647698292
 20
311.5476918811216
 10
48.88383950284337
 20
311.5696331118641
 10
48.8905733668828
 20
311.5892199067586
 10
48.89641663924036
 20
311.608963496454
 10
48.90138559470135
 20
311.6288809571885
 10
48.9054743344124
 20
311.6489138210929
 10
48.90871395879741
 20
311.6692332743488
 10
48.91106520346557
 20
311.6896312722209
 10
48.91253196851854
 20
311.7101260371061
 10
48.91310974325001
 20
311.7306623955679
 10
48.91311969102209
 20
311.7337351826823
210
0.0
220
0.0
230
-1.0
  0
LWPOLYLINE
  5
78
330
1F
100
AcDbEntity
  8
0
  6
CONTINUOUS
 62
     7
100
AcDbPolyline
 90
      113
 70
     0
 43
0.0
 10
3.971280134450125
 20
317.6578739250142
 10
3.928069847511082
 20
317.9344797382797
 10
3.88485956057203
 20
318.2764998196514
 10
3.841649273632966
 20
318.6838477451156
 10
3.798438986693892
 20
319.1564124113011
 10
3.755228699754808
 20
319.6937941525339
 10
3.71201841281572
 20
320.2954063403549
 10
3.668808125876628
 20
320.9606591944107
 10
3.625597838937537
 20
321.6889629343482
 10
3.58238755199845
 20
322.4797277798143
 10
3.539177265059369
 20
323.3323639504558
 10
3.495966978120297
 20
324.2462816659195
 10
3.452756691181238
 20
325.2208911458522
 10
3.409546404242194
 20
326.2556026099007
 10
3.36633611730317
 20
327.3498261408108
 10
3.323125830364165
 20
328.5028652492425
 10
3.279915543425177
 20
329.7137262099369
 10
3.236705256486205
 20
330.9813638831348
 10
3.193494969547245
 20
332.3047331290766
 10
3.150284682608294
 20
333.6827888080031
 10
3.107074395669348
 20
335.1144857801546
 10
3.063864108730405
 20
336.5987789057721
 10
3.020653821791463
 20
338.1346230450959
 10
2.977443534852517
 20
339.7209730583667
 10
2.934233247913566
 20
341.3567838058252
 10
2.891022960974607
 20
343.0409982059973
 10
2.847812674035636
 20
344.7723642554707
 10
2.804602387096656
 20
346.5494711349967
 10
2.761392100157665
 20
348.3709033999613
 10
2.718181813218663
 20
350.2352456057499
 10
2.67497152627965
 20
352.1410823077485
 10
2.631761239340626
 20
354.0869980613428
 10
2.588550952401591
 20
356.0715774219184
 10
2.545340665462544
 20
358.0934049448612
 10
2.502130378523487
 20
360.1510651855568
 10
2.458920091584416
 20
362.2431426975609
 10
2.415709804645334
 20
364.3681748938532
 10
2.372499517706244
 20
366.5245294189106
 10
2.329289230767148
 20
368.7105357136062
 10
2.286078943828049
 20
370.9245232188135
 10
2.24286865688895
 20
373.1648213754053
 10
2.199658369949855
 20
375.429759624255
 10
2.156448083010766
 20
377.7176674062358
 10
2.113237796071685
 20
380.0268741622206
 10
2.070027509132617
 20
382.3557093330827
 10
2.026817222193564
 20
384.7025023596955
 10
1.983606935254529
 20
387.0655803219257
 10
1.940396648315513
 20
389.4432138208161
 10
1.897186361376512
 20
391.8336157427592
 10
1.853976074437523
 20
394.2349963659401
 10
1.810765787498544
 20
396.6455659685438
 10
1.767555500559572
 20
399.0635348287552
 10
1.724345213620603
 20
401.4871132247594
 10
1.681134926681636
 20
403.9145114347414
 10
1.637924639742666
 20
406.3439397368861
 10
1.594714352803692
 20
408.7736084093785
 10
1.551504065864709
 20
411.2017277304036
 10
1.508293778925717
 20
413.6265117434212
 10
1.465083491986715
 20
416.0461920808957
 10
1.421873205047704
 20
418.4590055071226
 10
1.378662918108686
 20
420.8631887870056
 10
1.335452631169661
 20
423.2569786854486
 10
1.292242344230631
 20
425.6386119673552
 10
1.249032057291597
 20
428.0063253976289
 10
1.20582177035256
 20
430.3583557411733
 10
1.162611483413521
 20
432.6929397628924
 10
1.119401196474481
 20
435.0083142276894
 10
1.076190909535442
 20
437.302717782682
 10
1.032980622596404
 20
439.5744601227188
 10
0.9897703356573667
 20
441.8219420262428
 10
0.946560048718331
 20
444.0435702387667
 10
0.9033497617792966
 20
446.2377515058032
 10
0.8601394748402637
 20
448.4028925728649
 10
0.816929187901232
 20
450.5374001854646
 10
0.7737189009622021
 20
452.639681089115
 10
0.7305086140231739
 20
454.7081420293287
 10
0.6872983270841472
 20
456.7411897516184
 10
0.6440880401451224
 20
458.737231001497
 10
0.6008777532060995
 20
460.6947044751665
 10
0.5576674662670776
 20
462.6122432929139
 10
0.5144571793280565
 20
464.4885537093769
 10
0.4712468923890352
 20
466.3223421113704
 10
0.428036605450013
 20
468.1123148857092
 10
0.3848263185109893
 20
469.857178419208
 10
0.3416160315719635
 20
471.5556390986819
 10
0.2984057446329346
 20
473.2064033109455
 10
0.2551954576939023
 20
474.8081774428138
 10
0.2119851707548655
 20
476.3596678811015
 10
0.1687748838158237
 20
477.859583189605
 10
0.125564596876777
 20
479.3067778524369
 10
0.0823543099377262
 20
480.7003417969308
 10
0.0391440229986728
 20
482.0393863267786
 10
-0.0040662639403823
 20
483.3230227456725
 10
-0.0472765508794379
 20
484.5503623573043
 10
-0.0904868378184927
 20
485.7205164653658
 10
-0.1336971247575456
 20
486.8325963735492
 10
-0.1769074116965954
 20
487.8857133855463
 10
-0.220117698635641
 20
488.8789788050491
 10
-0.2633279855746812
 20
489.8115039357498
 10
-0.306538272513715
 20
490.6824371043907
 10
-0.3497485594527425
 20
491.4912233534537
 10
-0.3929588463917646
 20
492.2374503203874
 10
-0.4361691333307823
 20
492.9207065487829
 10
-0.4793794202697964
 20
493.5405805822313
 10
-0.5225897072088074
 20
494.0966609643235
 10
-0.5657999941478166
 20
494.5885362386506
 10
-0.6090102810868245
 20
495.0157949488037
 10
-0.6522205680258321
 20
495.3780256383737
 10
-0.6954308549648401
 20
495.6748168509517
 10
-0.7386411419038496
 20
495.9057581881922
 10
-0.7818514288428597
 20
496.0705940548162
 10
-0.8250617157818679
 20
496.1693851073431
 10
-0.8682720027209795
 20
496.2022306140099
  0
LWPOLYLINE
  5
79
330
1F
100
AcDbEntity
  8
0
  6
CONTINUOUS
 62
     7
100
AcDbPolyline
 90
       35
 70
     0
 43
0.0
 10
115.913119691022
 20
486.0759197158272
 10
115.9138484267553
 20
486.0597896513344
 10
115.9160322129379
 20
486.0436676880703
 10
115.9196674180439
 20
486.027606323104
 10
115.9247504105477
 20
486.0116580535047
 10
115.931565195048
 20
485.9952472774399
 10
115.9399528717756
 20
485.9789999270841
 10
115.9499004061933
 20
485.9629799876921
 10
115.9613947637635
 20
485.9472514445187
 10
115.9723481850169
 20
485.9341809345485
 10
115.9844260546097
 20
485.9213550923412
 10
115.9976099766819
 20
485.9088184596141
 10
116.0118815553734
 20
485.8966155780843
 10
116.0278411199607
 20
485.8843365218015
 10
116.0449850326643
 20
485.8724629378622
 10
116.0632712706391
 20
485.8610517186682
 10
116.0826578110403
 20
485.8501597566215
 10
116.0971585192243
 20
485.8427256933369
 10
116.1122175518046
 20
485.8355813490001
 10
116.1278084940374
 20
485.8287489213519
 10
116.1439049311788
 20
485.8222506081329
 10
116.1609706381415
 20
485.8159339198396
 10
116.1785596535224
 20
485.8099950909542
 10
116.1966293640943
 20
485.8044575613659
 10
116.2151371566301
 20
485.7993447709634
 10
116.2335803739915
 20
485.7947854753518
 10
116.252416026556
 20
485.7906518956219
 10
116.2715904792295
 20
485.786961923944
 10
116.2910500969182
 20
485.7837334524884
 10
116.3114904994798
 20
485.7808877772246
 10
116.3321968167032
 20
485.7785553653157
 10
116.3530964237915
 20
485.7767475608688
 10
116.3741166959477
 20
485.7754757079912
 10
116.3935978766497
 20
485.7747824448217
 10
116.4131196910221
 20
485.7745508570778
210
0.0
220
0.0
230
-1.0
  0
LWPOLYLINE
  5
7A
330
1F
100
AcDbEntity
  8
0
  6
CONTINUOUS
 62
     7
100
AcDbPolyline
 90
        8
 70
     0
 43
0.0
 10
-48.50043829142901
 20
409.8126056646114
 10
-48.59993452995771
 20
409.779275680961
 10
-48.69294812409623
 20
409.7277010226131
 10
-48.77248781719339
 20
409.6603909904918
 10
-48.8433852052423
 20
409.567691225207
 10
-48.89065308736233
 20
409.4616051790715
 10
-48.91189927644417
 20
409.3450260195866
 10
-48.91274518174145
 20
409.3199134044028
  0
LWPOLYLINE
  5
7B
330
1F
100
AcDbEntity
  8
0
  6
CONTINUOUS
 62
     7
100
AcDbPolyline
 90
        3
 70
     0
 43
0.0
 10
48.91311969102203
 20
487.7488298280387
 10
48.84725906785246
 20
487.8300640468714
 10
48.74954040061736
 20
487.8697698624387
210
0.0
220
0.0
230
-1.0
  0
LWPOLYLINE
  5
7C
330
1F
100
AcDbEntity
  8
0
  6
CONTINUOUS
 62
     7
100
AcDbPolyline
 90
      113
 70
     0
 43
0.0
 10
-56.02830955793021
 20
317.655766466681
 10
-56.07152602468616
 20
317.9323908673203
 10
-56.11474249144212
 20
318.2742454165945
 10
-56.15795895819807
 20
318.6810899367953
 10
-56.20117542495402
 20
319.1526842502144
 10
-56.24439189170997
 20
319.6887881791434
 10
-56.28760835846594
 20
320.2891615458741
 10
-56.33082482522189
 20
320.9535542897744
 10
-56.37404129197786
 20
321.6814819584872
 10
-56.41725775873383
 20
322.4722217032166
 10
-56.46047422548978
 20
323.3250399912282
 10
-56.50369069224575
 20
324.2392032897877
 10
-56.54690715900173
 20
325.2139780661604
 10
-56.59012362575771
 20
326.2486307876121
 10
-56.63334009251368
 20
327.3424279214082
 10
-56.67655655926966
 20
328.4946359348141
 10
-56.71977302602564
 20
329.7045212950957
 10
-56.76298949278164
 20
330.9713504695182
 10
-56.80620595953764
 20
332.2943276296878
 10
-56.84942242629363
 20
333.6723688293846
 10
-56.89263889304963
 20
335.104306884657
 10
-56.93585535980563
 20
336.588974603395
 10
-56.97907182656163
 20
338.125204793488
 10
-57.02228829331764
 20
339.7118302628261
 10
-57.06550476007363
 20
341.3476838192987
 10
-57.10872122682961
 20
343.0315982707956
 10
-57.15193769358561
 20
344.7624064252067
 10
-57.19515416034158
 20
346.5389410904215
 10
-57.23837062709755
 20
348.3600311887334
 10
-57.2815870938535
 20
350.2243630113269
 10
-57.32480356060945
 20
352.1304422963861
 10
-57.3680200273654
 20
354.0767631797226
 10
-57.41123649412133
 20
356.0618197971476
 10
-57.45445296087726
 20
358.0841062844726
 10
-57.49766942763317
 20
360.1421167775091
 10
-57.54088589438908
 20
362.2343454120685
 10
-57.58410236114498
 20
364.3592863239623
 10
-57.62731882790087
 20
366.5154336490018
 10
-57.67053529465675
 20
368.7012815229985
 10
-57.71375176141264
 20
370.915300525277
 10
-57.75696822816852
 20
373.1558206701226
 10
-57.80018469492438
 20
375.4211200528939
 10
-57.84340116168026
 20
377.7094766861045
 10
-57.88661762843614
 20
380.0191685822679
 10
-57.92983409519203
 20
382.3484737538979
 10
-57.97305056194791
 20
384.695670213508
 10
-58.01626702870383
 20
387.059035973612
 10
-58.05948349545974
 20
389.4368490467234
 10
-58.10269996221569
 20
391.8273874453558
 10
-58.14591642897166
 20
394.228928742585
 10
-58.18913289572764
 20
396.639722731542
 10
-58.23234936248365
 20
399.0579753133035
 10
-58.27556582923967
 20
401.4818885142026
 10
-58.31878229599569
 20
403.9096643605724
 10
-58.36199876275172
 20
406.3395048787462
 10
-58.40521522950777
 20
408.7696120950571
 10
-58.44843169626382
 20
411.1981880358381
 10
-58.49164816301985
 20
413.6234347274225
 10
-58.53486462977589
 20
416.0435541961435
 10
-58.57808109653193
 20
418.4567484683342
 10
-58.62129756328795
 20
420.8612252264155
 10
-58.66451403004395
 20
423.2552361239325
 10
-58.70773049679995
 20
425.637053404395
 10
-58.75094696355593
 20
428.0049494289067
 10
-58.7941634303119
 20
430.3571965585713
 10
-58.83737989706787
 20
432.6920671544927
 10
-58.88059636382383
 20
435.0078335777746
 10
-58.92381283057976
 20
437.3027681895206
 10
-58.96702929733569
 20
439.5751433508347
 10
-59.01024576409162
 20
441.8232314228204
 10
-59.05346223084754
 20
444.0453052678859
 10
-59.09667869760346
 20
446.2397031766442
 10
-59.13989516435936
 20
448.4048931611858
 10
-59.18311163111526
 20
450.53935851442
 10
-59.22632809787116
 20
452.641582529256
 10
-59.26954456462705
 20
454.710048498603
 10
-59.31276103138295
 20
456.7432397153703
 10
-59.35597749813887
 20
458.739639472467
 10
-59.39919396489478
 20
460.6977310628024
 10
-59.4424104316507
 20
462.6159977792856
 10
-59.48562689840663
 20
464.492922914826
 10
-59.52884336516257
 20
466.3270089308946
 10
-59.57205983191854
 20
468.1169557214412
 10
-59.61527629867451
 20
469.8615794476478
 10
-59.65849276543047
 20
471.5596977654161
 10
-59.70170923218645
 20
473.2101283306478
 10
-59.74492569894245
 20
474.8116887992448
 10
-59.78814216569842
 20
476.3631968271087
 10
-59.8313586324544
 20
477.8634700701413
 10
-59.87457509921037
 20
479.3113261842444
 10
-59.91779156596634
 20
480.7055828253198
 10
-59.96100803272229
 20
482.0450579367869
 10
-60.00422449947825
 20
483.3286799879917
 10
-60.04744096623419
 20
484.5556545047548
 10
-60.09065743299013
 20
485.7252297263524
 10
-60.13387389974605
 20
486.8366538920606
 10
-60.177090366502
 20
487.8891752411556
 10
-60.22030683325793
 20
488.8820420129136
 10
-60.26352330001387
 20
489.814502446611
 10
-60.30673976676982
 20
490.6858047815239
 10
-60.34995623352577
 20
491.4951972569285
 10
-60.39317270028172
 20
492.2419281121012
 10
-60.43638916703771
 20
492.9252648366751
 10
-60.47960563379371
 20
493.5447444371944
 10
-60.5228221005497
 20
494.1001023103273
 10
-60.5660385673057
 20
494.591078457787
 10
-60.60925503406173
 20
495.0174128812876
 10
-60.65247150081775
 20
495.3788455825422
 10
-60.69568796757376
 20
495.6751165632646
 10
-60.7389044343298
 20
495.9059658251686
 10
-60.7821209010858
 20
496.0711333699673
 10
-60.82533736784183
 20
496.1703591993747
 10
-60.86855383459698
 20
496.2033833513933
  0
LWPOLYLINE
  5
7D
330
1F
100
AcDbEntity
  8
0
  6
CONTINUOUS
 62
     7
100
AcDbPolyline
 90
      105
 70
     0
 43
0.0
 10
73.97135712724277
 20
317.656261476385
 10
73.92482050031985
 20
317.9575233553422
 10
73.87828387339766
 20
318.3348177484331
 10
73.83174724647608
 20
318.7876237263723
 10
73.78521061955503
 20
319.315420359874
 10
73.73867399263436
 20
319.9176867196527
 10
73.69213736571395
 20
320.5939018764229
 10
73.64560073879369
 20
321.343544900899
 10
73.59906411187349
 20
322.1660948637956
 10
73.55252748495322
 20
323.0610308358268
 10
73.50599085803276
 20
324.0278163942106
 10
73.45945423111208
 20
325.0656157374092
 10
73.41291760419121
 20
326.1733222832511
 10
73.36638097727018
 20
327.3498196937721
 10
73.31984435034902
 20
328.5939916310082
 10
73.27330772342776
 20
329.9047217569952
 10
73.22677109650645
 20
331.2808937337693
 10
73.18023446958509
 20
332.721391223366
 10
73.13369784266371
 20
334.2250978878216
 10
73.08716121574238
 20
335.7908973891717
 10
73.04062458882112
 20
337.4176380905793
 10
72.99408796189987
 20
339.1038598330692
 10
72.9475513349787
 20
340.8479430526012
 10
72.90101470805756
 20
342.6482668512664
 10
72.85447808113649
 20
344.5032103311557
 10
72.8079414542154
 20
346.4111525943603
 10
72.76140482729434
 20
348.3704727429709
 10
72.71486820037329
 20
350.3795498790789
 10
72.66833157345226
 20
352.4367631047751
 10
72.62179494653121
 20
354.5404915221507
 10
72.57525831961016
 20
356.6890594525478
 10
72.52872169268906
 20
358.8805433973281
 10
72.48218506576798
 20
361.1129498132566
 10
72.43564843884687
 20
363.3842851528231
 10
72.38911181192576
 20
365.6925558685171
 10
72.34257518500462
 20
368.0357684128284
 10
72.29603855808351
 20
370.4119292382467
 10
72.24950193116238
 20
372.819044797262
 10
72.20296530424125
 20
375.2551215423635
 10
72.15642867732012
 20
377.7181657558986
 10
72.109892050399
 20
380.2061283363847
 10
72.06335542347787
 20
382.7168254270425
 10
72.01681879655675
 20
385.2480530677122
 10
71.97028216963564
 20
387.7976072982344
 10
71.92374554271451
 20
390.3632841584493
 10
71.87720891579342
 20
392.9428796881975
 10
71.8306722888723
 20
395.5341899273194
 10
71.78413566195118
 20
398.1350109156553
 10
71.73759903503009
 20
400.7431386930457
 10
71.69106240810898
 20
403.3563690163278
 10
71.64452578118787
 20
405.9724851860753
 10
71.59798915426676
 20
408.5892534260704
 10
71.55145252734566
 20
411.2044387240548
 10
71.50491590042455
 20
413.8158060677699
 10
71.45837927350345
 20
416.4211204449575
 10
71.41184264658236
 20
419.0181468433593
 10
71.36530601966125
 20
421.6046502507166
 10
71.31876939274015
 20
424.1783956547714
 10
71.27223276581906
 20
426.7371480432652
 10
71.22569613889793
 20
429.2786775627149
 10
71.1791595119768
 20
431.8008347450286
 10
71.1326228850557
 20
434.3015336787518
 10
71.08608625813456
 20
436.7786901871297
 10
71.03954963121345
 20
439.2302200934074
 10
70.99301300429232
 20
441.65403922083
 10
70.9464763773712
 20
444.0480633926425
 10
70.89993975045007
 20
446.4102084320904
 10
70.85340312352893
 20
448.7383901624185
 10
70.80686649660781
 20
451.0305244068719
 10
70.76032986968669
 20
453.2845543448054
 10
70.71379324276555
 20
455.4986252633318
 10
70.66725661584442
 20
457.67097300709
 10
70.62071998892331
 20
459.7998338472821
 10
70.57418336200217
 20
461.8834440551102
 10
70.52764673508103
 20
463.9200399017764
 10
70.48111010815994
 20
465.907857658483
 10
70.43457348123881
 20
467.8451335964319
 10
70.3880368543177
 20
469.7301039868253
 10
70.3415002273966
 20
471.5610051009519
 10
70.29496360047548
 20
473.3361529738406
 10
70.2484269735544
 20
475.0541729121143
 10
70.2018903466333
 20
476.7137651690003
 10
70.1553537197122
 20
478.3136299977261
 10
70.10881709279111
 20
479.8524676515191
 10
70.06228046587002
 20
481.3289783836067
 10
70.01574383894892
 20
482.7418624472165
 10
69.96920721202783
 20
484.0898200955755
 10
69.92267058510672
 20
485.3715515819115
 10
69.8761339581856
 20
486.5857581796479
 10
69.82959733126448
 20
487.7313097915407
 10
69.78306070434336
 20
488.807431477923
 10
69.73652407742222
 20
489.8133932487801
 10
69.6899874505011
 20
490.7484651140976
 10
69.64345082357995
 20
491.6119170838605
 10
69.59691419665882
 20
492.4030191680543
 10
69.55037756973768
 20
493.1210413766644
 10
69.50384094281654
 20
493.7652537196761
 10
69.45730431589543
 20
494.3349262070749
 10
69.4107676889743
 20
494.8293372401489
 10
69.36423106205316
 20
495.248038887227
 10
69.31769443513207
 20
495.5909109977099
 10
69.27115780821094
 20
495.8578527456805
 10
69.22462118128983
 20
496.0487633052227
 10
69.17808455436874
 20
496.1635418504196
 10
69.13154792744756
 20
496.2020875553548
  0
LWPOLYLINE
  5
7E
330
1F
100
AcDbEntity
  8
0
  6
CONTINUOUS
 62
     7
100
AcDbPolyline
 90
      105
 70
     0
 43
0.0
 10
-66.02801312001395
 20
317.6539252538474
 10
-66.07455309360702
 20
317.9541575984211
 10
-66.12109306720008
 20
318.3300329784827
 10
-66.16763304079315
 20
318.7812196146193
 10
-66.21417301438619
 20
319.307385727418
 10
-66.26071298797926
 20
319.9081995374659
 10
-66.30725296157232
 20
320.5833292653501
 10
-66.35379293516536
 20
321.3324330259128
 10
-66.4003329087584
 20
322.1548895738228
 10
-66.44687288235143
 20
323.0497694413387
 10
-66.49341285594446
 20
324.0161272650288
 10
-66.5399528295375
 20
325.0530176814619
 10
-66.58649280313051
 20
326.1594953272061
 10
-66.63303277672352
 20
327.3346148388299
 10
-66.67957275031652
 20
328.5774308529017
 10
-66.72611272390951
 20
329.8869980059901
 10
-66.77265269750251
 20
331.2623709346632
 10
-66.81919267109551
 20
332.7025769749217
 10
-66.86573264468846
 20
334.2063336173889
 10
-66.91227261828143
 20
335.7721619679645
 10
-66.95881259187442
 20
337.3985800138491
 10
-67.0053525654674
 20
339.0841057422436
 10
-67.05189253906042
 20
340.8272571403485
 10
-67.0984325126534
 20
342.6265521953644
 10
-67.14497248624644
 20
344.4805088944921
 10
-67.19151245983949
 20
346.3876452249322
 10
-67.23805243343256
 20
348.3464791738854
 10
-67.28459240702566
 20
350.3554807821902
 10
-67.33113238061878
 20
352.4128479784604
 10
-67.37767235421191
 20
354.5166828157085
 10
-67.42421232780507
 20
356.6650872394972
 10
-67.47075230139824
 20
358.8561631953893
 10
-67.5172922749914
 20
361.0880126289477
 10
-67.56383224858459
 20
363.3587374857348
 10
-67.61037222217774
 20
365.6664397113138
 10
-67.6569121957709
 20
368.009221251247
 10
-67.70345216936401
 20
370.3851840134145
 10
-67.74999214295714
 20
372.7923727774175
 10
-67.79653211655024
 20
375.2286601993455
 10
-67.84307209014331
 20
377.6918866487508
 10
-67.88961206373637
 20
380.1798924951854
 10
-67.9361520373294
 20
382.6905181082016
 10
-67.98269201092242
 20
385.2216038573514
 10
-68.02923198451543
 20
387.7709901121874
 10
-68.07577195810842
 20
390.3365172422613
 10
-68.1223119317014
 20
392.9160256171257
 10
-68.16885190529436
 20
395.5073551955462
 10
-68.2153918788873
 20
398.1083156995721
 10
-68.26193185248025
 20
400.7166664519845
 10
-68.3084718260732
 20
403.3301619992778
 10
-68.35501179966614
 20
405.9465568879463
 10
-68.40155177325911
 20
408.5636056644846
 10
-68.44809174685211
 20
411.1790628753872
 10
-68.49463172044511
 20
413.7906830671483
 10
-68.54117169403816
 20
416.3962207862625
 10
-68.58771166763121
 20
418.9934305792243
 10
-68.63425164122434
 20
421.580069227345
 10
-68.68079161481748
 20
424.1539409851443
 10
-68.72733158841069
 20
426.7128954957481
 10
-68.77387156200389
 20
429.2547842199145
 10
-68.8204115355971
 20
431.7774586184024
 10
-68.86695150919032
 20
434.2787701519699
 10
-68.91349148278354
 20
436.7565702813757
 10
-68.96003145637673
 20
439.2087104673781
 10
-69.0065714299699
 20
441.6330421707356
 10
-69.05311140356301
 20
444.0274168522067
 10
-69.0996513771561
 20
446.3897034619142
 10
-69.14619135074913
 20
448.7179347768367
 10
-69.19273132434212
 20
451.0102331127521
 10
-69.2392712979351
 20
453.2647216950219
 10
-69.28581127152806
 20
455.4795237490075
 10
-69.33235124512099
 20
457.6527625000704
 10
-69.3788912187139
 20
459.7825611735724
 10
-69.42543119230685
 20
461.8670429948749
 10
-69.47197116589977
 20
463.9043311893392
 10
-69.51851113949272
 20
465.892548982327
 10
-69.5650511130857
 20
467.8298782065618
 10
-69.6115910866787
 20
469.7147821705577
 10
-69.6581310602717
 20
471.5458085822065
 10
-69.70467103386474
 20
473.3215051653285
 10
-69.75121100745778
 20
475.0404196437433
 10
-69.79775098105087
 20
476.7010997412711
 10
-69.84429095464395
 20
478.3020931817316
 10
-69.89083092823705
 20
479.841947688945
 10
-69.93737090183015
 20
481.319210986731
 10
-69.98391087542326
 20
482.7324311050464
 10
-70.0304508490164
 20
484.0802924603724
 10
-70.07699082260952
 20
485.3618299446151
 10
-70.12353079620266
 20
486.5761339677862
 10
-70.17007076979579
 20
487.722294939897
 10
-70.2166107433889
 20
488.7994032709589
 10
-70.26315071698201
 20
489.8065493709835
 10
-70.30969069057511
 20
490.7428236499821
 10
-70.3562306641682
 20
491.6073165179664
 10
-70.40277063776125
 20
492.3991183849477
 10
-70.44931061135428
 20
493.117324501386
 10
-70.49585058494728
 20
493.7612699464537
 10
-70.54239055854026
 20
494.3306350365384
 10
-70.58893053213325
 20
494.8251268912142
 10
-70.6354705057262
 20
495.2444526300552
 10
-70.68201047931916
 20
495.5883193726358
 10
-70.72855045291212
 20
495.8564342385301
 10
-70.77509042650507
 20
496.0485043473125
 10
-70.82163040009806
 20
496.164236818557
 10
-70.86817037369084
 20
496.2033387718378
  0
LWPOLYLINE
  5
7F
330
1F
100
AcDbEntity
  8
0
  6
CONTINUOUS
 62
     7
100
AcDbPolyline
 90
       65
 70
     0
 43
0.0
 10
-48.91311969102215
 20
436.7370452789211
 10
-48.94366960051347
 20
438.3498411620155
 10
-48.97421951000479
 20
439.9509527500753
 10
-49.00476941949611
 20
441.5397672992934
 10
-49.03531932898743
 20
443.1156735223328
 10
-49.06586923847876
 20
444.6780944638784
 10
-49.09641914797007
 20
446.2264879700069
 10
-49.1269690574614
 20
447.760313437145
 10
-49.15751896695272
 20
449.2790302617191
 10
-49.18806887644404
 20
450.7820978401562
 10
-49.21861878593537
 20
452.2689755688825
 10
-49.2491686954267
 20
453.739122844325
 10
-49.27971860491802
 20
455.1919990629101
 10
-49.31026851440934
 20
456.6270636210645
 10
-49.34081842390067
 20
458.0437759152148
 10
-49.37136833339198
 20
459.4415953417876
 10
-49.4019182428833
 20
460.8199812972096
 10
-49.43246815237463
 20
462.1783931779074
 10
-49.46301806186595
 20
463.5162903803076
 10
-49.49356797135727
 20
464.833136118959
 10
-49.52411788084859
 20
466.1284549891661
 10
-49.55466779033991
 20
467.4018211100347
 10
-49.58521769983122
 20
468.6528100131017
 10
-49.61576760932254
 20
469.8809972299036
 10
-49.64631751881385
 20
471.0859582919774
 10
-49.67686742830516
 20
472.2672687308595
 10
-49.70741733779646
 20
473.4245040780868
 10
-49.73796724728776
 20
474.5572398651956
 10
-49.76851715677906
 20
475.6650516237231
 10
-49.79906706627037
 20
476.7475148852057
 10
-49.82961697576165
 20
477.8042051811799
 10
-49.86016688525294
 20
478.8346980431828
 10
-49.89071679474422
 20
479.8385690027507
 10
-49.92126670423551
 20
480.8153935914207
 10
-49.95181661372678
 20
481.7647548750816
 10
-49.98236652321806
 20
482.6863226291596
 10
-50.01291643270931
 20
483.579822156932
 10
-50.04346634220057
 20
484.4449796687271
 10
-50.07401625169184
 20
485.2815213748728
 10
-50.1045661611831
 20
486.0891734856971
 10
-50.13511607067437
 20
486.8676622115279
 10
-50.16566598016564
 20
487.6167137626933
 10
-50.1962158896569
 20
488.3360543495212
 10
-50.22676579914819
 20
489.0254101823397
 10
-50.25731570863947
 20
489.6845074714766
 10
-50.28786561813075
 20
490.3130724272602
 10
-50.31841552762205
 20
490.9108312600181
 10
-50.34896543711335
 20
491.4775101800784
 10
-50.37951534660466
 20
492.0128353977693
 10
-50.41006525609599
 20
492.5165456170013
 10
-50.44061516558734
 20
492.9884858603879
 10
-50.47116507507867
 20
493.4285548835293
 10
-50.50171498457002
 20
493.8366518568305
 10
-50.53226489406139
 20
494.2126759506969
 10
-50.56281480355275
 20
494.5565263355332
 10
-50.59336471304412
 20
494.8681021817449
 10
-50.62391462253549
 20
495.1473026597371
 10
-50.65446453202688
 20
495.3940269399148
 10
-50.68501444151826
 20
495.6081741926831
 10
-50.71556435100962
 20
495.7896435884471
 10
-50.746114260501
 20
495.9383342976121
 10
-50.77666416999237
 20
496.0541454905832
 10
-50.80721407948374
 20
496.1369763377653
 10
-50.83776398897511
 20
496.1867260095638
 10
-50.86831389846643
 20
496.2033118357036
  0
LWPOLYLINE
  5
80
330
1F
100
AcDbEntity
  8
0
  6
CONTINUOUS
 62
     7
100
AcDbPolyline
 90
      113
 70
     0
 43
0.0
 10
63.97147728730739
 20
317.6555679826114
 10
63.92826362578975
 20
317.9324430529671
 10
63.88504996427212
 20
318.2750188912999
 10
63.84183630275447
 20
318.6828538652322
 10
63.79862264123681
 20
319.1555058752645
 10
63.75540897971918
 20
319.692532821897
 10
63.71219531820153
 20
320.2934926056305
 10
63.6689816566839
 20
320.9579431269653
 10
63.62576799516626
 20
321.6854422864021
 10
63.58255433364862
 20
322.4755479844412
 10
63.539340672131
 20
323.3278181215832
 10
63.49612701061337
 20
324.2418088453146
 10
63.45291334909572
 20
325.2169172481356
 10
63.40969968757812
 20
326.2522565929604
 10
63.36648602606047
 20
327.3469107797971
 10
63.32327236454285
 20
328.4999637086538
 10
63.28005870302523
 20
329.7104992795386
 10
63.2368450415076
 20
330.9776013924596
 10
63.19363137998998
 20
332.3003539474248
 10
63.15041771847236
 20
333.6778408444423
 10
63.10720405695474
 20
335.1091459835202
 10
63.06399039543712
 20
336.5933532646667
 10
63.02077673391953
 20
338.1295197752058
 10
62.97756307240193
 20
339.7164600497522
 10
62.93434941088431
 20
341.3528597316181
 10
62.89113574936669
 20
343.0374032734811
 10
62.84792208784911
 20
344.7687751280188
 10
62.80470842633149
 20
346.5456597479092
 10
62.76149476481388
 20
348.3667415858296
 10
62.71828110329627
 20
350.230705094458
 10
62.67506744177866
 20
352.1362347264719
 10
62.63185378026104
 20
354.0820149345492
 10
62.58864011874342
 20
356.0667298046158
 10
62.54542645722579
 20
358.0889815278645
 10
62.50221279570815
 20
360.1471874995828
 10
62.45899913419055
 20
362.2397397857158
 10
62.41578547267289
 20
364.3650304522081
 10
62.37257181115526
 20
366.5214515650049
 10
62.32935814963763
 20
368.7073951900512
 10
62.28614448811999
 20
370.9212533932919
 10
62.24293082660235
 20
373.161418240672
 10
62.19971716508472
 20
375.4262817981365
 10
62.15650350356707
 20
377.7142361316303
 10
62.11328984204944
 20
380.0236657953154
 10
62.07007618053179
 20
382.3528636937281
 10
62.02686251901417
 20
384.7000614818896
 10
61.98364885749654
 20
387.0634896943433
 10
61.94043519597891
 20
389.441378865633
 10
61.89722153446127
 20
391.8319595303026
 10
61.85400787294366
 20
394.2334622228956
 10
61.81079421142604
 20
396.6441174779559
 10
61.76758054990843
 20
399.0621558300272
 10
61.72436688839083
 20
401.4858078136531
 10
61.68115322687323
 20
403.9133039593891
 10
61.63793956535562
 20
406.3428708078135
 10
61.59472590383805
 20
408.7727234162776
 10
61.55151224232046
 20
411.2010747888474
 10
61.50829858080287
 20
413.626137929589
 10
61.46508491928528
 20
416.0461258425682
 10
61.42187125776771
 20
418.4592515318512
 10
61.3786575962501
 20
420.8637280015037
 10
61.33544393473252
 20
423.2577682555917
 10
61.29223027321491
 20
425.6395852981813
 10
61.2490166116973
 20
428.0073921333382
 10
61.20580295017967
 20
430.35940567982
 10
61.16258928866205
 20
432.693909438794
 10
61.11937562714441
 20
435.00924259778
 10
61.07616196562677
 20
437.3037460579379
 10
61.03294830410911
 20
439.5757607204281
 10
60.98973464259146
 20
441.8236274864104
 10
60.9465209810738
 20
444.0456872570447
 10
60.90330731955614
 20
446.2402809334914
 10
60.86009365803848
 20
448.4057494169102
 10
60.81687999652085
 20
450.5404336084614
 10
60.77366633500319
 20
452.6426744100652
 10
60.73045267348556
 20
454.7108600325649
 10
60.68723901196792
 20
456.7435537903409
 10
60.64402535045029
 20
458.7393595008218
 10
60.60081168893266
 20
460.6968809814363
 10
60.55759802741504
 20
462.6147220496129
 10
60.51438436589743
 20
464.4914865227799
 10
60.4711707043798
 20
466.3257782183659
 10
60.4279570428622
 20
468.1162009537997
 10
60.38474338134459
 20
469.8613585465096
 10
60.34152971982697
 20
471.5598548139243
 10
60.29831605830937
 20
473.2103006611583
 10
60.25510239679176
 20
474.8114834800516
 10
60.21188873527416
 20
476.3623749735862
 10
60.16867507375655
 20
477.8619554982363
 10
60.12546141223893
 20
479.3092054104764
 10
60.08224775072134
 20
480.7031050667811
 10
60.03903408920372
 20
482.0426348236246
 10
59.99582042768612
 20
483.3267750374813
 10
59.95260676616851
 20
484.5545060648259
 10
59.90939310465089
 20
485.7248082621327
 10
59.86617944313328
 20
486.8366619858761
 10
59.82296578161564
 20
487.8891113773469
 10
59.77975212009802
 20
488.881505363606
 10
59.73653845858041
 20
489.8132838039684
 10
59.69332479706277
 20
490.6838865735955
 10
59.65011113554515
 20
491.4927535476497
 10
59.60689747402751
 20
492.2393246012924
 10
59.56368381250987
 20
492.9230396096859
 10
59.52047015099223
 20
493.5433384479919
 10
59.47725648947461
 20
494.0996609913724
 10
59.43404282795697
 20
494.5914471149891
 10
59.39082916643932
 20
495.018142014706
 10
59.34761550492167
 20
495.3793997797893
 10
59.30440184340402
 20
495.6751470520202
 10
59.26118818188638
 20
495.9053288087848
 10
59.21797452036873
 20
496.0698900274692
 10
59.17476085885109
 20
496.1687756854601
 10
59.13154719733339
 20
496.2019307601434
  0
LWPOLYLINE
  5
81
330
1F
100
AcDbEntity
  8
0
  6
CONTINUOUS
 62
     7
100
AcDbPolyline
 90
       38
 70
     0
 43
0.0
 10
116.4131196910221
 20
450.1294999415844
 10
116.3923512819005
 20
450.129117460274
 10
116.3716008586334
 20
450.1279726296738
 10
116.3509220073686
 20
450.1260693697807
 10
116.330368314254
 20
450.1234116005915
 10
116.3093677476521
 20
450.1198889146251
 10
116.2885378326409
 20
450.1155727937428
 10
116.2679353142444
 20
450.1104760580753
 10
116.247616937486
 20
450.1046115277529
 10
116.2281626566915
 20
450.0981796436091
 10
116.2090111398983
 20
450.0910332014852
 10
116.1902114746736
 20
450.0831914862936
 10
116.1718127485842
 20
450.0746737829464
 10
116.1533165511764
 20
450.0652085369992
 10
116.1352787776597
 20
450.055043681026
 10
116.117748142101
 20
450.0442078405407
 10
116.1007733585674
 20
450.0327296410572
 10
116.0848265540605
 20
450.020967886382
 10
116.0694331569518
 20
450.0086194066974
 10
116.0546322219592
 20
449.9957167276522
 10
116.0404628038009
 20
449.9822923748949
 10
116.0265563045524
 20
449.9679440802037
 10
116.0133443169636
 20
449.95306852748
 10
116.0008620314176
 20
449.9377069879436
 10
115.9891446382977
 20
449.9219007328145
 10
115.978503218622
 20
449.9061268270813
 10
115.9686034490008
 20
449.8899600811642
 10
115.9594699467671
 20
449.8734426605408
 10
115.9511273292541
 20
449.8566167306882
 10
115.9433783712957
 20
449.8389944807662
 10
115.9364816966427
 20
449.8210769172678
 10
115.9304550026083
 20
449.802913371882
 10
115.9253159865058
 20
449.7845531762982
 10
115.9209444092882
 20
449.7653734881316
 10
115.9175318326973
 20
449.7460104781095
 10
115.9150854151668
 20
449.7265211664899
 10
115.9136123151305
 20
449.7069625735306
 10
115.913119691022
 20
449.6873917194897
210
0.0
220
0.0
230
-1.0
  0
LWPOLYLINE
  5
82
330
1F
100
AcDbEntity
  8
0
  6
CONTINUOUS
 62
     7
100
AcDbPolyline
 90
        3
 70
     0
 43
0.0
 10
-51.30123598611301
 20
493.0455896960891
 10
-51.3676963032139
 20
493.1882357010415
 10
-51.39744618052512
 20
493.20338038388
  0
LWPOLYLINE
  5
83
330
1F
100
AcDbEntity
  8
0
  6
CONTINUOUS
 62
     7
100
AcDbPolyline
 90
        3
 70
     0
 43
0.0
 10
8.692352114455515
 20
493.0659291773046
 10
8.62613104116916
 20
493.1940345440447
 10
8.602770895274379
 20
493.2033803838245
  0
LWPOLYLINE
  5
84
330
1F
100
AcDbEntity
  8
0
  6
CONTINUOUS
 62
     7
100
AcDbPolyline
 90
        3
 70
     0
 43
0.0
 10
38.69315361796946
 20
493.0638324029265
 10
38.62488329549109
 20
493.1950224287178
 10
38.60281614681514
 20
493.2033803837884
  0
LWPOLYLINE
  5
85
330
1F
100
AcDbEntity
  8
0
  6
CONTINUOUS
 62
     7
100
AcDbPolyline
 90
      105
 70
     0
 43
0.0
 10
-7.931627354680379
 20
317.2046398024003
 10
-7.885087472976242
 20
317.2430271665502
 10
-7.838547591272102
 20
317.3576625755167
 10
-7.792007709567954
 20
317.5484380479473
 10
-7.745467827863797
 20
317.8152456024891
 10
-7.698927946159628
 20
318.1579772577894
 10
-7.652388064455452
 20
318.5765250324957
 10
-7.605848182751264
 20
319.0707708558824
 10
-7.559308301047063
 20
319.6403119485987
 10
-7.512768419342857
 20
320.2844280796209
 10
-7.466228537638645
 20
321.002382355606
 10
-7.419688655934435
 20
321.793437883211
 10
-7.37314877423023
 20
322.6568577690928
 10
-7.32660889252603
 20
323.5919051199083
 10
-7.280069010821843
 20
324.5978430423146
 10
-7.233529129117671
 20
325.6739346429685
 10
-7.186989247413519
 20
326.8194430285271
 10
-7.140449365709389
 20
328.0336028819032
 10
-7.093909484005279
 20
329.3153215378696
 10
-7.047369602301189
 20
330.6632965912233
 10
-7.000829720597113
 20
332.0762222057712
 10
-6.954289838893047
 20
333.5527925453197
 10
-6.907749957188988
 20
335.0917017736759
 10
-6.861210075484934
 20
336.6916440546464
 10
-6.814670193780881
 20
338.3513135520379
 10
-6.768130312076823
 20
340.0694044296572
 10
-6.721590430372759
 20
341.844610851311
 10
-6.675050548668683
 20
343.6755743939522
 10
-6.628510666964597
 20
345.5606344279821
 10
-6.581970785260499
 20
347.4980225772139
 10
-6.535430903556388
 20
349.4859703329004
 10
-6.488891021852266
 20
351.5227091862939
 10
-6.442351140148131
 20
353.6064706286468
 10
-6.395811258443982
 20
355.7354861512117
 10
-6.349271376739822
 20
357.9079872452412
 10
-6.302731495035648
 20
360.1222054019876
 10
-6.256191613331461
 20
362.376372072452
 10
-6.20965173162726
 20
364.6686498495084
 10
-6.163111849923048
 20
366.9969913547611
 10
-6.116571968218833
 20
369.3593093299739
 10
-6.070032086514612
 20
371.7535165169107
 10
-6.023492204810394
 20
374.1775256573351
 10
-5.976952323106182
 20
376.6292494930109
 10
-5.930412441401977
 20
379.1066007657019
 10
-5.883872559697785
 20
381.6074922171719
 10
-5.837332677993608
 20
384.1298365891845
 10
-5.790792796289452
 20
386.6715459391924
 10
-5.744252914585315
 20
389.2304802772059
 10
-5.697713032881198
 20
391.8044118928609
 10
-5.651173151177096
 20
394.3911046416598
 10
-5.604633269473005
 20
396.9883223791053
 10
-5.558093387768919
 20
399.5938289607
 10
-5.511553506064838
 20
402.2053882419468
 10
-5.465013624360759
 20
404.8207640783482
 10
-5.418473742656677
 20
407.4377203254069
 10
-5.371933860952589
 20
410.0540208386256
 10
-5.32539397924849
 20
412.6674302184928
 10
-5.27885409754438
 20
415.27572919189
 10
-5.232314215840261
 20
417.8767140710638
 10
-5.185774334136135
 20
420.4681818050003
 10
-5.139234452432
 20
423.0479293426865
 10
-5.092694570727859
 20
425.613753633109
 10
-5.046154689023714
 20
428.1634516252544
 10
-4.999614807319565
 20
430.6948202681093
 10
-4.953074925615412
 20
433.2056565106604
 10
-4.906535043911257
 20
435.6937573018944
 10
-4.859995162207103
 20
438.1569330260947
 10
-4.813455280502947
 20
440.59312171215
 10
-4.766915398798793
 20
443.0003319452049
 10
-4.720375517094639
 20
445.3765730542934
 10
-4.673835635390485
 20
447.719854368449
 10
-4.627295753686334
 20
450.0281852167059
 10
-4.580755871982183
 20
452.2995749280976
 10
-4.534215990278035
 20
454.5320328316581
 10
-4.48767610857389
 20
456.7235682564212
 10
-4.441136226869748
 20
458.8721905314209
 10
-4.394596345165606
 20
460.9759599885246
 10
-4.34805646346147
 20
463.0331850176661
 10
-4.301516581757333
 20
465.0422493136439
 10
-4.254976700053197
 20
467.0015365883948
 10
-4.208436818349059
 20
468.9094305538559
 10
-4.16189693664492
 20
470.7643149219641
 10
-4.115357054940779
 20
472.5645734046566
 10
-4.068817173236632
 20
474.3085897138703
 10
-4.022277291532481
 20
475.9947475615422
 10
-3.975737409828325
 20
477.6214309217759
 10
-3.929197528124159
 20
479.1871496109252
 10
-3.882657646419991
 20
480.6907407332138
 10
-3.836117764715818
 20
482.1310939186714
 10
-3.789577883011643
 20
483.5070987973272
 10
-3.743038001307469
 20
484.8176449992109
 10
-3.696498119603294
 20
486.0616221543515
 10
-3.649958237899122
 20
487.237919892779
 10
-3.603418356194955
 20
488.3454278445224
 10
-3.556878474490794
 20
489.3830356396114
 10
-3.51033859278664
 20
490.3496374264541
 10
-3.463798711082494
 20
491.2443575673597
 10
-3.417258829378355
 20
492.0666555426363
 10
-3.370718947674222
 20
492.8160172634594
 10
-3.324179065970095
 20
493.4919286410039
 10
-3.277639184265972
 20
494.0938755864451
 10
-3.231099302561853
 20
494.6213440109579
 10
-3.184559420857737
 20
495.0738198257174
 10
-3.138019539153623
 20
495.4507889418988
 10
-3.091479657449089
 20
495.7517372706794
210
0.0
220
0.0
230
-1.0
  0
LWPOLYLINE
  5
86
330
1F
100
AcDbEntity
  8
0
  6
CONTINUOUS
 62
     7
100
AcDbPolyline
 90
        3
 70
     0
 43
0.0
 10
-1.282246114333863
 20
492.9768727001297
 10
-1.348551460833569
 20
493.1627245882058
 10
-1.397266627148577
 20
493.2033803837621
  0
LWPOLYLINE
  5
87
330
1F
100
AcDbEntity
  8
0
  6
CONTINUOUS
 62
     7
100
AcDbPolyline
 90
      113
 70
     0
 43
0.0
 10
82.06864439236962
 20
317.2036596766279
 10
82.11185724300682
 20
317.2366529647042
 10
82.15507009364403
 20
317.3359549053167
 10
82.1982829442812
 20
317.5014086544533
 10
82.2414957949184
 20
317.7326990383789
 10
82.28470864555555
 20
318.0295096939357
 10
82.32792149619272
 20
318.3915242579659
 10
82.37113434682988
 20
318.8184263673114
 10
82.41434719746702
 20
319.3098996588142
 10
82.45756004810418
 20
319.8656277693166
 10
82.50077289874136
 20
320.4852943356604
 10
82.54398574937854
 20
321.1685829946878
 10
82.58719860001571
 20
321.9151765577045
 10
82.63041145065293
 20
322.7246150181706
 10
82.67362430129015
 20
323.5961342471869
 10
82.71683715192738
 20
324.5289311267466
 10
82.7600500025646
 20
325.5222025388427
 10
82.80326285320184
 20
326.5751453654683
 10
82.8464757038391
 20
327.6869564886165
 10
82.88968855447634
 20
328.8568327902805
 10
82.9329014051136
 20
330.0839711524532
 10
82.97611425575083
 20
331.3675684571277
 10
83.01932710638806
 20
332.7068215862973
 10
83.0625399570253
 20
334.1009059196044
 10
83.10575280766251
 20
335.5487533938731
 10
83.14896565829972
 20
337.0491419284842
 10
83.19217850893692
 20
338.6008470091537
 10
83.23539135957411
 20
340.2026441215971
 10
83.27860421021131
 20
341.8533087515303
 10
83.32181706084852
 20
343.5516163846688
 10
83.36502991148572
 20
345.2963425067283
 10
83.40824276212291
 20
347.0862626034246
 10
83.45145561276011
 20
348.9201521604732
 10
83.49466846339733
 20
350.7967865423036
 10
83.53788131403456
 20
352.7148639643077
 10
83.58109416467177
 20
354.6728733258498
 10
83.62430701530901
 20
356.6692683686038
 10
83.66751986594623
 20
358.7025028342428
 10
83.71073271658346
 20
360.7710304644405
 10
83.75394556722067
 20
362.8733050008701
 10
83.79715841785791
 20
365.0077801852052
 10
83.8403712684951
 20
367.1729097591192
 10
83.88358411913231
 20
369.3671474642855
 10
83.92679696976951
 20
371.5889470423776
 10
83.97000982040669
 20
373.8367555785495
 10
84.01322267104383
 20
376.1089158953486
 10
84.05643552168101
 20
378.4036881008535
 10
84.09964837231816
 20
380.7193300287921
 10
84.14286122295532
 20
383.054099512893
 10
84.18607407359248
 20
385.4062543868843
 10
84.22928692422964
 20
387.7740524844942
 10
84.27249977486683
 20
390.1557516394514
 10
84.31571262550402
 20
392.5496096854838
 10
84.35892547614122
 20
394.9538844563198
 10
84.40213832677846
 20
397.3668337848193
 10
84.44535117741572
 20
399.7867051877684
 10
84.488564028053
 20
402.2117102072732
 10
84.5317768786903
 20
404.6400525484042
 10
84.5749897293276
 20
407.0699359162326
 10
84.61820257996492
 20
409.499564015829
 10
84.66141543060225
 20
411.9271405522643
 10
84.70462828123955
 20
414.3508692306092
 10
84.74784113187688
 20
416.7689537559348
 10
84.79105398251419
 20
419.1795978333117
 10
84.83426683315147
 20
421.5810051678109
 10
84.87747968378875
 20
423.9713814183845
 10
84.92069253442598
 20
426.3489765329256
 10
84.96390538506321
 20
428.7120843899633
 10
85.00711823570042
 20
431.0590007502443
 10
85.05033108633761
 20
433.3880213745159
 10
85.0935439369748
 20
435.697442023525
 10
85.13675678761199
 20
437.9855584580188
 10
85.17996963824916
 20
440.2506664387441
 10
85.22318248888631
 20
442.491061726448
 10
85.26639533952346
 20
444.7050400818776
 10
85.30960819016062
 20
446.8908972657799
 10
85.35282104079779
 20
449.0469631063294
 10
85.39603389143494
 20
451.171720909237
 10
85.43924674207211
 20
453.2636971812851
 10
85.48245959270926
 20
455.3214184316447
 10
85.52567244334645
 20
457.3434111694867
 10
85.56888529398363
 20
459.3282019039821
 10
85.61209814462082
 20
461.2743171443021
 10
85.655310995258
 20
463.1802833996176
 10
85.69852384589521
 20
465.0446271790996
 10
85.7417366965324
 20
466.865874991919
 10
85.7849495471696
 20
468.6425576058513
 10
85.82816239780682
 20
470.3733552765085
 10
85.87137524844405
 20
472.0571336351848
 10
85.91458809908127
 20
473.6927698536779
 10
85.9578009497185
 20
475.2791411037864
 10
86.00101380035571
 20
476.8151245573079
 10
86.04422665099297
 20
478.2995973860409
 10
86.08743950163017
 20
479.7314367617832
 10
86.13065235226742
 20
481.1095198563333
 10
86.17386520290465
 20
482.432723841489
 10
86.21707805354188
 20
483.6999258890485
 10
86.2602909041791
 20
484.9100525197258
 10
86.30350375481633
 20
486.0623184682811
 10
86.34671660545355
 20
487.1560428020325
 10
86.38992945609075
 20
488.190544732322
 10
86.43314230672799
 20
489.1651434704921
 10
86.47635515736518
 20
490.0791582278844
 10
86.51956800800241
 20
490.9319082158413
 10
86.56278085863961
 20
491.7227126457049
 10
86.60599370927683
 20
492.4508907288174
 10
86.64920655991402
 20
493.1157616765206
 10
86.69241941055125
 20
493.7166477408094
 10
86.73563226118844
 20
494.2530550507967
 10
86.77884511182569
 20
494.7247755750555
 10
86.8220579624629
 20
495.1316259677549
 10
86.8652708131001
 20
495.4734228830636
 10
86.90848366373616
 20
495.7499829751449
210
0.0
220
0.0
230
-1.0
  0
LWPOLYLINE
  5
88
330
1F
100
AcDbEntity
  8
0
  6
CONTINUOUS
 62
     7
100
AcDbPolyline
 90
        7
 70
     0
 43
0.0
 10
-48.90078303955529
 20
404.0801776974441
 10
-48.88730755235847
 20
403.9714202177901
 10
-48.84887386440274
 20
403.8667906431629
 10
-48.78451014698311
 20
403.7700960519615
 10
-48.70541750250641
 20
403.6959858234083
 10
-48.61780897603611
 20
403.6435576736386
 10
-48.49521111097756
 20
403.6043821670222
  0
LWPOLYLINE
  5
89
330
1F
100
AcDbEntity
  8
0
  6
CONTINUOUS
 62
     7
100
AcDbPolyline
 90
        3
 70
     0
 43
0.0
 10
58.71161496814845
 20
493.0011941139212
 10
58.64519925140997
 20
493.1727071225739
 10
58.60278894699493
 20
493.2033803838306
  0
LWPOLYLINE
  5
8A
330
1F
100
AcDbEntity
  8
0
  6
CONTINUOUS
 62
     7
100
AcDbPolyline
 90
      113
 70
     0
 43
0.0
 10
62.06872532702902
 20
317.2033934083915
 10
62.11193754148231
 20
317.2368905079442
 10
62.15514975593559
 20
317.3365988121924
 10
62.19836197038887
 20
317.5022532802867
 10
62.24157418484214
 20
317.7335883351644
 10
62.2847863992954
 20
318.0303383997634
 10
62.32799861374868
 20
318.3922378970215
 10
62.37121082820195
 20
318.8190212498763
 10
62.41442304265522
 20
319.3104228812656
 10
62.45763525710847
 20
319.866177214127
 10
62.50084747156172
 20
320.4860186713984
 10
62.54405968601497
 20
321.1696800162155
 10
62.58727190046821
 20
321.9167319068462
 10
62.63048411492144
 20
322.726449109112
 10
62.67369632937468
 20
323.5980748947978
 10
62.71690854382791
 20
324.5308525356888
 10
62.76012075828115
 20
325.5240253035695
 10
62.80333297273437
 20
326.576836470225
 10
62.84654518718757
 20
327.6885293074399
 10
62.88975740164079
 20
328.8583470869995
 10
62.932969616094
 20
330.0855330806883
 10
62.97618183054719
 20
331.3693305602913
 10
63.01939404500038
 20
332.708954967307
 10
63.06260625945357
 20
334.1033624869379
 10
63.10581847390677
 20
335.5513682352448
 10
63.14903068835996
 20
337.0517859161822
 10
63.19224290281316
 20
338.6034292337046
 10
63.23545511726634
 20
340.2051118917664
 10
63.27866733171956
 20
341.8556475943225
 10
63.3218795461728
 20
343.5538500453271
 10
63.36509176062603
 20
345.2985329487348
 10
63.40830397507928
 20
347.0885100085
 10
63.45151618953258
 20
348.9225945659617
 10
63.49472840398589
 20
350.7995085985904
 10
63.5379406184392
 20
352.7177626171289
 10
63.58115283289253
 20
354.6758372996969
 10
63.62436504734588
 20
356.6722133244142
 10
63.66757726179924
 20
358.7053713694003
 10
63.71078947625259
 20
360.7737921127749
 10
63.75400169070597
 20
362.8759562326575
 10
63.79721390515931
 20
365.0103444071677
 10
63.84042611961266
 20
367.1754373144253
 10
63.88363833406599
 20
369.3697156325496
 10
63.9268505485193
 20
371.5916507160134
 10
63.97006276297261
 20
373.839596136572
 10
64.01327497742591
 20
376.111824764053
 10
64.05648719187917
 20
378.4066078947225
 10
64.09969940633242
 20
380.7222168248463
 10
64.14291162078567
 20
383.0569228506909
 10
64.18612383523889
 20
385.4089972685219
 10
64.22933604969211
 20
387.7767113746059
 10
64.27254826414531
 20
390.1583364652083
 10
64.31576047859849
 20
392.5521438365955
 10
64.35897269305167
 20
394.9564047731678
 10
64.40218490750485
 20
397.3693753174436
 10
64.44539712195802
 20
399.7892663810957
 10
64.48860933641119
 20
402.2142805622293
 10
64.53182155086435
 20
404.6426204589492
 10
64.57503376531751
 20
407.0724886693602
 10
64.6182459797707
 20
409.5020877915677
 10
64.6614581942239
 20
411.9296204236764
 10
64.70467040867713
 20
414.3532891637914
 10
64.74788262313037
 20
416.7712966100175
 10
64.79109483758366
 20
419.1818453604599
 10
64.83430705203698
 20
421.5831402635092
 10
64.87751926649031
 20
423.9734260937168
 10
64.9207314809437
 20
426.3509819114407
 10
64.96394369539709
 20
428.7140878910443
 10
65.00715590985051
 20
431.0610242068911
 10
65.0503681243039
 20
433.3900710333448
 10
65.0935803387573
 20
435.6995085447688
 10
65.1367925532107
 20
437.9876169155269
 10
65.18000476766406
 20
440.2526763199826
 10
65.22321698211744
 20
442.4929669324994
 10
65.26642919657074
 20
444.7067689275746
 10
65.30964141102399
 20
446.8924004422147
 10
65.35285362547725
 20
449.0483245868485
 10
65.39606583993044
 20
451.1730390732819
 10
65.43927805438362
 20
453.2650416133208
 10
65.4824902688368
 20
455.3228299187711
 10
65.52570248328995
 20
457.3449017014389
 10
65.56891469774308
 20
459.3297546731299
 10
65.61212691219623
 20
461.27588654565
 10
65.6553391266494
 20
463.1817950308053
 10
65.69855134110253
 20
465.0459778404016
 10
65.7417635555557
 20
466.8669386633499
 10
65.7849757700089
 20
468.6433381234013
 10
65.8281879844621
 20
470.3740054187954
 10
65.87140019891532
 20
472.0577780565432
 10
65.91461241336857
 20
473.6934935436551
 10
65.95782462782181
 20
475.2799893871417
 10
66.00103684227508
 20
476.8161030940137
 10
66.04424905672836
 20
478.3006721712816
 10
66.08746127118165
 20
479.7325341259564
 10
66.13067348563496
 20
481.1105264650483
 10
66.17388570008825
 20
482.4334866955682
 10
66.21709791454157
 20
483.7003105049853
 10
66.26031012899489
 20
484.9101811098542
 10
66.30352234344822
 20
486.0623703921222
 10
66.34673455790154
 20
487.156150258883
 10
66.38994677235486
 20
488.1907926172299
 10
66.43315898680817
 20
489.1655693742567
 10
66.47637120126149
 20
490.079752437057
 10
66.51958341571478
 20
490.9326137127244
 10
66.56279563016807
 20
491.7234251083524
 10
66.60600784462132
 20
492.4514585310345
 10
66.64922005907457
 20
493.1159906504934
 10
66.69243227352777
 20
493.7164985405099
 10
66.73564448798098
 20
494.2527287940075
 10
66.77885670243415
 20
494.7244469711146
 10
66.82206891688735
 20
495.1314186319591
 10
66.86528113134052
 20
495.4734093366692
 10
66.90849334579323
 20
495.75018464537
210
0.0
220
0.0
230
-1.0
  0
LWPOLYLINE
  5
8B
330
1F
100
AcDbEntity
  8
0
  6
CONTINUOUS
 62
     7
100
AcDbPolyline
 90
       33
 70
     0
 43
0.0
 10
-80.86861095835192
 20
496.203204271498
 10
-80.87359826529784
 20
496.2027763592531
 10
-80.87858557224378
 20
496.2014662930178
 10
-80.8835728791897
 20
496.1992737516191
 10
-80.88856018613562
 20
496.1961984138849
 10
-80.89354749308154
 20
496.1922399586423
 10
-80.89853480002748
 20
496.1873980647191
 10
-80.90352210697338
 20
496.1816724109423
 10
-80.90850941391935
 20
496.1750626761399
 10
-80.91349672086525
 20
496.1675685584595
 10
-80.91848402781119
 20
496.1591901472252
 10
-80.92347133475712
 20
496.149927895483
 10
-80.92845864170302
 20
496.1397822701003
 10
-80.93344594864895
 20
496.1287537379442
 10
-80.93843325559489
 20
496.1168427658815
 10
-80.94342056254081
 20
496.1040498207797
 10
-80.94840786948674
 20
496.0903753695058
 10
-80.95339517643266
 20
496.0758198789269
 10
-80.95838248337857
 20
496.06038381591
 10
-80.9633697903245
 20
496.0440676473225
 10
-80.96835709727043
 20
496.0268718400313
 10
-80.97334440421636
 20
496.0087968609035
 10
-80.97833171116228
 20
495.9898431768063
 10
-80.9833190181082
 20
495.9700112546068
 10
-80.98830632505414
 20
495.9493015611723
 10
-80.99329363200006
 20
495.9277145633697
 10
-80.99828093894598
 20
495.9052507280661
 10
-81.00326824589192
 20
495.8819105221287
 10
-81.00825555283785
 20
495.8576944124247
 10
-81.01324285978377
 20
495.8326028658211
 10
-81.0182301667297
 20
495.8066363491849
 10
-81.0232174736756
 20
495.7797953293836
 10
-81.0282047806213
 20
495.7520802732854
  0
LWPOLYLINE
  5
8C
330
1F
100
AcDbEntity
  8
0
  6
CONTINUOUS
 62
     7
100
AcDbPolyline
 90
       42
 70
     0
 43
0.0
 10
48.91311969102203
 20
501.6730255850969
 10
48.91310974325001
 20
501.6760983722111
 10
48.91212858448247
 20
501.7036769268536
 10
48.90953345875452
 20
501.7312461831652
 10
48.90529052946345
 20
501.7588520699232
 10
48.89938254312616
 20
501.7863564551556
 10
48.89162477522439
 20
501.8142095279126
 10
48.88207189756084
 20
501.8418500002244
 10
48.8706282476878
 20
501.8693272582872
 10
48.85727559116033
 20
501.8964581669918
 10
48.84725906785249
 20
501.9143555630288
 10
48.83634880123665
 20
501.9320272850401
 10
48.82449479960575
 20
501.9494864161713
 10
48.81170100970843
 20
501.9666574157049
 10
48.79773998859614
 20
501.9837440885024
 10
48.7827636155256
 20
502.0004565459124
 10
48.76668897207902
 20
502.0168044362777
 10
48.74954040061739
 20
502.0326769196097
 10
48.73655066040443
 20
502.0437482257822
 10
48.72299178037882
 20
502.0545156709213
 10
48.70872252120726
 20
502.0650490339065
 10
48.69388236966064
 20
502.0752038922457
 10
48.67837424870762
 20
502.0850087779202
 10
48.66229115612273
 20
502.0943672817272
 10
48.64542900163899
 20
502.1033514578809
 10
48.62795753468209
 20
502.1118216264654
 10
48.61410431361256
 20
502.1179631649816
 10
48.59990681390065
 20
502.1237539632564
 10
48.58522107826825
 20
502.1292282475356
 10
48.57022808649007
 20
502.1342957602047
 10
48.55484000838948
 20
502.1389666127363
 10
48.53917720457336
 20
502.1431863519146
 10
48.5230497190602
 20
502.1469825596952
 10
48.50665650065957
 20
502.150284531459
 10
48.49531532475275
 20
502.1522465795696
 10
48.48387730750851
 20
502.1539622309179
 10
48.47227245277951
 20
502.1554356834051
 10
48.46060356550024
 20
502.1566485226283
 10
48.44883158471007
 20
502.1576008670319
 10
48.4370199202241
 20
502.1582844802532
 10
48.42508345606338
 20
502.1586995949436
 10
48.41311969102203
 20
502.1588383087956
210
0.0
220
0.0
230
-1.0
  0
LWPOLYLINE
  5
8D
330
1F
100
AcDbEntity
  8
0
  6
CONTINUOUS
 62
     7
100
AcDbPolyline
 90
      113
 70
     0
 43
0.0
 10
-27.93163263459096
 20
317.2049228560338
 10
-27.88840929528103
 20
317.2378205345123
 10
-27.84518595597111
 20
317.336479756336
 10
-27.80196261666118
 20
317.500865480331
 10
-27.75873927735125
 20
317.7309426653234
 10
-27.71551593804134
 20
318.0266762701398
 10
-27.67229259873142
 20
318.3880312535155
 10
-27.62906925942152
 20
318.814885556132
 10
-27.58584592011162
 20
319.3067795729615
 10
-27.54262258080173
 20
319.8631718650606
 10
-27.49939924149184
 20
320.4835209934859
 10
-27.45617590218194
 20
321.1672855192942
 10
-27.41295256287206
 20
321.9139240035423
 10
-27.36972922356217
 20
322.7228950072865
 10
-27.32650588425228
 20
323.593657091584
 10
-27.28328254494239
 20
324.5256688174911
 10
-27.2400592056325
 20
325.5183887460648
 10
-27.1968358663226
 20
326.5712674341748
 10
-27.1536125270127
 20
327.6835426465345
 10
-27.1103891877028
 20
328.8542220760187
 10
-27.06716584839289
 20
330.082301948774
 10
-27.02394250908299
 20
331.3667784909472
 10
-26.98071916977309
 20
332.7066479286851
 10
-26.93749583046319
 20
334.1009064881342
 10
-26.89427249115329
 20
335.5485503954415
 10
-26.8510491518434
 20
337.0485758767534
 10
-26.8078258125335
 20
338.5999791582167
 10
-26.76460247322361
 20
340.2017564659781
 10
-26.72137913391374
 20
341.852853010072
 10
-26.67815579460386
 20
343.5519620399671
 10
-26.63493245529399
 20
345.2976991568864
 10
-26.59170911598412
 20
347.0886799402178
 10
-26.54848577667426
 20
348.9235199693496
 10
-26.50526243736439
 20
350.8008348236696
 10
-26.46203909805452
 20
352.7192400825658
 10
-26.41881575874465
 20
354.6773513254261
 10
-26.37559241943477
 20
356.6737841316385
 10
-26.3323690801249
 20
358.7071540805911
 10
-26.28914574081501
 20
360.7760741071463
 10
-26.24592240150511
 20
362.8790478369394
 10
-26.20269906219521
 20
365.0144330178769
 10
-26.1594757228853
 20
367.1805772481648
 10
-26.11625238357539
 20
369.3758281260095
 10
-26.07302904426547
 20
371.598533249617
 10
-26.02980570495554
 20
373.847040217194
 10
-25.98658236564562
 20
376.1196966269464
 10
-25.94335902633569
 20
378.4148500770804
 10
-25.90013568702575
 20
380.7308481658025
 10
-25.85691234771582
 20
383.0660384913189
 10
-25.81368900840587
 20
385.4187550060249
 10
-25.77046566909593
 20
387.7872454504172
 10
-25.727242329786
 20
390.1697239913792
 10
-25.68401899047605
 20
392.5644047200973
 10
-25.64079565116611
 20
394.9695017277579
 10
-25.59757231185618
 20
397.3832291055476
 10
-25.55434897254624
 20
399.8038009446527
 10
-25.51112563323631
 20
402.2294313362596
 10
-25.46790229392639
 20
404.6583343715547
 10
-25.42467895461648
 20
407.0887241417247
 10
-25.38145561530657
 20
409.518814796388
 10
-25.33823227599668
 20
411.9468246790478
 10
-25.29500893668679
 20
414.3709790635777
 10
-25.25178559737691
 20
416.7895038732449
 10
-25.20856225806703
 20
419.2006250313169
 10
-25.16533891875716
 20
421.6025684610612
 10
-25.12211557944728
 20
423.9935600857453
 10
-25.07889224013741
 20
426.3718258286366
 10
-25.03566890082754
 20
428.7355916130026
 10
-24.99244556151766
 20
431.0830833621107
 10
-24.94922222220778
 20
433.4125269992285
 10
-24.9059988828979
 20
435.7221603002073
 10
-24.86277554358801
 20
438.0103178240032
 10
-24.81955220427812
 20
440.2753813824272
 10
-24.77632886496823
 20
442.5157331070214
 10
-24.73310552565832
 20
444.7297551293285
 10
-24.68988218634842
 20
446.9158295808908
 10
-24.64665884703851
 20
449.0723385932506
 10
-24.6034355077286
 20
451.1976642979505
 10
-24.56021216841869
 20
453.2901888265326
 10
-24.51698882910878
 20
455.3482943105395
 10
-24.47376548979886
 20
457.3703634586342
 10
-24.43054215048894
 20
459.3548657625701
 10
-24.38731881117902
 20
461.3004492473744
 10
-24.34409547186911
 20
463.2057839166678
 10
-24.30087213255918
 20
465.0695397740712
 10
-24.25764879324927
 20
466.8903868232052
 10
-24.21442545393936
 20
468.6669950676906
 10
-24.17120211462945
 20
470.3980345111481
 10
-24.12797877531954
 20
472.0821751571983
 10
-24.08475543600964
 20
473.7180870094623
 10
-24.04153209669975
 20
475.3044400715605
 10
-23.99830875738986
 20
476.8399259373205
 10
-23.95508541807997
 20
478.3234679120651
 10
-23.91186207877009
 20
479.7541301214842
 10
-23.86863873946022
 20
481.1309786777537
 10
-23.82541540015034
 20
482.4530796930493
 10
-23.78219206084047
 20
483.7194992795471
 10
-23.73896872153058
 20
484.9293035494228
 10
-23.6957453822207
 20
486.0815586148524
 10
-23.65252204291081
 20
487.1753305880117
 10
-23.60929870360091
 20
488.2096855810767
 10
-23.56607536429101
 20
489.1836899655002
 10
-23.52285202498109
 20
490.0965283735529
 10
-23.47962868567116
 20
490.9476905006677
 10
-23.43640534636123
 20
491.73671456833
 10
-23.3931820070513
 20
492.4631387980251
 10
-23.34995866774136
 20
493.1265014112379
 10
-23.30673532843142
 20
493.7263406294536
 10
-23.26351198912148
 20
494.2621946741574
 10
-23.22028864981155
 20
494.7336017668347
 10
-23.17706531050162
 20
495.1401001289705
 10
-23.1338419711917
 20
495.4812279820501
 10
-23.09061863188212
 20
495.7565427013024
210
0.0
220
0.0
230
-1.0
  0
LWPOLYLINE
  5
8E
330
1F
100
AcDbEntity
  8
0
  6
CONTINUOUS
 62
     7
100
AcDbPolyline
 90
       73
 70
     0
 43
0.0
 10
86.02820548425548
 20
317.654564496436
 10
86.06827373712719
 20
317.908915942348
 10
86.10834198999888
 20
318.2194302611201
 10
86.14841024287057
 20
318.5858552508181
 10
86.18847849574227
 20
319.0079387095079
 10
86.22854674861395
 20
319.4854284352556
 10
86.26861500148564
 20
320.018072226127
 10
86.30868325435733
 20
320.6056178801881
 10
86.34875150722905
 20
321.2478131955049
 10
86.38881976010076
 20
321.9444046373387
 10
86.4288880129725
 20
322.6950102193068
 10
86.46895626584424
 20
323.4990144332229
 10
86.50902451871598
 20
324.3557770404573
 10
86.54909277158777
 20
325.264657802381
 10
86.5891610244595
 20
326.2250164803643
 10
86.62922927733126
 20
327.236212835778
 10
86.66929753020305
 20
328.2976066299929
 10
86.70936578307479
 20
329.4085576243795
 10
86.74943403594656
 20
330.5684255803085
 10
86.78950228881834
 20
331.7765702591506
 10
86.82957054169009
 20
333.0323514222764
 10
86.86963879456184
 20
334.335087462153
 10
86.90970704743359
 20
335.6838757602212
 10
86.94977530030529
 20
337.0777401938997
 10
86.98984355317702
 20
338.5157045911441
 10
87.02991180604877
 20
339.9967927799095
 10
87.06998005892049
 20
341.520028588151
 10
87.11004831179221
 20
343.084435843824
 10
87.15011656466393
 20
344.6890383748836
 10
87.19018481753568
 20
346.3328600092851
 10
87.2302530704074
 20
348.0149245749838
 10
87.27032132327915
 20
349.7342558999347
 10
87.3103895761509
 20
351.4898713053387
 10
87.35045782902263
 20
353.2806598504712
 10
87.39052608189438
 20
355.1053931997575
 10
87.43059433476614
 20
356.9628386896251
 10
87.47066258763792
 20
358.8517636565013
 10
87.51073084050965
 20
360.7709354368135
 10
87.55079909338139
 20
362.7191213669892
 10
87.59086734625318
 20
364.695088783456
 10
87.6309355991249
 20
366.6976050226409
 10
87.67100385199662
 20
368.7254374209717
 10
87.71107210486834
 20
370.7773533148756
 10
87.7511403577401
 20
372.8521199263749
 10
87.79120861061179
 20
374.9484639048588
 10
87.83127686348348
 20
377.0650116296444
 10
87.87134511635516
 20
379.2003742610638
 10
87.91141336922685
 20
381.3531629594492
 10
87.95148162209856
 20
383.5219888851329
 10
87.99154987497025
 20
385.7054631984473
 10
88.03161812784195
 20
387.9021970597245
 10
88.07168638071366
 20
390.1108016292968
 10
88.11175463358538
 20
392.3298880674963
 10
88.1518228864571
 20
394.5580675346554
 10
88.19189113932886
 20
396.7939511911064
 10
88.23195939220064
 20
399.0361466014897
 10
88.27202764507244
 20
401.2832342104705
 10
88.31209589794426
 20
403.5337820906491
 10
88.35216415081608
 20
405.7863582514666
 10
88.3922324036879
 20
408.0395307023646
 10
88.43230065655973
 20
410.2918674527845
 10
88.47236890943157
 20
412.5419365121677
 10
88.5124371623034
 20
414.7883058899555
 10
88.55250541517526
 20
417.0295435955895
 10
88.59257366804707
 20
419.264217638511
 10
88.63264192091889
 20
421.4908960281612
 10
88.67271017379068
 20
423.7081477034174
 10
88.71277842666245
 20
425.9145731706412
 10
88.75284667953419
 20
428.1088114825611
 10
88.79291493240592
 20
430.2895040345962
 10
88.83298318527767
 20
432.4552922221654
 10
88.87305143814936
 20
434.6048174406874
 10
88.91311969102202
 20
436.7367210856312
210
0.0
220
0.0
230
-1.0
  0
LWPOLYLINE
  5
8F
330
1F
100
AcDbEntity
  8
0
  6
CONTINUOUS
 62
     7
100
AcDbPolyline
 90
      113
 70
     0
 43
0.0
 10
13.97137003509324
 20
317.6571493871315
 10
13.92815560239179
 20
317.9336225520129
 10
13.88494116969033
 20
318.2756046613862
 10
13.84172673698886
 20
318.683034393776
 10
13.79851230428738
 20
319.1557108075361
 10
13.75529787158588
 20
319.6931129621883
 10
13.71208343888438
 20
320.2946752725617
 10
13.66886900618288
 20
320.9598321534856
 10
13.62565457348137
 20
321.6880180197889
 10
13.58244014077986
 20
322.478667286301
 10
13.53922570807836
 20
323.3312143678509
 10
13.49601127537685
 20
324.2450936792679
 10
13.45279684267536
 20
325.2197396353811
 10
13.40958240997388
 20
326.2545866510196
 10
13.36636797727241
 20
327.3490483243285
 10
13.32315354457094
 20
328.502279195872
 10
13.27993911186949
 20
329.7132581959908
 10
13.23672467916805
 20
330.9809609226745
 10
13.19351024646661
 20
332.3043629739124
 10
13.15029581376517
 20
333.6824399476945
 10
13.10708138106373
 20
335.1141674420103
 10
13.06386694836229
 20
336.5985210548494
 10
13.02065251566085
 20
338.1344763842017
 10
12.97743808295939
 20
339.7210090280564
 10
12.93422365025792
 20
341.357094510365
 10
12.89100921755644
 20
343.0416240469841
 10
12.84779478485495
 20
344.7732425317541
 10
12.80458035215346
 20
346.5505501127171
 10
12.76136591945195
 20
348.372146937915
 10
12.71815148675043
 20
350.2366331553898
 10
12.67493705404891
 20
352.1426089131838
 10
12.63172262134737
 20
354.088674359339
 10
12.58850818864583
 20
356.0734296418973
 10
12.54529375594429
 20
358.0954749089011
 10
12.50207932324274
 20
360.1534103083922
 10
12.45886489054119
 20
362.2458281918718
 10
12.41565045783964
 20
364.3711855225883
 10
12.37243602513808
 20
366.5278245467281
 10
12.32922159243653
 20
368.7140838837819
 10
12.28600715973498
 20
370.9283021532399
 10
12.24279272703344
 20
373.1688179745925
 10
12.1995782943319
 20
375.4339699673299
 10
12.15636386163037
 20
377.7220967509425
 10
12.11314942892886
 20
380.0315369449208
 10
12.06993499622735
 20
382.360629168755
 10
12.02672056352586
 20
384.7077120417374
 10
11.98350613082439
 20
387.0711017686504
 10
11.94029169812292
 20
389.4490303941534
 10
11.89707726542147
 20
391.8397102140443
 10
11.85386283272003
 20
394.2413535241205
 10
11.81064840001859
 20
396.65217262018
 10
11.76743396731717
 20
399.0703797980203
 10
11.72421953461574
 20
401.4941873534392
 10
11.68100510191431
 20
403.9218075822342
 10
11.63779066921289
 20
406.3514527802033
 10
11.59457623651145
 20
408.7813352431439
 10
11.55136180381002
 20
411.2096676173387
 10
11.50814737110858
 20
413.634671474358
 10
11.46493293840713
 20
416.0545778192896
 10
11.42171850570568
 20
418.4676181094504
 10
11.37850407300422
 20
420.8720238021565
 10
11.33528964030276
 20
423.2660263547245
 10
11.29207520760129
 20
425.6478572244708
 10
11.24886077489983
 20
428.0157478687122
 10
11.20564634219835
 20
430.3679297447648
 10
11.16243190949688
 20
432.702634309945
 10
11.11921747679541
 20
435.0180930215697
 10
11.07600304409394
 20
437.3125596578751
 10
11.03278861139246
 20
439.5843960841264
 10
10.98957417869098
 20
441.8319968380073
 10
10.94635974598951
 20
444.0537564641808
 10
10.90314531328802
 20
446.248069507309
 10
10.85993088058654
 20
448.4133305120548
 10
10.81671644788504
 20
450.5479340230801
 10
10.77350201518355
 20
452.6502745850483
 10
10.73028758248205
 20
454.7187467426213
 10
10.68707314978055
 20
456.751745040462
 10
10.64385871707903
 20
458.7476670201103
 10
10.60064428437752
 20
460.7050308850111
 10
10.55742985167599
 20
462.6225140316733
 10
10.51421541897447
 20
464.4988047457164
 10
10.47100098627295
 20
466.3325913127599
 10
10.42778655357142
 20
468.1225620184232
 10
10.3845721208699
 20
469.8674051483261
 10
10.34135768816838
 20
471.5658089880876
 10
10.29814325546687
 20
473.2164618233277
 10
10.25492882276536
 20
474.8180519396654
 10
10.21171439006387
 20
476.3692676227206
 10
10.16849995736238
 20
477.8688384079219
 10
10.1252855246609
 20
479.315752677382
 10
10.08207109195944
 20
480.7090989889949
 10
10.03885665925798
 20
482.0479661180058
 10
9.995642226556525
 20
483.3314428396601
 10
9.952427793855076
 20
484.5586179292031
 10
9.90921336115363
 20
485.7285801618803
 10
9.865998928452186
 20
486.8404183129369
 10
9.822784495750744
 20
487.8932211576184
 10
9.779570063049302
 20
488.8860774711701
 10
9.736355630347859
 20
489.8180783729775
 10
9.693141197646414
 20
490.6884832225829
 10
9.649926764944965
 20
491.4968293913174
 10
9.606712332243509
 20
492.2426803004626
 10
9.56349789954205
 20
492.9255993712997
 10
9.520283466840585
 20
493.5451500251102
 10
9.477069034139113
 20
494.1008956831755
 10
9.43385460143763
 20
494.5923997667768
 10
9.390640168736143
 20
495.0192256971958
 10
9.34742573603464
 20
495.3809368957137
 10
9.304211303333132
 20
495.6770967836121
 10
9.260996870631606
 20
495.9073071664417
 10
9.217782437930074
 20
496.0714855193664
 10
9.174568005228531
 20
496.169704364989
 10
9.131353572526299
 20
496.202037299853
  0
LWPOLYLINE
  5
90
330
1F
100
AcDbEntity
  8
0
  6
CONTINUOUS
 62
     7
100
AcDbPolyline
 90
      113
 70
     0
 43
0.0
 10
72.06842523468386
 20
317.2034873298564
 10
72.11164052020213
 20
317.2363248317161
 10
72.15485580572042
 20
317.3354747558163
 10
72.19807109123872
 20
317.5006777445075
 10
72.24128637675699
 20
317.7316427428153
 10
72.28450166227529
 20
318.0280786957651
 10
72.32771694779356
 20
318.3896945483826
 10
72.37093223331186
 20
318.8161992456933
 10
72.41414751883015
 20
319.3073017327227
 10
72.45736280434846
 20
319.8627109544964
 10
72.50057808986678
 20
320.4821358560399
 10
72.54379337538506
 20
321.1652853823786
 10
72.5870086609034
 20
321.9118355266969
 10
72.6302239464217
 20
322.7211651057146
 10
72.67343923194001
 20
323.5924954105454
 10
72.71665451745831
 20
324.5250462896147
 10
72.75986980297664
 20
325.5180375913478
 10
72.80308508849497
 20
326.5706891641703
 10
72.8463003740133
 20
327.6822208565074
 10
72.88951565953164
 20
328.8518525167847
 10
72.93273094504998
 20
330.0788039934277
 10
72.97594623056831
 20
331.3622951348615
 10
73.01916151608665
 20
332.7015452449118
 10
73.06237680160501
 20
334.0956540639327
 10
73.10559208712337
 20
335.5434525240703
 10
73.14880737264173
 20
337.0437348666895
 10
73.19202265816008
 20
338.5952953331555
 10
73.23523794367843
 20
340.196928164833
 10
73.2784532291968
 20
341.8474276030871
 10
73.32166851471513
 20
343.5455878892826
 10
73.36488380023347
 20
345.2902032647845
 10
73.4080990857518
 20
347.0800679709579
 10
73.4513143712701
 20
348.9139762491674
 10
73.4945296567884
 20
350.7907069924159
 10
73.53774494230672
 20
352.7088530020679
 10
73.580960227825
 20
354.6668832766012
 10
73.62417551334326
 20
356.6632645762014
 10
73.66739079886156
 20
358.6964636610542
 10
73.71060608437982
 20
360.7649472913448
 10
73.75382136989808
 20
362.867182227259
 10
73.79703665541636
 20
365.0016352289823
 10
73.84025194093464
 20
367.1667730567002
 10
73.88346722645294
 20
369.3610624705983
 10
73.92668251197124
 20
371.5829701820774
 10
73.96989779748952
 20
373.8309165142081
 10
74.01311308300784
 20
376.1031890970148
 10
74.05632836852615
 20
378.3980519861406
 10
74.09954365404447
 20
380.713769237229
 10
74.14275893956278
 20
383.048604905923
 10
74.18597422508113
 20
385.4008230478662
 10
74.22918951059944
 20
387.7686877187017
 10
74.27240479611774
 20
390.150462974073
 10
74.31562008163606
 20
392.544412869623
 10
74.35883536715437
 20
394.9488014609955
 10
74.40205065267264
 20
397.3618908986613
 10
74.44526593819093
 20
399.7819112628669
 10
74.48848122370921
 20
402.2070659865612
 10
74.53169650922747
 20
404.6355576937871
 10
74.57491179474574
 20
407.0655890085876
 10
74.61812708026402
 20
409.4953625550053
 10
74.66134236578229
 20
411.9230809570832
 10
74.70455765130055
 20
414.3469468388643
 10
74.74777293681882
 20
416.7651628243915
 10
74.79098822233709
 20
419.1759315377074
 10
74.83420350785538
 20
421.5774556031923
 10
74.87741879337368
 20
423.9679530404461
 10
74.92063407889196
 20
426.3456983602672
 10
74.9638493644103
 20
428.7089790274068
 10
75.0070646499286
 20
431.0560825066161
 10
75.05027993544692
 20
433.3852962626466
 10
75.09349522096528
 20
435.6949077602495
 10
75.13671050648362
 20
437.983204464176
 10
75.17992579200198
 20
440.2484738391773
 10
75.22314107752035
 20
442.4890033500049
 10
75.26635636303871
 20
444.7030804614099
 10
75.30957164855711
 20
446.8889969451591
 10
75.35278693407548
 20
449.0451501271739
 10
75.39600221959385
 20
451.1700466258378
 10
75.43921750511224
 20
453.2621981144951
 10
75.48243279063061
 20
455.3201162664899
 10
75.52564807614898
 20
457.3423127551664
 10
75.56886336166733
 20
459.3272992538687
 10
75.61207864718567
 20
461.2735874359411
 10
75.655293932704
 20
463.1796889747275
 10
75.6985092182223
 20
465.0441155435723
 10
75.74172450374058
 20
466.8653788158197
 10
75.78493978925884
 20
468.642038964514
 10
75.82815507477707
 20
470.3728853499441
 10
75.87137036029529
 20
472.0567749657848
 10
75.9145856458135
 20
473.6925648155315
 10
75.95780093133169
 20
475.2791119026789
 10
76.0010162168499
 20
476.8152732307223
 10
76.04423150236812
 20
478.2999058031565
 10
76.08744678788634
 20
479.7318666234768
 10
76.13066207340457
 20
481.1100126951781
 10
76.17387735892284
 20
482.4332010217555
 10
76.21709264444114
 20
483.7002933675486
 10
76.26030792995945
 20
484.9103339631943
 10
76.3035232154778
 20
486.0626025696547
 10
76.34673850099615
 20
487.15639453881
 10
76.38995378651457
 20
488.1910052225405
 10
76.43316907203295
 20
489.165729972726
 10
76.47638435755138
 20
490.079864141247
 10
76.5195996430698
 20
490.9327030799834
 10
76.56281492858822
 20
491.7235421408153
 10
76.60603021410662
 20
492.451676675623
 10
76.64924549962507
 20
493.1164020362869
 10
76.69246078514347
 20
493.7170661759362
 10
76.73567607066184
 20
494.2533385104088
 10
76.77889135618021
 20
494.7250098596679
 10
76.82210664169855
 20
495.1318712689692
 10
76.86532192721688
 20
495.4737137835687
 10
76.90853721273467
 20
495.7503284487194
210
0.0
220
0.0
230
-1.0
  0
LWPOLYLINE
  5
91
330
1F
100
AcDbEntity
  8
0
  6
CONTINUOUS
 62
     7
100
AcDbPolyline
 90
      113
 70
     0
 43
0.0
 10
-57.9314255699486
 20
317.2048966836898
 10
-57.88821364771535
 20
317.2377548709691
 10
-57.84500172548211
 20
317.3364227531382
 10
-57.80178980324884
 20
317.5009424880055
 10
-57.75857788101558
 20
317.73135623338
 10
-57.71536595878228
 20
318.0276882841314
 10
-57.67215403654898
 20
318.3896901660162
 10
-57.62894211431567
 20
318.8169005846084
 10
-57.58573019208237
 20
319.3088526043014
 10
-57.54251826984905
 20
319.8650792894881
 10
-57.49930634761571
 20
320.4851137045619
 10
-57.45609442538238
 20
321.168488913916
 10
-57.41288250314908
 20
321.9147379819437
 10
-57.36967058091577
 20
322.7233939730384
 10
-57.32645865868245
 20
323.5939899515931
 10
-57.28324673644917
 20
324.5260589709966
 10
-57.2400348142159
 20
325.5190427310486
 10
-57.19682289198264
 20
326.57207010719
 10
-57.15361096974941
 20
327.6842030700998
 10
-57.11039904751617
 20
328.8545035904567
 10
-57.06718712528294
 20
330.0820336389396
 10
-57.0239752030497
 20
331.3658551862276
 10
-56.98076328081648
 20
332.7050302029994
 10
-56.93755135858322
 20
334.0986206599341
 10
-56.89433943634997
 20
335.5456885277106
 10
-56.85112751411672
 20
337.0452957770077
 10
-56.80791559188344
 20
338.5964957022308
 10
-56.76470366965015
 20
340.1981502313021
 10
-56.72149174741683
 20
341.8489343668606
 10
-56.67827982518352
 20
343.5475153236643
 10
-56.63506790295021
 20
345.2925603164711
 10
-56.59185598071688
 20
347.0827365600391
 10
-56.54864405848355
 20
348.9167112691261
 10
-56.50543213625022
 20
350.7931516584904
 10
-56.46222021401691
 20
352.71072494289
 10
-56.4190082917836
 20
354.6680983370827
 10
-56.37579636955029
 20
356.6639390558265
 10
-56.332584447317
 20
358.6968712941921
 10
-56.28937252508372
 20
360.7653287098373
 10
-56.24616060285045
 20
362.8676922269026
 10
-56.20294868061719
 20
365.0023427676623
 10
-56.15973675838394
 20
367.1676612543911
 10
-56.1165248361507
 20
369.3620286093631
 10
-56.07331291391746
 20
371.5838257548531
 10
-56.0301009916842
 20
373.8314336131353
 10
-55.98688906945095
 20
376.1032331064843
 10
-55.94367714721771
 20
378.3976051571744
 10
-55.90046522498447
 20
380.71292873659
 10
-55.85725330275121
 20
383.0475163894309
 10
-55.81404138051793
 20
385.3995994523296
 10
-55.77082945828467
 20
387.7674043172918
 10
-55.7276175360514
 20
390.1491573763235
 10
-55.68440561381813
 20
392.5430850214302
 10
-55.64119369158484
 20
394.9474136446177
 10
-55.59798176935157
 20
397.360369637892
 10
-55.55476984711827
 20
399.7801793932585
 10
-55.51155792488498
 20
402.2050693027234
 10
-55.4683460026517
 20
404.6332657582921
 10
-55.42513408041842
 20
407.0629939936817
 10
-55.38192215818511
 20
409.4924725853794
 10
-55.33871023595182
 20
411.9199177360928
 10
-55.29549831371853
 20
414.3435456456063
 10
-55.25228639148524
 20
416.7615725137047
 10
-55.20907446925193
 20
419.1722145401723
 10
-55.16586254701863
 20
421.5736879247938
 10
-55.12265062478534
 20
423.9642088673537
 10
-55.07943870255204
 20
426.3419935676367
 10
-55.03622678031876
 20
428.7052582254274
 10
-54.99301485808547
 20
431.0522199032226
 10
-54.94980293585219
 20
433.3811460046318
 10
-54.90659101361889
 20
435.6903811553506
 10
-54.86337909138561
 20
437.9782765304433
 10
-54.82016716915233
 20
440.2431833049743
 10
-54.77695524691903
 20
442.4834526540077
 10
-54.73374332468574
 20
444.6974357526083
 10
-54.69053140245246
 20
446.88348377584
 10
-54.64731948021917
 20
449.0399478987674
 10
-54.60410755798589
 20
451.1651792964548
 10
-54.56089563575261
 20
453.2575291439664
 10
-54.51768371351931
 20
455.3153710955803
 10
-54.47447179128604
 20
457.3372480253842
 10
-54.43125986905275
 20
459.3217798762496
 10
-54.38804794681946
 20
461.2675869815943
 10
-54.34483602458617
 20
463.1732896748356
 10
-54.30162410235289
 20
465.0375082893916
 10
-54.25841218011961
 20
466.8588631586794
 10
-54.21520025788633
 20
468.6359746161169
 10
-54.17198833565307
 20
470.3674629951217
 10
-54.12877641341979
 20
472.0519486291113
 10
-54.08556449118655
 20
473.688052860869
 10
-54.04235256895328
 20
475.2745175607029
 10
-53.99914064672004
 20
476.8103178226135
 10
-53.95592872448678
 20
478.2944554170606
 10
-53.91271680225354
 20
479.7259321145045
 10
-53.86950488002028
 20
481.103749685405
 10
-53.82629295778704
 20
482.4269099002224
 10
-53.78308103555378
 20
483.6944145294165
 10
-53.73986911332052
 20
484.9052653434477
 10
-53.69665719108725
 20
486.0584641127757
 10
-53.65344526885397
 20
487.1530126078608
 10
-53.61023334662069
 20
488.1879400117327
 10
-53.56702142438738
 20
489.1625503501826
 10
-53.52380950215407
 20
490.0763061555651
 10
-53.48059757992075
 20
490.9286718723317
 10
-53.43738565768744
 20
491.7191119449345
 10
-53.3941737354541
 20
492.4470908178251
 10
-53.35096181322079
 20
493.1120729354556
 10
-53.30774989098746
 20
493.7135227422774
 10
-53.26453796875414
 20
494.2509046827427
 10
-53.22132604652082
 20
494.723683201303
 10
-53.17811412428751
 20
495.1313231245556
 10
-53.13490220205419
 20
495.473421318599
 10
-53.09169027982102
 20
495.749899443021
210
0.0
220
0.0
230
-1.0
  0
LWPOLYLINE
  5
92
330
1F
100
AcDbEntity
  8
0
  6
CONTINUOUS
 62
     7
100
AcDbPolyline
 90
        9
 70
     0
 43
0.0
 10
-15.91311969102204
 20
310.2483888681468
 10
-15.93233441061881
 20
310.4433881982491
 10
-15.98924015851075
 20
310.6308938134524
 10
-16.08165007871949
 20
310.8036999781189
 10
-16.2060129098355
 20
310.9551658482512
 10
-16.35754945800245
 20
311.0794706754032
 10
-16.53043625865697
 20
311.1718374947783
 10
-16.71802936900593
 20
311.228716701308
 10
-16.91311969102206
 20
311.2479224589835
  0
LWPOLYLINE
  5
93
330
1F
100
AcDbEntity
  8
0
  6
CONTINUOUS
 62
     7
100
AcDbPolyline
 90
      113
 70
     0
 43
0.0
 10
-67.93173743659723
 20
317.2047687024111
 10
-67.88852376951742
 20
317.2370698726711
 10
-67.8453101024376
 20
317.3352405357167
 10
-67.80209643535778
 20
317.4993485710737
 10
-67.75888276827796
 20
317.7294617290815
 10
-67.71566910119813
 20
318.025530462789
 10
-67.67245543411832
 20
318.3871715931741
 10
-67.62924176703852
 20
318.8139430206097
 10
-67.5860280999587
 20
319.3054026454686
 10
-67.54281443287886
 20
319.8611083681238
 10
-67.49960076579904
 20
320.4806180889482
 10
-67.45638709871925
 20
321.1634897083147
 10
-67.41317343163941
 20
321.9092811265959
 10
-67.3699597645596
 20
322.7175502441653
 10
-67.3267460974798
 20
323.5878549613954
 10
-67.28353243039997
 20
324.5197383583568
 10
-67.24031876332016
 20
325.512495636593
 10
-67.19710509624038
 20
326.5652168698389
 10
-67.15389142916057
 20
327.6769859578386
 10
-67.11067776208074
 20
328.8468868003354
 10
-67.06746409500094
 20
330.0740032970731
 10
-67.02425042792115
 20
331.3574193477955
 10
-66.98103676084136
 20
332.6962188522462
 10
-66.93782309376157
 20
334.0894857101689
 10
-66.89460942668177
 20
335.5363038213073
 10
-66.85139575960197
 20
337.0357570836185
 10
-66.8081820925222
 20
338.5868566672357
 10
-66.76496842544239
 20
340.188347796684
 10
-66.72175475836261
 20
341.8389149242613
 10
-66.67854109128282
 20
343.5372425022659
 10
-66.63532742420304
 20
345.2820149829956
 10
-66.59211375712326
 20
347.0719168187485
 10
-66.54890009004345
 20
348.9056324618226
 10
-66.50568642296366
 20
350.7818463645161
 10
-66.46247275588387
 20
352.6992429791267
 10
-66.41925908880407
 20
354.6565067579527
 10
-66.37604542172427
 20
356.6523165101647
 10
-66.33283175464446
 20
358.6852132528596
 10
-66.28961808756466
 20
360.7535956143068
 10
-66.24640442048485
 20
362.855855659987
 10
-66.20319075340502
 20
364.9903854553812
 10
-66.15997708632523
 20
367.1555770659705
 10
-66.11676341924542
 20
369.3498225572354
 10
-66.07354975216559
 20
371.5715139946572
 10
-66.03033608508578
 20
373.8190434437166
 10
-65.98712241800595
 20
376.0908029698945
 10
-65.94390875092614
 20
378.3851846386719
 10
-65.90069508384633
 20
380.7005578028831
 10
-65.85748141676652
 20
383.0351846045766
 10
-65.8142677496867
 20
385.3872955822884
 10
-65.77105408260688
 20
387.7551212700512
 10
-65.72784041552708
 20
390.1368922018985
 10
-65.68462674844727
 20
392.5308389118631
 10
-65.64141308136749
 20
394.9351919339782
 10
-65.59819941428769
 20
397.3481818022765
 10
-65.55498574720791
 20
399.7680390507914
 10
-65.51177208012811
 20
402.1929942135558
 10
-65.46855841304833
 20
404.621277634246
 10
-65.42534474596856
 20
407.0511123596456
 10
-65.3821310788888
 20
409.4807120169058
 10
-65.33891741180902
 20
411.908289609577
 10
-65.29570374472928
 20
414.3320581412092
 10
-65.25249007764951
 20
416.7502306153528
 10
-65.20927641056974
 20
419.1610200355578
 10
-65.16606274348997
 20
421.5626394053747
 10
-65.12284907641019
 20
423.9533017283537
 10
-65.07963540933041
 20
426.3312200080447
 10
-65.03642174225061
 20
428.6946072479981
 10
-64.99320807517081
 20
431.0416900037666
 10
-64.949994408091
 20
433.3707777600843
 10
-64.90678074101119
 20
435.6802113589742
 10
-64.86356707393136
 20
437.9683317011175
 10
-64.82035340685152
 20
440.2334796871953
 10
-64.77713973977168
 20
442.4739962178887
 10
-64.73392607269187
 20
444.6882221938793
 10
-64.69071240561203
 20
446.8744985158477
 10
-64.64749873853219
 20
449.0311660844756
 10
-64.60428507145237
 20
451.1565658004441
 10
-64.56107140437254
 20
453.2490399649167
 10
-64.51785773729273
 20
455.3070254543204
 10
-64.47464407021292
 20
457.3291121456878
 10
-64.43143040313309
 20
459.3139038560444
 10
-64.3882167360533
 20
461.260004402416
 10
-64.34500306897348
 20
463.1660176018279
 10
-64.3017894018937
 20
465.0305472713059
 10
-64.25857573481392
 20
466.8521972278755
 10
-64.21536206773412
 20
468.6295712885624
 10
-64.17214840065432
 20
470.361273270392
 10
-64.12893473357455
 20
472.0459069903901
 10
-64.08572106649477
 20
473.6821054586496
 10
-64.04250739941497
 20
475.2687357697592
 10
-63.99929373233519
 20
476.8047775634506
 10
-63.95608006525541
 20
478.2892111959035
 10
-63.91286639817563
 20
479.7210170232984
 10
-63.86965273109585
 20
481.0991754018152
 10
-63.82643906401606
 20
482.4226666876341
 10
-63.78322539693627
 20
483.6904712369355
 10
-63.74001172985648
 20
484.9015694058994
 10
-63.69679806277669
 20
486.0549415507058
 10
-63.65358439569687
 20
487.1495689877574
 10
-63.61037072861708
 20
488.1845725152741
 10
-63.56715706153729
 20
489.1593573581282
 10
-63.52394339445746
 20
490.07336339132
 10
-63.48072972737766
 20
490.9260304898499
 10
-63.43751606029785
 20
491.7167985287179
 10
-63.39430239321806
 20
492.4451073829244
 10
-63.35108872613823
 20
493.1103969274697
 10
-63.3078750590584
 20
493.7121070373536
 10
-63.26466139197857
 20
494.2496775875768
 10
-63.22144772489875
 20
494.7225484531393
 10
-63.17823405781894
 20
495.130187139489
 10
-63.13502039073911
 20
495.472356821071
 10
-63.09180672365924
 20
495.7489999623558
210
0.0
220
0.0
230
-1.0
  0
LWPOLYLINE
  5
94
330
1F
100
AcDbEntity
  8
0
  6
CONTINUOUS
 62
     7
100
AcDbPolyline
 90
        3
 70
     0
 43
0.0
 10
-61.28145067138239
 20
492.974258359898
 10
-61.34990683362336
 20
493.1648321359542
 10
-61.39746089002853
 20
493.2033803837824
  0
LWPOLYLINE
  5
95
330
1F
100
AcDbEntity
  8
0
  6
CONTINUOUS
 62
     7
100
AcDbPolyline
 90
        9
 70
     0
 43
0.0
 10
-16.91311969102206
 20
451.9054086000421
 10
-16.71802936900593
 20
451.9145033047267
 10
-16.53043625865697
 20
451.9414379143798
 10
-16.35754945800245
 20
451.9851773470576
 10
-16.2060129098355
 20
452.0440407208915
 10
-16.08165007871949
 20
452.1157659494363
 10
-15.98924015851075
 20
452.1975966723827
 10
-15.93233441061881
 20
452.2863881809392
 10
-15.91311969102204
 20
452.3787282672269
  0
LWPOLYLINE
  5
96
330
1F
100
AcDbEntity
  8
0
  6
CONTINUOUS
 62
     7
100
AcDbPolyline
 90
        3
 70
     0
 43
0.0
 10
-81.30171517713379
 20
493.0475506792155
 10
-81.3701789590716
 20
493.1907052729052
 10
-81.39742456993352
 20
493.203380383849
  0
LWPOLYLINE
  5
97
330
1F
100
AcDbEntity
  8
0
  6
CONTINUOUS
 62
     7
100
AcDbPolyline
 90
      113
 70
     0
 43
0.0
 10
33.97127491675904
 20
317.6572026936915
 10
33.92806307940025
 20
317.9338778381824
 10
33.88485124204148
 20
318.2762577096581
 10
33.8416394046827
 20
318.684173027644
 10
33.79842756732393
 20
319.157143494343
 10
33.75521572996516
 20
319.6946526901071
 10
33.7120038926064
 20
320.2961841952886
 10
33.66879205524764
 20
320.9612215902398
 10
33.62558021788887
 20
321.6892484553128
 10
33.58236838053011
 20
322.47974837086
 10
33.53915654317135
 20
323.3322049172337
 10
33.49594470581259
 20
324.2461016747858
 10
33.45273286845382
 20
325.220922223869
 10
33.40952103109505
 20
326.2561231217159
 10
33.36630919373628
 20
327.3508856202652
 10
33.32309735637751
 20
328.5042302112982
 10
33.27988551901873
 20
329.7151753720485
 10
33.23667368165994
 20
330.9827395797494
 10
33.19346184430115
 20
332.3059413116341
 10
33.15025000694237
 20
333.6837990449361
 10
33.10703816958358
 20
335.1153312568885
 10
33.0638263322248
 20
336.5995564247249
 10
33.02061449486601
 20
338.1354930256784
 10
32.97740265750723
 20
339.722159269888
 10
32.93419082014843
 20
341.3584740043744
 10
32.89097898278964
 20
343.0431084220431
 10
32.84776714543085
 20
344.7746957743436
 10
32.80455530807207
 20
346.5518693127249
 10
32.76134347071329
 20
348.3732622886365
 10
32.7181316333545
 20
350.2375079535276
 10
32.67491979599573
 20
352.1432395588477
 10
32.63170795863697
 20
354.089090356046
 10
32.58849612127821
 20
356.0736935965717
 10
32.54528428391946
 20
358.0956825318744
 10
32.50207244656071
 20
360.1536796418434
 10
32.45886060920198
 20
362.2461571070713
 10
32.41564877184324
 20
364.3714767288998
 10
32.3724369344845
 20
366.5279977604007
 10
32.32922509712579
 20
368.7140794546456
 10
32.28601325976706
 20
370.9280810647065
 10
32.24280142240834
 20
373.1683618436548
 10
32.19958958504962
 20
375.4332810445624
 10
32.15637774769089
 20
377.721197920501
 10
32.11316591033216
 20
380.0304717245423
 10
32.06995407297342
 20
382.3594616999199
 10
32.02674223561467
 20
384.7064980524512
 10
31.98353039825592
 20
387.0698180980477
 10
31.94031856089716
 20
389.4476406170802
 10
31.8971067235384
 20
391.83818438992
 10
31.85389488617963
 20
394.2396681969381
 10
31.81068304882086
 20
396.6503108185053
 10
31.76747121146208
 20
399.0683310349931
 10
31.7242593741033
 20
401.4919476267723
 10
31.68104753674453
 20
403.9193793742141
 10
31.63783569938574
 20
406.3488450576893
 10
31.59462386202696
 20
408.778563570074
 10
31.55141202466818
 20
411.2067560415067
 10
31.5082001873094
 20
413.6316456604993
 10
31.46498834995063
 20
416.0514556922125
 10
31.42177651259184
 20
418.4644094018065
 10
31.37856467523307
 20
420.8687300544424
 10
31.33535283787429
 20
423.2626409152805
 10
31.29214100051551
 20
425.6443652494814
 10
31.24892916315674
 20
428.0121263222057
 10
31.20571732579797
 20
430.3641473986139
 10
31.1625054884392
 20
432.6986517438667
 10
31.11929365108043
 20
435.0138866563703
 10
31.07608181372165
 20
437.3081988013693
 10
31.0328699763629
 20
439.5799605212943
 10
30.98965813900413
 20
441.8275441586083
 10
30.94644630164537
 20
444.0493220557751
 10
30.90323446428661
 20
446.243666555258
 10
30.86002262692784
 20
448.4089499995205
 10
30.81681078956908
 20
450.5435447310261
 10
30.77359895221031
 20
452.6458230922382
 10
30.73038711485154
 20
454.7141574256204
 10
30.68717527749277
 20
456.746924236693
 10
30.64396344013401
 20
458.7426252509048
 10
30.60075160277523
 20
460.6999063704224
 10
30.55753976541645
 20
462.6174214754609
 10
30.51432792805769
 20
464.4938244462356
 10
30.47111609069891
 20
466.3277691629613
 10
30.42790425334014
 20
468.1179095058535
 10
30.38469241598136
 20
469.862899355127
 10
30.34148057862259
 20
471.5613925909969
 10
30.29826874126383
 20
473.2120430936786
 10
30.25505690390506
 20
474.813504743387
 10
30.21184506654629
 20
476.3644794209745
 10
30.16863322918753
 20
477.8639262333129
 10
30.12542139182877
 20
479.3108900875754
 10
30.08220955447002
 20
480.7044159503451
 10
30.03899771711125
 20
482.0435487882047
 10
29.99578587975249
 20
483.3273335677373
 10
29.95257404239372
 20
484.5548152555258
 10
29.90936220503496
 20
485.7250388181532
 10
29.8661503676762
 20
486.8370492222023
 10
29.82293853031743
 20
487.8898914342561
 10
29.77972669295865
 20
488.882614068741
 10
29.73651485559988
 20
489.8144477271525
 10
29.6933030182411
 20
490.6848857090719
 10
29.65009118088231
 20
491.4934417890542
 10
29.60687934352352
 20
492.2396297416541
 10
29.56366750616474
 20
492.9229633414272
 10
29.52045566880596
 20
493.5429563629284
 10
29.47724383144717
 20
494.0991225807123
 10
29.43403199408839
 20
494.5909757693346
 10
29.39082015672961
 20
495.0180297033501
 10
29.34760831937083
 20
495.3797981573138
 10
29.30439648201206
 20
495.6758411314771
 10
29.26118464465331
 20
495.9060420955033
 10
29.21797280729454
 20
496.0704226831551
 10
29.17476096993579
 20
496.1690050464882
 10
29.13154913257694
 20
496.2018113375577
  0
LWPOLYLINE
  5
98
330
1F
100
AcDbEntity
  8
0
  6
CONTINUOUS
 62
     7
100
AcDbPolyline
 90
        9
 70
     0
 43
0.0
 10
-15.91311969102204
 20
361.0280325005521
 10
-15.93233441061881
 20
361.1203725868398
 10
-15.98924015851075
 20
361.2091640953963
 10
-16.08165007871949
 20
361.2909948183428
 10
-16.2060129098355
 20
361.3627200468875
 10
-16.35754945800245
 20
361.4215834207214
 10
-16.53043625865696
 20
361.4653228533992
 10
-16.71802936900593
 20
361.4922574630523
 10
-16.91311969102206
 20
361.501352167737
  0
LWPOLYLINE
  5
99
330
1F
100
AcDbEntity
  8
0
  6
CONTINUOUS
 62
     7
100
AcDbPolyline
 90
       42
 70
     0
 43
0.0
 10
-48.91311969102203
 20
452.1085713422036
 10
-48.91310974325001
 20
452.1072937186547
 10
-48.91212858448247
 20
452.0958227159749
 10
-48.90953345875452
 20
452.0843480075602
 10
-48.90529052946345
 20
452.0728504657301
 10
-48.89938254312616
 20
452.0613876474047
 10
-48.89162477522439
 20
452.0497718279369
 10
-48.88207189756084
 20
452.0382370298551
 10
-48.87062824768777
 20
452.0267627986582
 10
-48.85727559116033
 20
452.0154258183443
 10
-48.84725906785246
 20
452.0079431586032
 10
-48.83634880123662
 20
452.0005517184561
 10
-48.82449479960572
 20
451.9932461414323
 10
-48.8117010097084
 20
451.9860581671231
 10
-48.79773998859611
 20
451.9789025764335
 10
-48.7827636155256
 20
451.9719008859093
 10
-48.76668897207899
 20
451.9650492379211
 10
-48.74954040061736
 20
451.9583942919405
 10
-48.7365506604044
 20
451.953750876307
 10
-48.7229917803788
 20
451.9492337312902
 10
-48.70872252120726
 20
451.9448136696534
 10
-48.69388236966061
 20
451.940551392027
 10
-48.67837424870762
 20
451.9364350316512
 10
-48.66229115612271
 20
451.9325051817881
 10
-48.64542900163897
 20
451.9287316990786
 10
-48.62795753468206
 20
451.9251733701912
 10
-48.61410431361256
 20
451.9225928546502
 10
-48.59990681390062
 20
451.9201593667487
 10
-48.58522107826822
 20
451.9178585813445
 10
-48.57022808649004
 20
451.9157284916563
 10
-48.55484000838943
 20
451.9137649083914
 10
-48.53917720457333
 20
451.9119907818973
 10
-48.52304971906017
 20
451.9103945713016
 10
-48.50665650065954
 20
451.9090060578108
 10
-48.49531532475272
 20
451.9081809446909
 10
-48.48387730750849
 20
451.9074594189935
 10
-48.47227245277945
 20
451.9068397278883
 10
-48.46060356550021
 20
451.9063296267412
 10
-48.44883158471007
 20
451.9059290754973
 10
-48.43701992022407
 20
451.9056415455092
 10
-48.42508345606335
 20
451.9054669446732
 10
-48.41311969102203
 20
451.9054086000421
  0
LWPOLYLINE
  5
9A
330
1F
100
AcDbEntity
  8
0
  6
CONTINUOUS
 62
     7
100
AcDbPolyline
 90
      113
 70
     0
 43
0.0
 10
53.97217251396011
 20
317.6517516609052
 10
53.92895204037463
 20
317.9274124846237
 10
53.88573156678913
 20
318.2688900164019
 10
53.84251109320362
 20
318.675748675451
 10
53.79929061961811
 20
319.1475212488535
 10
53.75607014603259
 20
319.6837405236919
 10
53.71284967244707
 20
320.2839392870486
 10
53.66962919886155
 20
320.9476503260061
 10
53.62640872527604
 20
321.6744064276469
 10
53.58318825169052
 20
322.4637403790533
 10
53.53996777810502
 20
323.3151849673081
 10
53.49674730451952
 20
324.2282729794935
 10
53.45352683093405
 20
325.2025054229325
 10
53.41030635734859
 20
326.2370968633991
 10
53.36708588376313
 20
327.331110102164
 10
53.3238654101777
 20
328.4836065528153
 10
53.28064493659227
 20
329.6936476289406
 10
53.23742446300684
 20
330.9602947441279
 10
53.1942039894214
 20
332.2826093119649
 10
53.15098351583595
 20
333.6596527460396
 10
53.10776304225052
 20
335.0904864599399
 10
53.06454256866506
 20
336.5741718672535
 10
53.02132209507958
 20
338.1097698650277
 10
52.9781016214941
 20
339.6962300252794
 10
52.93488114790861
 20
341.3322526401947
 10
52.89166067432308
 20
343.0165041329968
 10
52.84844020073757
 20
344.7476509269091
 10
52.80521972715206
 20
346.524359445155
 10
52.76199925356654
 20
348.3452961109576
 10
52.718778779981
 20
350.2091273475403
 10
52.67555830639549
 20
352.1145195781265
 10
52.63233783280997
 20
354.0601392259396
 10
52.58911735922447
 20
356.0446527142028
 10
52.54589688563897
 20
358.0667128734737
 10
52.5026764120535
 20
360.1248093569183
 10
52.45945593846804
 20
362.21732403753
 10
52.41623546488258
 20
364.342636876021
 10
52.37301499129713
 20
366.4991278331033
 10
52.32979451771167
 20
368.685176869489
 10
52.28657404412623
 20
370.8991639458902
 10
52.24335357054079
 20
373.1394690230189
 10
52.20013309695534
 20
375.4044720615872
 10
52.15691262336989
 20
377.692553022307
 10
52.11369214978445
 20
380.0020918246208
 10
52.07047167619899
 20
382.3314326381231
 10
52.02725120261352
 20
384.6788185437127
 10
51.98403072902806
 20
387.0424748800582
 10
51.9408102554426
 20
389.4206269858281
 10
51.89758978185712
 20
391.8115001996912
 10
51.85436930827164
 20
394.2133198603158
 10
51.81114883468617
 20
396.6243113063708
 10
51.76792836110069
 20
399.0426998765245
 10
51.7247078875152
 20
401.4667109094457
 10
51.68148741392972
 20
403.8945697438029
 10
51.63826694034422
 20
406.3245013932107
 10
51.59504646675873
 20
408.7547255163426
 10
51.55182599317323
 20
411.1834573830267
 10
51.50860551958773
 20
413.6089121336574
 10
51.46538504600224
 20
416.029304908629
 10
51.42216457241675
 20
418.4428508483356
 10
51.37894409883125
 20
420.8477650931715
 10
51.33572362524576
 20
423.242262783531
 10
51.29250315166026
 20
425.6245590598087
 10
51.24928267807476
 20
427.9928690623984
 10
51.20606220448927
 20
430.3454079326831
 10
51.16284173090377
 20
432.6804157847774
 10
51.11962125731829
 20
434.996222604618
 10
51.0764007837328
 20
437.2911785880399
 10
51.0331803101473
 20
439.5636339308781
 10
50.98995983656181
 20
441.8119388289682
 10
50.94673936297632
 20
444.0344434781452
 10
50.90351888939082
 20
446.2294980742444
 10
50.86029841580534
 20
448.3954528131011
 10
50.81707794221985
 20
450.5306578905502
 10
50.77385746863437
 20
452.6334635024274
 10
50.73063699504888
 20
454.7022252696885
 10
50.68741652146339
 20
456.7354269207182
 10
50.64419604787791
 20
458.731682168897
 10
50.60097557429241
 20
460.6896105282655
 10
50.55775510070692
 20
462.6078315128635
 10
50.51453462712144
 20
464.4849646367319
 10
50.47131415353596
 20
466.3196294139106
 10
50.42809367995048
 20
468.1104453584401
 10
50.384873206365
 20
469.8560319843608
 10
50.34165273277954
 20
471.555008805713
 10
50.29843225919408
 20
473.2059953365369
 10
50.25521178560862
 20
474.8076662452688
 10
50.21199131202317
 20
476.3589498388829
 10
50.16877083843772
 20
477.8588472886267
 10
50.12555036485227
 20
479.3063597721167
 10
50.08232989126682
 20
480.7004884669689
 10
50.03910941768137
 20
482.0402345507999
 10
49.99588894409592
 20
483.3245992012262
 10
49.95266847051046
 20
484.5525835958642
 10
49.90944799692498
 20
485.72318891233
 10
49.8662275233395
 20
486.8354163282404
 10
49.82300704975401
 20
487.8882724450568
 10
49.77978657616852
 20
488.8809597083016
 10
49.736566102583
 20
489.8129266148268
 10
49.69334562899749
 20
490.6836372910205
 10
49.65012515541197
 20
491.4925558632706
 10
49.60690468182644
 20
492.2391464579653
 10
49.5636842082409
 20
492.9228732014922
 10
49.52046373465537
 20
493.5432002202397
 10
49.47724326106984
 20
494.0995916405955
 10
49.43402278748432
 20
494.5915115889477
 10
49.3908023138988
 20
495.0184241916842
 10
49.34758184031328
 20
495.3798495255337
 10
49.3043613667278
 20
495.675637587063
 10
49.2611408931423
 20
495.9057588836972
 10
49.21792041955681
 20
496.070184100543
 10
49.17469994597133
 20
496.1688839227073
 10
49.13147947238593
 20
496.2018290352966
  0
LWPOLYLINE
  5
9B
330
1F
100
AcDbEntity
  8
0
  6
CONTINUOUS
 62
     7
100
AcDbPolyline
 90
       38
 70
     0
 43
0.0
 10
-116.4131196910221
 20
363.2772608261947
 10
-116.3923512819005
 20
363.2776433075051
 10
-116.3716008586334
 20
363.2787881381052
 10
-116.3509220073686
 20
363.2806913979983
 10
-116.330368314254
 20
363.2833491671876
 10
-116.309367747652
 20
363.2868718531539
 10
-116.2885378326409
 20
363.2911879740361
 10
-116.2679353142444
 20
363.2962847097037
 10
-116.247616937486
 20
363.3021492400261
 10
-116.2281626566915
 20
363.30858112417
 10
-116.2090111398983
 20
363.3157275662938
 10
-116.1902114746735
 20
363.3235692814854
 10
-116.1718127485841
 20
363.3320869848325
 10
-116.1533165511763
 20
363.3415522307798
 10
-116.1352787776596
 20
363.351717086753
 10
-116.117748142101
 20
363.3625529272383
 10
-116.1007733585674
 20
363.3740311267218
 10
-116.0848265540605
 20
363.385792881397
 10
-116.0694331569518
 20
363.3981413610816
 10
-116.0546322219592
 20
363.4110440401269
 10
-116.0404628038008
 20
363.4244683928841
 10
-116.0265563045524
 20
363.4388166875753
 10
-116.0133443169635
 20
363.4536922402991
 10
-116.0008620314176
 20
363.4690537798355
 10
-115.9891446382977
 20
363.4848600349645
 10
-115.978503218622
 20
363.5006339406978
 10
-115.9686034490008
 20
363.5168006866148
 10
-115.9594699467671
 20
363.5333181072382
 10
-115.9511273292541
 20
363.5501440370908
 10
-115.9433783712957
 20
363.5677662870128
 10
-115.9364816966427
 20
363.5856838505113
 10
-115.9304550026083
 20
363.603847395897
 10
-115.9253159865058
 20
363.6222075914809
 10
-115.9209444092882
 20
363.6413872796475
 10
-115.9175318326973
 20
363.6607502896695
 10
-115.9150854151668
 20
363.6802396012892
 10
-115.9136123151305
 20
363.6997981942484
 10
-115.913119691022
 20
363.7193690482893
  0
LWPOLYLINE
  5
9C
330
1F
100
AcDbEntity
  8
0
  6
CONTINUOUS
 62
     7
100
AcDbPolyline
 90
        9
 70
     0
 43
0.0
 10
126.586880308978
 20
453.6913971069326
 10
126.5580582295828
 20
453.8242508361122
 10
126.4726996077449
 20
453.9519990709848
 10
126.3340847274318
 20
454.0697325185261
 10
126.1475404807578
 20
454.1729267483727
 10
125.9202356585074
 20
454.2576160641438
 10
125.6609054575257
 20
454.3205459029285
 10
125.3795157920022
 20
454.3592979063138
 10
125.0868803089781
 20
454.3723828565419
  0
LWPOLYLINE
  5
9D
330
1F
100
AcDbEntity
  8
0
  6
CONTINUOUS
 62
     7
100
AcDbPolyline
 90
      113
 70
     0
 43
0.0
 10
-77.93138799132556
 20
317.2045849415777
 10
-77.88817409759334
 20
317.237360341436
 10
-77.84496020386106
 20
317.3360750802129
 10
-77.80174631012909
 20
317.5008227416138
 10
-77.75853241639774
 20
317.7316735117093
 10
-77.71531852266712
 20
318.0284086645575
 10
-77.67210462893708
 20
318.3906147200804
 10
-77.62889073520755
 20
318.8178745551936
 10
-77.58567684147846
 20
319.3097710468124
 10
-77.54246294774971
 20
319.8658870718525
 10
-77.49924905402119
 20
320.4858055072296
 10
-77.45603516029283
 20
321.1691092298588
 10
-77.41282126656456
 20
321.9153811166561
 10
-77.3696073728362
 20
322.7242040445365
 10
-77.32639347910775
 20
323.595160791033
 10
-77.28317958537909
 20
324.5277265207314
 10
-77.23996569165027
 20
325.5210637939419
 10
-77.19675179792131
 20
326.5742787267
 10
-77.15353790419219
 20
327.6864774350414
 10
-77.11032401046299
 20
328.8567660350018
 10
-77.06711011673372
 20
330.0842506426171
 10
-77.02389622300436
 20
331.3680373739226
 10
-76.98068232927498
 20
332.7072323449542
 10
-76.9374684355456
 20
334.1009416717476
 10
-76.89425454181625
 20
335.5482714703386
 10
-76.85104064808691
 20
337.0483156938564
 10
-76.80782675435766
 20
338.599958707414
 10
-76.76461286062846
 20
340.2019081432925
 10
-76.72139896689927
 20
341.8528661018456
 10
-76.67818507317016
 20
343.5515346834272
 10
-76.63497117944102
 20
345.296615988391
 10
-76.5917572857119
 20
347.0868121170908
 10
-76.54854339198285
 20
348.9208251698806
 10
-76.50532949825376
 20
350.7973572471141
 10
-76.46211560452468
 20
352.7151104491451
 10
-76.41890171079558
 20
354.6727868757367
 10
-76.37568781706649
 20
356.669035414671
 10
-76.33247392333737
 20
358.7023061797918
 10
-76.28926002960826
 20
360.7710028801829
 10
-76.24604613587911
 20
362.8735292249281
 10
-76.20283224214997
 20
365.0082889231111
 10
-76.15961834842084
 20
367.1736856838157
 10
-76.11640445469169
 20
369.3681232161256
 10
-76.07319056096253
 20
371.5900052291246
 10
-76.02997666723337
 20
373.8377354318963
 10
-75.98676277350422
 20
376.1097175335246
 10
-75.94354887977505
 20
378.4043521307249
 10
-75.9003349860459
 20
380.7199611729067
 10
-75.85712109231676
 20
383.0547838259743
 10
-75.81390719858761
 20
385.407055315542
 10
-75.77069330485844
 20
387.7750108672244
 10
-75.72747941112931
 20
390.1568857066359
 10
-75.68426551740015
 20
392.5509150593909
 10
-75.64105162367102
 20
394.955334151104
 10
-75.59783772994189
 20
397.3683782073896
 10
-75.55462383621276
 20
399.7882824538622
 10
-75.51140994248361
 20
402.213282116136
 10
-75.46819604875448
 20
404.6416090009529
 10
-75.42498215502535
 20
407.0714784317823
 10
-75.38176826129619
 20
409.5011007709217
 10
-75.33855436756706
 20
411.9286863796755
 10
-75.29534047383792
 20
414.3524456193482
 10
-75.2521265801088
 20
416.7705888512443
 10
-75.20891268637965
 20
419.1813264366683
 10
-75.16569879265053
 20
421.5828687369246
 10
-75.12248489892139
 20
423.9734261133179
 10
-75.07927100519225
 20
426.3512089271525
 10
-75.0360571114631
 20
428.7144287843693
 10
-74.99284321773396
 20
431.0613470090182
 10
-74.94962932400482
 20
433.3902902925773
 10
-74.90641543027566
 20
435.6995897746837
 10
-74.86320153654653
 20
437.9875765949743
 10
-74.81998764281737
 20
440.2525818930865
 10
-74.7767737490882
 20
442.4929368086567
 10
-74.73355985535906
 20
444.7069724813223
 10
-74.6903459616299
 20
446.8930200507203
 10
-74.64713206790074
 20
449.0494106564877
 10
-74.60391817417158
 20
451.1744754382614
 10
-74.56070428044242
 20
453.2665720748167
 10
-74.51749038671326
 20
455.3242241667582
 10
-74.47427649298412
 20
457.3460193096931
 10
-74.43106259925496
 20
459.3305452351681
 10
-74.38784870552581
 20
461.2763896747302
 10
-74.34463481179664
 20
463.1821403599259
 10
-74.3014209180675
 20
465.0463850223023
 10
-74.25820702433836
 20
466.8677113934059
 10
-74.2149931306092
 20
468.6447072047837
 10
-74.17177923688006
 20
470.3759601879823
 10
-74.12856534315092
 20
472.0600599282237
 10
-74.0853514494218
 20
473.6957279597127
 10
-74.04213755569266
 20
475.2819032407561
 10
-73.99892366196356
 20
476.8175450266738
 10
-73.95570976823443
 20
478.301612572785
 10
-73.91249587450531
 20
479.7330651344095
 10
-73.86928198077618
 20
481.1108619668669
 10
-73.82606808704705
 20
482.4339623254766
 10
-73.78285419331793
 20
483.7013254655586
 10
-73.73964029958879
 20
484.911910642432
 10
-73.69642640585964
 20
486.0646771114166
 10
-73.6532125121305
 20
487.1586185767782
 10
-73.60999861840135
 20
488.1930111897826
 10
-73.56678472467219
 20
489.1672694774099
 10
-73.52357083094302
 20
490.0808089156279
 10
-73.48035693721386
 20
490.9330449804038
 10
-73.4371430434847
 20
491.7233931477059
 10
-73.39392914975552
 20
492.4512688935016
 10
-73.35071525602635
 20
493.1160876937584
 10
-73.30750136229719
 20
493.7172650244443
 10
-73.26428746856803
 20
494.2542163615268
 10
-73.22107357483888
 20
494.7263581447725
 10
-73.17785968110972
 20
495.133257527131
 10
-73.13464578738058
 20
495.4747947773384
 10
-73.09143189365138
 20
495.750889161179
210
0.0
220
0.0
230
-1.0
  0
LWPOLYLINE
  5
9E
330
1F
100
AcDbEntity
  8
0
  6
CONTINUOUS
 62
     7
100
AcDbPolyline
 90
      113
 70
     0
 43
0.0
 10
-17.93142381131239
 20
317.2048090892027
 10
-17.8882042010816
 20
317.2381348888263
 10
-17.84498459085081
 20
317.3372103363747
 10
-17.80176498062002
 20
317.5019746695917
 10
-17.75854537038922
 20
317.7323671262222
 10
-17.71532576015841
 20
318.0283269440106
 10
-17.6721061499276
 20
318.3897933607013
 10
-17.62888653969677
 20
318.8166958622545
 10
-17.58566692946593
 20
319.3087259079623
 10
-17.54244731923508
 20
319.8653290398299
 10
-17.49922770900423
 20
320.4859394694287
 10
-17.45600809877337
 20
321.1699914083301
 10
-17.41278848854251
 20
321.9169190681056
 10
-17.36956887831165
 20
322.7261566603264
 10
-17.32634926808079
 20
323.5971383965639
 10
-17.28312965784994
 20
324.5292984883895
 10
-17.2399100476191
 20
325.5220711473748
 10
-17.19669043738826
 20
326.5748905850908
 10
-17.15347082715745
 20
327.6871261630073
 10
-17.11025121692664
 20
328.8578425366204
 10
-17.06703160669584
 20
330.0860149475337
 10
-17.02381199646505
 20
331.3706186255915
 10
-16.98059238623426
 20
332.7106288006377
 10
-16.93737277600347
 20
334.1050207025166
 10
-16.89415316577268
 20
335.552769561072
 10
-16.85093355554189
 20
337.052850606148
 10
-16.80771394531108
 20
338.6042390675888
 10
-16.76449433508028
 20
340.2059101752385
 10
-16.72127472484945
 20
341.85683498941
 10
-16.67805511461862
 20
343.5558274997355
 10
-16.63483550438778
 20
345.3015005129435
 10
-16.59161589415693
 20
347.092453674003
 10
-16.54839628392606
 20
348.9272866278826
 10
-16.50517667369519
 20
350.8045990195512
 10
-16.4619570634643
 20
352.7229904939774
 10
-16.41873745323342
 20
354.6810606961302
 10
-16.37551784300252
 20
356.6774092709783
 10
-16.33229823277163
 20
358.7106358634905
 10
-16.28907862254072
 20
360.7793401186354
 10
-16.24585901230981
 20
362.8820935294335
 10
-16.20263940207891
 20
365.017297665028
 10
-16.159419791848
 20
367.1832906568218
 10
-16.1162001816171
 20
369.3784105272454
 10
-16.0729805713862
 20
371.6009952987285
 10
-16.0297609611553
 20
373.8493829937011
 10
-15.98654135092442
 20
376.1219116345929
 10
-15.94332174069354
 20
378.4169192438342
 10
-15.90010213046267
 20
380.7327438438549
 10
-15.85688252023182
 20
383.0677234570848
 10
-15.81366291000098
 20
385.4201953947288
 10
-15.77044329977016
 20
387.7884510160885
 10
-15.72722368953935
 20
390.1707085031211
 10
-15.68400407930855
 20
392.565179509166
 10
-15.64078446907776
 20
394.9700756875628
 10
-15.59756485884698
 20
397.3836086916513
 10
-15.5543452486162
 20
399.8039901747708
 10
-15.51112563838543
 20
402.2294317902611
 10
-15.46790602815465
 20
404.6581451914616
 10
-15.42468641792387
 20
407.088342031712
 10
-15.38146680769309
 20
409.5182339643519
 10
-15.33824719746231
 20
411.9460341714026
 10
-15.29502758723151
 20
414.3699678032571
 10
-15.25180797700071
 20
416.7882656486333
 10
-15.20858836676991
 20
419.1991585292758
 10
-15.1653687565391
 20
421.6008772669293
 10
-15.12214914630828
 20
423.9916526833381
 10
-15.07892953607746
 20
426.369715600247
 10
-15.03570992584664
 20
428.7332968394005
 10
-14.99249031561582
 20
431.0806272225429
 10
-14.94927070538499
 20
433.4099375714192
 10
-14.90605109515416
 20
435.7194590888018
 10
-14.86283148492333
 20
438.0074734330573
 10
-14.8196118746925
 20
440.2723626869284
 10
-14.77639226446166
 20
442.5125208181152
 10
-14.73317265423082
 20
444.7263417943182
 10
-14.68995304399999
 20
446.9122195832376
 10
-14.64673343376914
 20
449.0685481525739
 10
-14.60351382353829
 20
451.1937214700272
 10
-14.56029421330744
 20
453.286133503298
 10
-14.51707460307659
 20
455.3441782200865
 10
-14.47385499284573
 20
457.366249588093
 10
-14.43063538261486
 20
459.3507583747291
 10
-14.387415772384
 20
461.2962887686469
 10
-14.34419616215312
 20
463.2015272620302
 10
-14.30097655192225
 20
465.0651616691001
 10
-14.25775694169138
 20
466.8858798040769
 10
-14.21453733146051
 20
468.6623694811817
 10
-14.17131772122964
 20
470.3933185146351
 10
-14.12809811099877
 20
472.077414718658
 10
-14.08487850076792
 20
473.7133459074708
 10
-14.04165889053707
 20
475.2997998952947
 10
-13.99843928030622
 20
476.8354647645114
 10
-13.95521967007538
 20
478.3191314672544
 10
-13.91200005984456
 20
479.7498487268383
 10
-13.86878044961374
 20
481.1267049910359
 10
-13.82556083938293
 20
482.4487887076205
 10
-13.78234122915212
 20
483.7151883243646
 10
-13.73912161892132
 20
484.9249922890417
 10
-13.69590200869053
 20
486.0772890494245
 10
-13.65268239845972
 20
487.171167053286
 10
-13.60946278822893
 20
488.205714748399
 10
-13.56624317799813
 20
489.1800205825371
 10
-13.52302356776733
 20
490.0931916713675
 10
-13.47980395753653
 20
490.9445955916244
 10
-13.43658434730573
 20
491.7337911923896
 10
-13.39336473707492
 20
492.4603417380485
 10
-13.3501451268441
 20
493.1238104929866
 10
-13.30692551661328
 20
493.7237607215894
 10
-13.26370590638246
 20
494.2597556882423
 10
-13.22048629615162
 20
494.7313586573306
 10
-13.17726668592077
 20
495.13813289324
 10
-13.13404707568992
 20
495.4796416603557
 10
-13.09082746545868
 20
495.7554482616197
210
0.0
220
0.0
230
-1.0
  0
LWPOLYLINE
  5
9F
330
1F
100
AcDbEntity
  8
0
  6
CONTINUOUS
 62
     7
100
AcDbPolyline
 90
       42
 70
     0
 43
0.0
 10
-48.41311969102203
 20
361.5013521677369
 10
-48.42944450637583
 20
361.5012435214251
 10
-48.44576932172966
 20
361.5009172363209
 10
-48.4622892696537
 20
361.5003643367927
 10
-48.47870276726938
 20
361.4995915882386
 10
-48.49511464709995
 20
361.498593353068
 10
-48.5113519162857
 20
361.4973808162289
 10
-48.527639097647
 20
361.4959354339517
 10
-48.54371821385251
 20
361.4942786022122
 10
-48.55886484369771
 20
361.4925037013987
 10
-48.57377164188851
 20
361.4905484135854
 10
-48.58856847661984
 20
361.4883966898985
 10
-48.60305989849341
 20
361.4860789912446
 10
-48.6173164856968
 20
361.4835879546681
 10
-48.63123961097838
 20
361.48094527777
 10
-48.6449681428719
 20
361.4781274295859
 10
-48.65835632302985
 20
361.475167052329
 10
-48.67601086450652
 20
361.4709243448358
 10
-48.69301679945988
 20
361.4664479897339
 10
-48.70955563138053
 20
361.4616979345794
 10
-48.72538560021182
 20
361.4567527535077
 10
-48.7406083817118
 20
361.4515938720531
 10
-48.7551210324627
 20
361.4462694034726
 10
-48.76909605035033
 20
361.4407254381943
 10
-48.7823767710754
 20
361.4350324345493
 10
-48.79907334986918
 20
361.4272026078059
 10
-48.8145617357643
 20
361.4191516202523
 10
-48.82891109289903
 20
361.4108720272886
 10
-48.84207654467783
 20
361.4024172055937
 10
-48.8542768244853
 20
361.3936545582923
 10
-48.86528748928519
 20
361.3847509566549
 10
-48.87515307736854
 20
361.3756970015098
 10
-48.88385453777676
 20
361.3665354487593
 10
-48.89058492306845
 20
361.3583636681945
 10
-48.89642518525223
 20
361.350130374937
 10
-48.90139158236982
 20
361.3418285490956
 10
-48.90547822268297
 20
361.3334826325465
 10
-48.90871617374869
 20
361.3250214679118
 10
-48.91106621372025
 20
361.3165317488945
 10
-48.91253223882084
 20
361.3080059486285
 10
-48.91310974325001
 20
361.2994670491244
 10
-48.91311969102209
 20
361.2981894255755
  0
LWPOLYLINE
  5
A0
330
1F
100
AcDbEntity
  8
0
  6
CONTINUOUS
 62
     7
100
AcDbPolyline
 90
      113
 70
     0
 43
0.0
 10
23.97139668429955
 20
317.6567590454694
 10
23.9281843805876
 20
317.9331906800645
 10
23.88497207687563
 20
318.2752204607124
 10
23.84175977316368
 20
318.682782310778
 10
23.79854746945173
 20
319.1555076462377
 10
23.75533516573979
 20
319.6928573578745
 10
23.71212286202785
 20
320.2942904213003
 10
23.6689105583159
 20
320.9592658121266
 10
23.62569825460397
 20
321.6872425059651
 10
23.58248595089203
 20
322.4776794784275
 10
23.53927364718009
 20
323.3300357051255
 10
23.49606134346815
 20
324.2437701616707
 10
23.45284903975621
 20
325.2183418236747
 10
23.40963673604426
 20
326.2532092613612
 10
23.36642443233231
 20
327.3477080888565
 10
23.32321212862036
 20
328.5008786984241
 10
23.27999982490841
 20
329.7117180847542
 10
23.23678752119645
 20
330.9792232425373
 10
23.1935752174845
 20
332.3023911664637
 10
23.15036291377255
 20
333.6802188512238
 10
23.1071506100606
 20
335.1117032915078
 10
23.06393830634866
 20
336.5958414820062
 10
23.02072600263671
 20
338.1316304174089
 10
22.97751369892478
 20
339.7180670924068
 10
22.93430139521285
 20
341.3541325661835
 10
22.89108909150093
 20
343.0385965385459
 10
22.84787678778901
 20
344.7700788309238
 10
22.8046644840771
 20
346.5471960826924
 10
22.76145218036519
 20
348.3685649332273
 10
22.71823987665327
 20
350.2328020219036
 10
22.67502757294136
 20
352.1385239880969
 10
22.63181526922945
 20
354.0843474711825
 10
22.58860296551753
 20
356.0688891105358
 10
22.54539066180561
 20
358.0907655455322
 10
22.50217835809368
 20
360.1485933848574
 10
22.45896605438174
 20
362.2409318391709
 10
22.41575375066979
 20
364.366163595911
 10
22.37254144695783
 20
366.5226375184524
 10
22.32932914324588
 20
368.7087024701695
 10
22.28611683953391
 20
370.922707314437
 10
22.24290453582194
 20
373.1630009146294
 10
22.19969223210996
 20
375.4279321341212
 10
22.15647992839798
 20
377.7158498362871
 10
22.113267624686
 20
380.0251028845014
 10
22.07005532097401
 20
382.354040142139
 10
22.02684301726202
 20
384.7010068651214
 10
21.98363071355002
 20
387.064280674688
 10
21.94041840983803
 20
389.4420791180673
 10
21.89720610612604
 20
391.8326176538346
 10
21.85399380241405
 20
394.2341117405647
 10
21.81078149870206
 20
396.6447768368322
 10
21.76756919499008
 20
399.0628284012125
 10
21.72435689127811
 20
401.4864818922804
 10
21.68114458756613
 20
403.9139527686107
 10
21.63793228385417
 20
406.3434564887784
 10
21.59471998014222
 20
408.7732085113586
 10
21.55150767643027
 20
411.2014262806255
 10
21.50829537271834
 20
413.6263351227906
 10
21.46508306900641
 20
416.0461623194503
 10
21.42187076529448
 20
418.4591351522016
 10
21.37865846158256
 20
420.8634809026409
 10
21.33544615787065
 20
423.2574268523651
 10
21.29223385415873
 20
425.6392002829709
 10
21.24902155044681
 20
428.0070284760548
 10
21.20580924673489
 20
430.3591387132136
 10
21.16259694302297
 20
432.6937582760442
 10
21.11938463931104
 20
435.0091169735858
 10
21.0761723355991
 20
437.3035154189515
 10
21.03296003188716
 20
439.5753328794924
 10
20.98974772817522
 20
441.8229527254783
 10
20.94653542446326
 20
444.0447583271796
 10
20.90332312075131
 20
446.2391330548661
 10
20.86011081703936
 20
448.4044602788082
 10
20.81689851332739
 20
450.5391233692758
 10
20.77368620961543
 20
452.6415056965392
 10
20.73047390590347
 20
454.7099906308683
 10
20.68726160219151
 20
456.7429615425332
 10
20.64404929847954
 20
458.7388387529963
 10
20.60083699476757
 20
460.6962324459475
 10
20.55762469105561
 20
462.6138136157761
 10
20.51441238734365
 20
464.4902532844198
 10
20.47120008363168
 20
466.3242224738167
 10
20.42798777991973
 20
468.1143922059049
 10
20.38477547620777
 20
469.8594335026223
 10
20.34156317249582
 20
471.5580173859068
 10
20.29835086878387
 20
473.2088148776966
 10
20.25513856507192
 20
474.8104969999295
 10
20.21192626135998
 20
476.3617382258755
 10
20.16871395764805
 20
477.8613703439013
 10
20.12550165393612
 20
479.3084439993565
 10
20.08228935022419
 20
480.7020260194526
 10
20.03907704651226
 20
482.0411832314001
 10
19.99586474280034
 20
483.3249824624103
 10
19.95265243908841
 20
484.5524905396939
 10
19.90944013537647
 20
485.7227742904621
 10
19.86622783166453
 20
486.8349005419257
 10
19.82301552795259
 20
487.887936121296
 10
19.77980322424064
 20
488.8809478557836
 10
19.73659092052868
 20
489.8130477181084
 10
19.6933786168167
 20
490.683649866921
 10
19.65016631310473
 20
491.492292498849
 10
19.60695400939275
 20
492.2385141889399
 10
19.56374170568077
 20
492.9218535122416
 10
19.52052940196878
 20
493.5418490438019
 10
19.4773170982568
 20
494.0980393586688
 10
19.43410479454482
 20
494.5899630318896
 10
19.39089249083284
 20
495.0171586385127
 10
19.34768018712088
 20
495.3791647535857
 10
19.30446788340891
 20
495.6755219864017
 10
19.26125557969696
 20
495.9059443120851
 10
19.21804327598501
 20
496.0704490067499
 10
19.17483097227309
 20
496.1690839445195
 10
19.13161866856107
 20
496.2018969995167
  0
LWPOLYLINE
  5
A1
330
1F
100
AcDbEntity
  8
0
  6
CONTINUOUS
 62
     7
100
AcDbPolyline
 90
       42
 70
     0
 43
0.0
 10
48.41311969102203
 20
325.4947428968133
 10
48.42944450637583
 20
325.4948293028893
 10
48.44576932172966
 20
325.4950888019119
 10
48.4622892696537
 20
325.4955285488626
 10
48.47870276726938
 20
325.4961431927143
 10
48.49511464709995
 20
325.4969372559906
 10
48.5113519162857
 20
325.4979018936708
 10
48.527639097647
 20
325.4990519205352
 10
48.54371821385251
 20
325.500370387319
 10
48.55886484369771
 20
325.5017830464195
 10
48.57377164188851
 20
325.5033395595441
 10
48.58856847661984
 20
325.5050527884032
 10
48.60305989849341
 20
325.506898569944
 10
48.6173164856968
 20
325.5088828597583
 10
48.63123961097838
 20
325.5109884679126
 10
48.6449681428719
 20
325.5132342445485
 10
48.65835632302985
 20
325.5155942783877
 10
48.6760108645065
 20
325.5189777819327
 10
48.69301679945988
 20
325.522549133191
 10
48.7095556313805
 20
325.5263405548418
 10
48.72538560021179
 20
325.5302895872235
 10
48.74060838171178
 20
325.5344113051281
 10
48.75512103246267
 20
325.5386674940652
 10
48.76909605035033
 20
325.5431014931714
 10
48.78237677107537
 20
325.5476571901787
 10
48.79907334986918
 20
325.5539269715223
 10
48.8145617357643
 20
325.5603788541503
 10
48.82891109289901
 20
325.5670192365803
 10
48.84207654467783
 20
325.5738057098477
 10
48.85427682448528
 20
325.5808451981184
 10
48.86528748928519
 20
325.5880041149866
 10
48.87515307736854
 20
325.5952903339063
 10
48.88385453777676
 20
325.602669732713
 10
48.89058492306845
 20
325.6092574968932
 10
48.89642518525221
 20
325.6159001995901
 10
48.90139158236982
 20
325.6226036393627
 10
48.90547822268297
 20
325.6293481991231
 10
48.90871617374869
 20
325.636191549989
 10
48.91106621372025
 20
325.6430637273801
 10
48.91253223882084
 20
325.6499708980089
 10
48.91310974325001
 20
325.6568945015725
 10
48.91311969102209
 20
325.6579309397403
210
0.0
220
0.0
230
-1.0
  0
LWPOLYLINE
  5
A2
330
1F
100
AcDbEntity
  8
0
  6
CONTINUOUS
 62
     7
100
AcDbPolyline
 90
        9
 70
     0
 43
0.0
 10
125.086880308978
 20
359.0343779112371
 10
125.3795157920022
 20
359.0474628614652
 10
125.6609054575256
 20
359.0862148648505
 10
125.9202356585074
 20
359.1491447036352
 10
126.1475404807578
 20
359.2338340194063
 10
126.3340847274318
 20
359.337028249253
 10
126.4726996077449
 20
359.4547616967942
 10
126.5580582295828
 20
359.5825099316668
 10
126.586880308978
 20
359.7153636608464
  0
LWPOLYLINE
  5
A3
330
1F
100
AcDbEntity
  8
0
  6
CONTINUOUS
 62
     7
100
AcDbPolyline
 90
       33
 70
     0
 43
0.0
 10
-56.90867528652092
 20
495.7513700917214
 10
-56.91367149114863
 20
495.7791329178393
 10
-56.91866769577632
 20
495.8060199106525
 10
-56.92366390040402
 20
495.8320306684228
 10
-56.92866010503172
 20
495.8571647894118
 10
-56.93365630965943
 20
495.881421871881
 10
-56.93865251428713
 20
495.9048015140921
 10
-56.94364871891482
 20
495.9273033143067
 10
-56.94864492354252
 20
495.9489268707864
 10
-56.95364112817021
 20
495.9696717817928
 10
-56.95863733279792
 20
495.9895376455876
 10
-56.96363353742561
 20
496.0085240604324
 10
-56.96862974205332
 20
496.0266306245888
 10
-56.97362594668102
 20
496.0438569363185
 10
-56.97862215130871
 20
496.060202593883
 10
-56.98361835593641
 20
496.0756671955439
 10
-56.98861456056411
 20
496.090250339563
 10
-56.9936107651918
 20
496.1039516242017
 10
-56.99860696981951
 20
496.1167706477219
 10
-57.0036031744472
 20
496.1287070083849
 10
-57.00859937907488
 20
496.1397603044525
 10
-57.0135955837026
 20
496.1499301341864
 10
-57.01859178833028
 20
496.159216095848
 10
-57.02358799295799
 20
496.1676177876991
 10
-57.02858419758568
 20
496.1751348080011
 10
-57.03358040221338
 20
496.181766755016
 10
-57.03857660684108
 20
496.1875132270052
 10
-57.04357281146877
 20
496.1923738222303
 10
-57.04856901609647
 20
496.1963481389528
 10
-57.05356522072417
 20
496.1994357754346
 10
-57.05856142535187
 20
496.2016363299372
 10
-57.06355762997956
 20
496.2029494007221
 10
-57.068553834607
 20
496.20337462234
  0
LWPOLYLINE
  5
A4
330
1F
100
AcDbEntity
  8
0
  6
CONTINUOUS
 62
     7
100
AcDbPolyline
 90
        9
 70
     0
 43
0.0
 10
-16.91311969102206
 20
502.1588383087956
 10
-16.71802936900593
 20
502.178044066471
 10
-16.53043625865697
 20
502.2349232730007
 10
-16.35754945800245
 20
502.3272900923758
 10
-16.2060129098355
 20
502.451594919528
 10
-16.08165007871949
 20
502.6030607896602
 10
-15.98924015851075
 20
502.7758669543267
 10
-15.93233441061881
 20
502.9633725695301
 10
-15.91311969102204
 20
503.1583718996323
  0
LWPOLYLINE
  5
A5
330
1F
100
AcDbEntity
  8
0
  6
CONTINUOUS
 62
     7
100
AcDbPolyline
 90
      113
 70
     0
 43
0.0
 10
-47.93150859719977
 20
317.2049687888488
 10
-47.88829511082358
 20
317.2378063078359
 10
-47.84508162444737
 20
317.3364169196234
 10
-47.80186813807116
 20
317.5008170616742
 10
-47.75865465169495
 20
317.7310231714515
 10
-47.71544116531872
 20
318.0270516620678
 10
-47.67222767894248
 20
318.3888164385519
 10
-47.62901419256624
 20
318.8158947330227
 10
-47.58580070618999
 20
319.3077947625932
 10
-47.54258721981373
 20
319.8640247443765
 10
-47.49937373343747
 20
320.4840928954857
 10
-47.45616024706119
 20
321.167507433034
 10
-47.41294676068492
 20
321.9137765741347
 10
-47.36973327430866
 20
322.7224085359008
 10
-47.3265197879324
 20
323.5929115354455
 10
-47.28330630155613
 20
324.524793789882
 10
-47.24009281517988
 20
325.5175523252832
 10
-47.19687932880361
 20
326.5704530318459
 10
-47.15366584242735
 20
327.6825443739469
 10
-47.11045235605111
 20
328.8528663701479
 10
-47.06723886967486
 20
330.0804590390105
 10
-47.02402538329862
 20
331.3643623990966
 10
-46.98081189692239
 20
332.7036164689681
 10
-46.93759841054617
 20
334.0972612671865
 10
-46.89438492416996
 20
335.5443368123139
 10
-46.85117143779374
 20
337.0438831229119
 10
-46.80795795141755
 20
338.5949402175424
 10
-46.76474446504137
 20
340.1964867617392
 10
-46.72153097866518
 20
341.8472415128448
 10
-46.678317492289
 20
343.5458544156039
 10
-46.63510400591284
 20
345.2909754143062
 10
-46.59189051953665
 20
347.0812544532414
 10
-46.54867703316048
 20
348.9153414766993
 10
-46.50546354678429
 20
350.7918864289697
 10
-46.4622500604081
 20
352.7095392543424
 10
-46.41903657403189
 20
354.6669498971071
 10
-46.37582308765566
 20
356.6627683015537
 10
-46.33260960127941
 20
358.6956404794112
 10
-46.28939611490315
 20
360.7640892143379
 10
-46.24618262852687
 20
362.8664925210862
 10
-46.20296914215058
 20
365.0012201385998
 10
-46.15975565577428
 20
367.1666418058225
 10
-46.11654216939797
 20
369.3611272616978
 10
-46.07332868302166
 20
371.5830462451692
 10
-46.03011519664535
 20
373.8307684951804
 10
-45.98690171026906
 20
376.1026637506752
 10
-45.94368822389277
 20
378.397101750597
 10
-45.90047473751649
 20
380.7124522338895
 10
-45.85726125114023
 20
383.0470672669832
 10
-45.81404776476398
 20
385.3992020807847
 10
-45.77083427838775
 20
387.7670789090768
 10
-45.72762079201151
 20
390.1489199577827
 10
-45.6844073056353
 20
392.5429474328256
 10
-45.64119381925909
 20
394.947383540129
 10
-45.59798033288288
 20
397.3604504856161
 10
-45.55476684650669
 20
399.7803704752105
 10
-45.51155336013048
 20
402.2053657148352
 10
-45.46833987375428
 20
404.6336584104138
 10
-45.42512638737809
 20
407.063470746911
 10
-45.38191290100188
 20
409.4930238143716
 10
-45.33869941462567
 20
411.9205370931454
 10
-45.29548592824948
 20
414.3442299348505
 10
-45.25227244187326
 20
416.7623216911052
 10
-45.20905895549704
 20
419.1730317135278
 10
-45.16584546912082
 20
421.5745793537364
 10
-45.12263198274461
 20
423.9651839633495
 10
-45.07941849636839
 20
426.3430648939853
 10
-45.03620500999216
 20
428.7064414972619
 10
-44.99299152361593
 20
431.0535331247976
 10
-44.94977803723971
 20
433.3825717398474
 10
-44.90656455086348
 20
435.6918793979874
 10
-44.86335106448725
 20
437.9798173467366
 10
-44.82013757811102
 20
440.2447469944096
 10
-44.77692409173478
 20
442.4850297493211
 10
-44.73371060535856
 20
444.6990270197858
 10
-44.69049711898231
 20
446.8851002141183
 10
-44.64728363260608
 20
449.0416107406335
 10
-44.60407014622986
 20
451.1669200076456
 10
-44.56085665985361
 20
453.2593894234695
 10
-44.51764317347737
 20
455.3173812805918
 10
-44.47442968710114
 20
457.339347928525
 10
-44.4312162007249
 20
459.3239081837455
 10
-44.38800271434867
 20
461.2696988615454
 10
-44.34478922797242
 20
463.1753567772167
 10
-44.30157574159617
 20
465.0395187460517
 10
-44.25836225521994
 20
466.8608215833423
 10
-44.2151487688437
 20
468.6379021043808
 10
-44.17193528246744
 20
470.3693971244592
 10
-44.12872179609119
 20
472.0539434588695
 10
-44.08550830971495
 20
473.690177922904
 10
-44.04229482333869
 20
475.2767619206911
 10
-43.99908133696244
 20
476.8125893038489
 10
-43.95586785058619
 20
478.2966819002088
 10
-43.91265436420993
 20
479.7280628694177
 10
-43.86944087783368
 20
481.1057553711222
 10
-43.82622739145744
 20
482.4287825649693
 10
-43.78301390508119
 20
483.6961676106055
 10
-43.73980041870495
 20
484.9069336676779
 10
-43.69658693232871
 20
486.060103895833
 10
-43.65337344595247
 20
487.1547014547178
 10
-43.61015995957624
 20
488.189749979321
 10
-43.56694647320002
 20
489.1643997240513
 10
-43.5237329868238
 20
490.0780973395912
 10
-43.48051950044758
 20
490.9303318262179
 10
-43.43730601407137
 20
491.7205921842079
 10
-43.39409252769515
 20
492.4483674138378
 10
-43.35087904131895
 20
493.1131465153848
 10
-43.30766555494273
 20
493.7144184891249
 10
-43.26445206856652
 20
494.2516723353353
 10
-43.2212385821903
 20
494.7243970542924
 10
-43.17802509581409
 20
495.132081646273
 10
-43.13481160943787
 20
495.4742373205545
 10
-43.09159812306193
 20
495.7506597459402
210
0.0
220
0.0
230
-1.0
  0
LWPOLYLINE
  5
A6
330
1F
100
AcDbEntity
  8
0
  6
CONTINUOUS
 62
     7
100
AcDbPolyline
 90
      105
 70
     0
 43
0.0
 10
52.0684320682601
 20
317.2034089457633
 10
52.11497286843566
 20
317.2419264755312
 10
52.16151366861123
 20
317.3571045521477
 10
52.2080544687868
 20
317.5486431996751
 10
52.25459526896238
 20
317.8162424421758
 10
52.30113606913795
 20
318.1596023037121
 10
52.34767686931355
 20
318.5784228083465
 10
52.39421766948914
 20
319.0724039801414
 10
52.44075846966473
 20
319.641245843159
 10
52.48729926984032
 20
320.2846484214618
 10
52.53384007001591
 20
321.0022970439777
 10
52.5803808701915
 20
321.793572994255
 10
52.62692167036711
 20
322.6575712512507
 10
52.6734624705427
 20
323.5933756509651
 10
52.7200032707183
 20
324.600070029399
 10
52.7665440708939
 20
325.676738222553
 10
52.81308487106953
 20
326.8224640664278
 10
52.85962567124513
 20
328.0363313970239
 10
52.90616647142073
 20
329.317424050342
 10
52.95270727159637
 20
330.6648258623828
 10
52.99924807177199
 20
332.0775849432423
 10
53.04578887194763
 20
333.5544214984001
 10
53.09232967212327
 20
335.0938794294672
 10
53.1388704722989
 20
336.6945009427533
 10
53.18541127247454
 20
338.3548282445686
 10
53.23195207265019
 20
340.0734035412228
 10
53.27849287282581
 20
341.8487690390258
 10
53.32503367300144
 20
343.6794669442875
 10
53.37157447317705
 20
345.5640394633178
 10
53.41811527335265
 20
347.5010288024266
 10
53.46465607352825
 20
349.4889176082264
 10
53.51119687370382
 20
351.5259077610724
 10
53.55773767387942
 20
353.6101184858478
 10
53.60427847405496
 20
355.7396689959252
 10
53.65081927423052
 20
357.9126785046777
 10
53.69736007440606
 20
360.1272662254781
 10
53.74390087458159
 20
362.3815513716993
 10
53.79044167475712
 20
364.6736531567142
 10
53.83698247493263
 20
367.0016907938956
 10
53.88352327510815
 20
369.3637833241872
 10
53.93006407528365
 20
371.7579808899632
 10
53.97660487545914
 20
374.1821597721493
 10
54.02314567563464
 20
376.6341692515367
 10
54.06968647581014
 20
379.1118586089166
 10
54.11622727598565
 20
381.6130771250798
 10
54.16276807616116
 20
384.1356740808176
 10
54.2093088763367
 20
386.6774987569209
 10
54.25584967651226
 20
389.2364004341808
 10
54.30239047668782
 20
391.8102283933884
 10
54.34893127686342
 20
394.3968311293228
 10
54.39547207703904
 20
396.994019817738
 10
54.44201287721469
 20
399.5995528341888
 10
54.48855367739033
 20
402.2111845546315
 10
54.53509447756601
 20
404.8266693550226
 10
54.58163527774169
 20
407.443761611318
 10
54.62817607791737
 20
410.0602156994742
 10
54.67471687809305
 20
412.6737859954472
 10
54.72125767826873
 20
415.2822268751935
 10
54.76779847844439
 20
417.8832927146692
 10
54.81433927862005
 20
420.4747407287492
 10
54.8608800787957
 20
423.0543743938148
 10
54.90742087897132
 20
425.6200348381187
 10
54.95396167914695
 20
428.1695642839826
 10
55.00050247932256
 20
430.7008049537283
 10
55.04704327949813
 20
433.2115990696775
 10
55.09358407967372
 20
435.6997888541521
 10
55.14012487984929
 20
438.163216529474
 10
55.18666568002484
 20
440.5997243179645
 10
55.23320648020038
 20
443.0071544419457
 10
55.27974728037593
 20
445.3833707679227
 10
55.32628808055146
 20
447.7264023917937
 10
55.37282888072698
 20
450.0343545774875
 10
55.41936968090251
 20
452.3053329958643
 10
55.46591048107803
 20
454.5374433177838
 10
55.51245128125356
 20
456.7287912141056
 10
55.5589920814291
 20
458.8774823556897
 10
55.60553288160464
 20
460.9816224133959
 10
55.65207368178019
 20
463.0393170580838
 10
55.69861448195576
 20
465.0486719606136
 10
55.74515528213135
 20
467.0078626235511
 10
55.79169608230693
 20
468.9153429562886
 10
55.83823688248253
 20
470.769636240683
 10
55.88477768265815
 20
472.5692657585908
 10
55.93131848283375
 20
474.3127547918688
 10
55.97785928300939
 20
475.9986266223737
 10
56.024400083185
 20
477.6254045319621
 10
56.07094088336061
 20
479.1916118024909
 10
56.11748168353622
 20
480.6957717158165
 10
56.16402248371181
 20
482.1364084108475
 10
56.2105632838874
 20
483.5122022733278
 10
56.25710408406298
 20
484.8221705578528
 10
56.30364488423854
 20
486.0653743341216
 10
56.35018568441411
 20
487.2408746718328
 10
56.39672648458967
 20
488.3477326406855
 10
56.44326728476523
 20
489.3850093103783
 10
56.48980808494081
 20
490.3517657506104
 10
56.5363488851164
 20
491.2470630310802
 10
56.58288968529199
 20
492.0699622214869
 10
56.62943048546758
 20
492.819532161431
 10
56.6759712856432
 20
493.4951058271437
 10
56.72251208581883
 20
494.0963388637147
 10
56.76905288599446
 20
494.6229065398011
 10
56.81559368617013
 20
495.0744841240601
 10
56.86213448634577
 20
495.4507468851488
 10
56.90867528652092
 20
495.7513700917214
210
0.0
220
0.0
230
-1.0
  0
LWPOLYLINE
  5
A7
330
1F
100
AcDbEntity
  8
0
  6
CONTINUOUS
 62
     7
100
AcDbPolyline
 90
      105
 70
     0
 43
0.0
 10
2.06830268036208
 20
317.2044296288315
 10
2.11484169644619
 20
317.2427969997975
 10
2.161380712530304
 20
317.3574388266586
 10
2.207919728614423
 20
317.5482150461359
 10
2.25445874469855
 20
317.8149855949508
 10
2.300997760782682
 20
318.1576104098245
 10
2.347536776866822
 20
318.5759494274782
 10
2.394075792950969
 20
319.0698625846332
 10
2.440614809035125
 20
319.6391152551079
 10
2.487153825119287
 20
320.2830554293881
 10
2.533692841203454
 20
321.0009159778571
 10
2.580231857287624
 20
321.7919297672117
 10
2.626770873371795
 20
322.6553296641487
 10
2.673309889455966
 20
323.5903485353651
 10
2.719848905540134
 20
324.5962192475577
 10
2.766387921624299
 20
325.6721746674235
 10
2.812926937708456
 20
326.8174476616591
 10
2.859465953792606
 20
328.031270566393
 10
2.906004969876747
 20
329.3127240120864
 10
2.952543985960879
 20
330.6605284971174
 10
2.999083002045004
 20
332.0733522482575
 10
3.045622018129121
 20
333.5498634922787
 10
3.092161034213232
 20
335.0887304559528
 10
3.138700050297337
 20
336.6886213660516
 10
3.185239066381437
 20
338.3482044493467
 10
3.231778082465533
 20
340.0661479326102
 10
3.278317098549624
 20
341.8411200426135
 10
3.324856114633714
 20
343.6717845383267
 10
3.371395130717802
 20
345.5566193745113
 10
3.41793414680189
 20
347.4938538851905
 10
3.464473162885982
 20
349.4817000382894
 10
3.511012178970079
 20
351.5183698017335
 10
3.557551195054184
 20
353.602075143448
 10
3.6040902111383
 20
355.7310280313583
 10
3.65062922722243
 20
357.9034404333896
 10
3.697168243306574
 20
360.1175243174675
 10
3.743707259390736
 20
362.371491651517
 10
3.790246275474918
 20
364.6635432427022
 10
3.836785291559119
 20
366.9917125905425
 10
3.883324307643331
 20
369.3539042422806
 10
3.929863323727551
 20
371.7480194188892
 10
3.976402339811774
 20
374.1719593413413
 10
4.022941355895997
 20
376.6236252306095
 10
4.069480371980211
 20
379.1009183076671
 10
4.116019388064411
 20
381.6017397934867
 10
4.162558404148594
 20
384.1239909090413
 10
4.209097420232755
 20
386.6655728753036
 10
4.255636436316887
 20
389.2243745035701
 10
4.302175452400996
 20
391.7981958657674
 10
4.348714468485082
 20
394.3847983959215
 10
4.39525348456915
 20
396.9819433688547
 10
4.441792500653206
 20
399.5873920593886
 10
4.488331516737253
 20
402.1989057423452
 10
4.534870532821293
 20
404.8142456925465
 10
4.581409548905333
 20
407.4311731848142
 10
4.627948564989374
 20
410.0474494939704
 10
4.674487581073423
 20
412.6608358949029
 10
4.721026597157484
 20
415.2691011576246
 10
4.767565613241554
 20
417.8700421959757
 10
4.814104629325637
 20
420.4614625283911
 10
4.860643645409733
 20
423.0411656733049
 10
4.907182661493843
 20
425.6069551491517
 10
4.953721677577967
 20
428.1566344743659
 10
5.000260693662107
 20
430.6880071673821
 10
5.046799709746262
 20
433.1988767466346
 10
5.093338725830434
 20
435.6870467305578
 10
5.139877741914622
 20
438.1503210966872
 10
5.186416757998827
 20
440.5865708380684
 10
5.232955774083043
 20
442.9938037749325
 10
5.279494790167269
 20
445.3700444212614
 10
5.326033806251497
 20
447.7133172910368
 10
5.372572822335726
 20
450.0216468982406
 10
5.419111838419947
 20
452.2930577568546
 10
5.465650854504158
 20
454.5255743808605
 10
5.512189870588356
 20
456.71722128424
 10
5.558728886672535
 20
458.8660229809751
 10
5.605267902756691
 20
460.9700095030349
 10
5.651806918840824
 20
463.0273798450051
 10
5.698345934924935
 20
465.0365292665832
 10
5.744884951009027
 20
466.9958640443874
 10
5.791423967093105
 20
468.9037904550361
 10
5.83796298317717
 20
470.7587147751478
 10
5.884501999261226
 20
472.5590432813409
 10
5.931041015345278
 20
474.3031822502338
 10
5.977580031429325
 20
475.9895379584447
 10
6.024119047513372
 20
477.6165166825922
 10
6.070658063597424
 20
479.1825484798146
 10
6.117197079681481
 20
480.6863535898536
 10
6.163736095765543
 20
482.1268462018214
 10
6.210275111849611
 20
483.502944053825
 10
6.256814127933691
 20
484.8135648839722
 10
6.303353144017777
 20
486.0576264303697
 10
6.349892160101876
 20
487.234046431125
 10
6.396431176185986
 20
488.3417426243449
 10
6.442970192270111
 20
489.3796327481372
 10
6.489509208354248
 20
490.3466345406084
 10
6.536048224438403
 20
491.2417302291917
 10
6.582587240522571
 20
492.064291425074
 10
6.62912625660675
 20
492.8138351531236
 10
6.675665272690936
 20
493.4898786885254
 10
6.722204288775128
 20
494.0919393064644
 10
6.768743304859321
 20
494.6195342821251
 10
6.815282320943514
 20
495.0721808906928
 10
6.861821337027704
 20
495.4493964073522
 10
6.908360353112417
 20
495.7506981072912
210
0.0
220
0.0
230
-1.0
  0
LWPOLYLINE
  5
A8
330
1F
100
AcDbEntity
  8
0
  6
CONTINUOUS
 62
     7
100
AcDbPolyline
 90
        4
 70
     0
 43
0.0
 10
115.913119691022
 20
486.9163348754346
 10
115.8922390695229
 20
487.0188390662082
 10
115.8280420418932
 20
487.1222156525371
 10
115.7426497607588
 20
487.2061708134052
210
0.0
220
0.0
230
-1.0
  0
LWPOLYLINE
  5
A9
330
1F
100
AcDbEntity
  8
0
  6
CONTINUOUS
 62
     7
100
AcDbPolyline
 90
       31
 70
     0
 43
0.0
 10
115.4131196910215
 20
325.9983617933476
 10
115.4310689734156
 20
326.0073891300357
 10
115.448789007119
 20
326.0164099576781
 10
115.4662468613899
 20
326.0254179813061
 10
115.4921947032936
 20
326.0390621361474
 10
115.5174538181231
 20
326.0526809713392
 10
115.5427215978316
 20
326.0666917777092
 10
115.5671733203559
 20
326.0806733436063
 10
115.5909782226931
 20
326.0947443834348
 10
115.6139055800138
 20
326.1087846884554
 10
115.6387746909937
 20
326.1246357104302
 10
115.662495280203
 20
326.140447896738
 10
115.6852333297155
 20
326.1563435179955
 10
115.7068070166571
 20
326.172201849095
 10
115.7276340532817
 20
326.1883517255622
 10
115.747268315107
 20
326.2044661476723
 10
115.7658248526962
 20
326.2206385482488
 10
115.7832049291944
 20
326.2367792050751
 10
115.8048262029071
 20
326.2585184670894
 10
115.8243750956074
 20
326.280209339342
 10
115.8420153960088
 20
326.3020211663999
 10
115.8576302533892
 20
326.3237949356438
 10
115.8715202109519
 20
326.3459937607792
 10
115.883368723711
 20
326.3681641961145
 10
115.8932590138562
 20
326.3904476304874
 10
115.9011375137064
 20
326.4127133255431
 10
115.9062253201625
 20
326.4314476539364
 10
115.9099143130043
 20
326.4501945176481
 10
115.9122105574995
 20
326.4689930819296
 10
115.9131061537199
 20
326.4878099404962
 10
115.913119691022
 20
326.4904258923444
210
0.0
220
0.0
230
-1.0
  0
LWPOLYLINE
  5
AA
330
1F
100
AcDbEntity
  8
0
  6
CONTINUOUS
 62
     7
100
AcDbPolyline
 90
       35
 70
     0
 43
0.0
 10
-115.913119691022
 20
327.3308410519518
 10
-115.9138484267553
 20
327.3469711164446
 10
-115.9160322129379
 20
327.3630930797088
 10
-115.9196674180439
 20
327.379154444675
 10
-115.9247504105477
 20
327.3951027142743
 10
-115.931565195048
 20
327.4115134903391
 10
-115.9399528717756
 20
327.4277608406949
 10
-115.9499004061933
 20
327.443780780087
 10
-115.9613947637635
 20
327.4595093232604
 10
-115.9723481850169
 20
327.4725798332305
 10
-115.9844260546097
 20
327.4854056754378
 10
-115.9976099766819
 20
327.497942308165
 10
-116.0118815553734
 20
327.5101451896948
 10
-116.0278411199607
 20
327.5224242459775
 10
-116.0449850326643
 20
327.5342978299169
 10
-116.0632712706391
 20
327.5457090491108
 10
-116.0826578110403
 20
327.5566010111576
 10
-116.0971585192243
 20
327.5640350744421
 10
-116.1122175518046
 20
327.5711794187789
 10
-116.1278084940374
 20
327.5780118464272
 10
-116.1439049311788
 20
327.5845101596462
 10
-116.1609706381415
 20
327.5908268479395
 10
-116.1785596535224
 20
327.5967656768248
 10
-116.1966293640943
 20
327.6023032064131
 10
-116.2151371566301
 20
327.6074159968156
 10
-116.2335803739915
 20
327.6119752924273
 10
-116.252416026556
 20
327.6161088721572
 10
-116.2715904792295
 20
327.619798843835
 10
-116.2910500969182
 20
327.6230273152906
 10
-116.3114904994798
 20
327.6258729905545
 10
-116.3321968167032
 20
327.6282054024633
 10
-116.3530964237915
 20
327.6300132069102
 10
-116.3741166959477
 20
327.6312850597879
 10
-116.3935978766497
 20
327.6319783229574
 10
-116.4131196910221
 20
327.6322099107013
  0
LWPOLYLINE
  5
AB
330
1F
100
AcDbEntity
  8
0
  6
CONTINUOUS
 62
     7
100
AcDbPolyline
 90
       33
 70
     0
 43
0.0
 10
51.90869939341582
 20
317.6551582881787
 10
51.91369103950468
 20
317.6274203205375
 10
51.91868268559357
 20
317.6005569182818
 10
51.92367433168243
 20
317.5745685016597
 10
51.9286659777713
 20
317.5494554909191
 10
51.93365762386016
 20
317.525218306308
 10
51.93864926994905
 20
317.5018573680746
 10
51.94364091603792
 20
317.4793730964668
 10
51.94863256212678
 20
317.4577659117325
 10
51.95362420821565
 20
317.4370362341199
 10
51.95861585430453
 20
317.417184483877
 10
51.9636075003934
 20
317.3982110812518
 10
51.96859914648228
 20
317.3801164464923
 10
51.97359079257114
 20
317.3629009998463
 10
51.97858243866001
 20
317.3465651615621
 10
51.98357408474889
 20
317.3311093518877
 10
51.98856573083776
 20
317.316533991071
 10
51.99355737692664
 20
317.3028394993601
 10
51.9985490230155
 20
317.2900262970029
 10
52.00354066910438
 20
317.2780948042474
 10
52.00853231519324
 20
317.2670454413418
 10
52.01352396128212
 20
317.2568786285341
 10
52.018515607371
 20
317.2475947860722
 10
52.02350725345986
 20
317.239194334204
 10
52.02849889954874
 20
317.2316776931777
 10
52.03349054563762
 20
317.2250452832414
 10
52.03848219172649
 20
317.2192975246429
 10
52.04347383781537
 20
317.2144348376304
 10
52.04846548390424
 20
317.2104576424518
 10
52.05345712999311
 20
317.207366359355
 10
52.05844877608199
 20
317.2051613099788
 10
52.06344042217086
 20
317.2038422954465
 10
52.0684320682601
 20
317.2034089457633
210
0.0
220
0.0
230
-1.0
  0
LWPOLYLINE
  5
AC
330
1F
100
AcDbEntity
  8
0
  6
CONTINUOUS
 62
     7
100
AcDbPolyline
 90
      113
 70
     0
 43
0.0
 10
-37.93143612709967
 20
317.2049779487635
 10
-37.88822473282706
 20
317.2380373796104
 10
-37.84501333855445
 20
317.3368358846723
 10
-37.80180194428185
 20
317.5013641744703
 10
-37.75859055000925
 20
317.7316129595259
 10
-37.71537915573666
 20
318.0275729503604
 10
-37.67216776146407
 20
318.3892215278469
 10
-37.62895636719148
 20
318.8162805353432
 10
-37.5857449729189
 20
319.3082417807033
 10
-37.54253357864633
 20
319.8645888602156
 10
-37.49932218437377
 20
320.4848053701683
 10
-37.45611079010119
 20
321.1683749068496
 10
-37.41289939582862
 20
321.9147810665478
 10
-37.36968800155605
 20
322.7235074455511
 10
-37.32647660728347
 20
323.594037640148
 10
-37.28326521301091
 20
324.5258552466265
 10
-37.24005381873832
 20
325.5184438612749
 10
-37.19684242446574
 20
326.5712102124564
 10
-37.15363103019316
 20
327.6832509729706
 10
-37.11041963592057
 20
328.8535846503408
 10
-37.06720824164798
 20
330.081229752089
 10
-37.02399684737539
 20
331.3652047857369
 10
-36.98078545310279
 20
332.7045282588063
 10
-36.93757405883019
 20
334.0982186788189
 10
-36.8943626645576
 20
335.5452945532968
 10
-36.85115127028499
 20
337.0447743897616
 10
-36.8079398760124
 20
338.5956766957351
 10
-36.76472848173978
 20
340.1970139654223
 10
-36.7215170874672
 20
341.8476253370334
 10
-36.6783056931946
 20
343.5461545465709
 10
-36.63509429892201
 20
345.2912348876606
 10
-36.59188290464942
 20
347.0814996539274
 10
-36.54867151037683
 20
348.915582138997
 10
-36.50546011610425
 20
350.7921156364946
 10
-36.46224872183166
 20
352.7097334400453
 10
-36.4190373275591
 20
354.667068843275
 10
-36.37582593328654
 20
356.6627551398086
 10
-36.33261453901397
 20
358.6954256232715
 10
-36.28940314474142
 20
360.7636790544743
 10
-36.24619175046887
 20
362.8659336050012
 10
-36.20298035619634
 20
365.0005486106767
 10
-36.1597689619238
 20
367.1658833752037
 10
-36.11655756765127
 20
369.3602972022852
 10
-36.07334617337874
 20
371.5821493956241
 10
-36.03013477910621
 20
373.8297992589236
 10
-35.98692338483367
 20
376.1016060958863
 10
-35.94371199056113
 20
378.3959292102155
 10
-35.90050059628858
 20
380.711127905614
 10
-35.85728920201603
 20
383.0455603191221
 10
-35.81407780774347
 20
385.3975293196762
 10
-35.77086641347091
 20
387.765259652693
 10
-35.72765501919833
 20
390.1469701535094
 10
-35.68444362492576
 20
392.5408796574628
 10
-35.64123223065318
 20
394.9452069998902
 10
-35.59802083638059
 20
397.3581710161286
 10
-35.554809442108
 20
399.7779905415152
 10
-35.51159804783542
 20
402.2028844113871
 10
-35.46838665356283
 20
404.6310714610815
 10
-35.42517525929024
 20
407.0607705259353
 10
-35.38196386501765
 20
409.4902008608643
 10
-35.33875247074507
 20
411.917584585118
 10
-35.29554107647247
 20
414.3411450146732
 10
-35.25232968219989
 20
416.7591054695181
 10
-35.2091182879273
 20
419.169689269641
 10
-35.16590689365471
 20
421.57111973503
 10
-35.12269549938213
 20
423.9616201856736
 10
-35.07948410510954
 20
426.3394139415598
 10
-35.03627271083698
 20
428.7027243226769
 10
-34.99306131656439
 20
431.0497746490132
 10
-34.94984992229182
 20
433.3787887968326
 10
-34.90663852801923
 20
435.6880407479472
 10
-34.86342713374667
 20
437.9758936927439
 10
-34.82021573947408
 20
440.2407200239131
 10
-34.77700434520151
 20
442.4808921341457
 10
-34.73379295092895
 20
444.6947824161328
 10
-34.69058155665637
 20
446.8807632625648
 10
-34.64737016238379
 20
449.0372070661327
 10
-34.60415876811123
 20
451.1624862195272
 10
-34.56094737383864
 20
453.2549731154394
 10
-34.51773597956608
 20
455.3130401465598
 10
-34.47452458529349
 20
457.33507862504
 10
-34.43131319102092
 20
459.319650847179
 10
-34.38810179674833
 20
461.2654098983279
 10
-34.34489040247576
 20
463.1710097002416
 10
-34.30167900820318
 20
465.0351041746745
 10
-34.25846761393059
 20
466.8563472433809
 10
-34.21525621965802
 20
468.6333928281158
 10
-34.17204482538543
 20
470.3648948506334
 10
-34.12883343111285
 20
472.0495072326886
 10
-34.08562203684028
 20
473.6858838960358
 10
-34.0424106425677
 20
475.2726792509663
 10
-33.99919924829512
 20
476.8086571773008
 10
-33.95598785402255
 20
478.2928287587254
 10
-33.91277645974999
 20
479.7242389912942
 10
-33.86956506547742
 20
481.1019328710611
 10
-33.82635367120485
 20
482.4249553940802
 10
-33.78314227693227
 20
483.6923515564054
 10
-33.7399308826597
 20
484.9031663540907
 10
-33.69671948838712
 20
486.0564447831902
 10
-33.65350809411455
 20
487.1512318397577
 10
-33.61029669984197
 20
488.1865725198472
 10
-33.56708530556938
 20
489.1615335380909
 10
-33.52387391129679
 20
490.0754473956283
 10
-33.4806625170242
 20
490.9278246070489
 10
-33.4374511227516
 20
491.7181789619119
 10
-33.39423972847901
 20
492.4460242497765
 10
-33.35102833420642
 20
493.1108742602022
 10
-33.30781693993382
 20
493.7122427827481
 10
-33.26460554566123
 20
494.2496436069738
 10
-33.22139415138864
 20
494.7225905224385
 10
-33.17818275711605
 20
495.1305973187015
 10
-33.13497136284347
 20
495.4731778967379
 10
-33.09175996857081
 20
495.7499614485346
210
0.0
220
0.0
230
-1.0
  0
LWPOLYLINE
  5
AD
330
1F
100
AcDbEntity
  8
0
  6
CONTINUOUS
 62
     7
100
AcDbPolyline
 90
       25
 70
     0
 43
0.0
 10
78.99529849882303
 20
495.8757084497454
 10
78.99510564197872
 20
495.8747805284653
 10
78.99491278510472
 20
495.8738512887726
 10
78.99471992820101
 20
495.8729207307035
 10
78.99452707126763
 20
495.8719888542939
 10
78.99433421430459
 20
495.8710556595801
 10
78.99414135731193
 20
495.870121146598
 10
78.99394850028963
 20
495.8691853153836
 10
78.99375564323773
 20
495.8682481659731
 10
78.99356278615625
 20
495.8673096984024
 10
78.99336992904517
 20
495.8663699127079
 10
78.99317707190455
 20
495.8654288089254
 10
78.99298421473439
 20
495.8644863870909
 10
78.99279135753471
 20
495.8635426472406
 10
78.9925985003055
 20
495.8625975894105
 10
78.99240564304681
 20
495.8616512136368
 10
78.99221278575864
 20
495.8607035199554
 10
78.99201992844098
 20
495.8597545084023
 10
78.99182707109391
 20
495.8588041790138
 10
78.99163421371742
 20
495.8578525318259
 10
78.9914413563115
 20
495.8568995668746
 10
78.99124849887617
 20
495.855945284196
 10
78.99105564141148
 20
495.8549896838261
 10
78.99086278391741
 20
495.854032765801
 10
78.99066992639398
 20
495.8530745301566
  0
LWPOLYLINE
  5
AE
330
1F
100
AcDbEntity
  8
0
  6
CONTINUOUS
 62
     7
100
AcDbPolyline
 90
        3
 70
     0
 43
0.0
 10
68.69002087623403
 20
493.0735511693399
 10
68.62165475336612
 20
493.1972638762934
 10
68.6027674341717
 20
493.203380383754
  0
LWPOLYLINE
  5
AF
330
1F
100
AcDbEntity
  8
0
  6
CONTINUOUS
 62
     7
100
AcDbPolyline
 90
        3
 70
     0
 43
0.0
 10
28.37307188714858
 20
320.3331589551444
 10
28.43949274741393
 20
320.2107242730405
 10
28.46023799754753
 20
320.203380383977
  0
LWPOLYLINE
  5
B0
330
1F
100
AcDbEntity
  8
0
  6
CONTINUOUS
 62
     7
100
AcDbPolyline
 90
        3
 70
     0
 43
0.0
 10
-81.63930480266144
 20
320.3732875007719
 10
-81.57339281065794
 20
320.2229894705794
 10
-81.5395416331794
 20
320.2033803838902
  0
LWPOLYLINE
  5
B1
330
1F
100
AcDbEntity
  8
0
  6
CONTINUOUS
 62
     7
100
AcDbPolyline
 90
       33
 70
     0
 43
0.0
 10
-70.86817037369084
 20
496.2033387718378
 10
-70.87317495099687
 20
496.2029680636214
 10
-70.87817952830291
 20
496.2017075013659
 10
-70.88318410560895
 20
496.1995567208928
 10
-70.888188682915
 20
496.1965153580248
 10
-70.89319326022104
 20
496.1925831897535
 10
-70.89819783752708
 20
496.1877605237169
 10
-70.90320241483312
 20
496.1820477922129
 10
-70.90820699213914
 20
496.1754454275399
 10
-70.9132115694452
 20
496.1679538619965
 10
-70.91821614675123
 20
496.1595735278809
 10
-70.92322072405727
 20
496.1503048574917
 10
-70.92822530136331
 20
496.1401482831268
 10
-70.93322987866935
 20
496.129104237085
 10
-70.9382344559754
 20
496.1171731516644
 10
-70.94323903328144
 20
496.1043554591635
 10
-70.9482436105875
 20
496.0906515918805
 10
-70.95324818789354
 20
496.0760619821141
 10
-70.95825276519957
 20
496.0605870621622
 10
-70.96325734250561
 20
496.0442272643235
 10
-70.96826191981168
 20
496.0269830208964
 10
-70.9732664971177
 20
496.0088547641789
 10
-70.97827107442377
 20
495.9898429264699
 10
-70.9832756517298
 20
495.9699479400672
 10
-70.98828022903584
 20
495.9491702372695
 10
-70.9932848063419
 20
495.9275102503752
 10
-70.99828938364793
 20
495.9049684116824
 10
-71.00329396095398
 20
495.8815451534897
 10
-71.00829853826004
 20
495.8572409080954
 10
-71.01330311556605
 20
495.8320561077977
 10
-71.0183076928721
 20
495.8059911848952
 10
-71.02331227017815
 20
495.7790465716863
 10
-71.02831684748458
 20
495.751222700467
  0
LWPOLYLINE
  5
B2
330
1F
100
AcDbEntity
  8
0
  6
CONTINUOUS
 62
     7
100
AcDbPolyline
 90
        9
 70
     0
 43
0.0
 10
126.586880308978
 20
473.2318979864463
 10
126.5580582295828
 20
473.4200004490889
 10
126.4726996077449
 20
473.6008742395812
 10
126.3340847274318
 20
473.7675684795898
 10
126.1475404807578
 20
473.9136772029544
 10
125.9202356585074
 20
474.0335855333747
 10
125.6609054575256
 20
474.1226854609582
 10
125.3795157920022
 20
474.1775529254555
 10
125.086880308978
 20
474.1960794009761
  0
LWPOLYLINE
  5
B3
330
1F
100
AcDbEntity
  8
0
  6
CONTINUOUS
 62
     7
100
AcDbPolyline
 90
        3
 70
     0
 43
0.0
 10
8.350854287050291
 20
320.4076124547753
 10
8.416792382475363
 20
320.2356467711936
 10
8.460289317775052
 20
320.2033803839598
  0
LWPOLYLINE
  5
B4
330
1F
100
AcDbEntity
  8
0
  6
CONTINUOUS
 62
     7
100
AcDbPolyline
 90
        3
 70
     0
 43
0.0
 10
-61.61903317136942
 20
320.311203612043
 10
-61.55061770753119
 20
320.2054920203428
 10
-61.53950026386288
 20
320.2033803840072
  0
LWPOLYLINE
  5
B5
330
1F
100
AcDbEntity
  8
0
  6
CONTINUOUS
 62
     7
100
AcDbPolyline
 90
        3
 70
     0
 43
0.0
 10
58.37003826501105
 20
320.3427307407197
 10
58.43632562438565
 20
320.2131704528907
 10
58.46024482143456
 20
320.2033803839627
  0
LWPOLYLINE
  5
B6
330
1F
100
AcDbEntity
  8
0
  6
CONTINUOUS
 62
     7
100
AcDbPolyline
 90
        9
 70
     0
 43
0.0
 10
125.0868803089779
 20
313.1476953441109
 10
125.3795157920021
 20
313.1733760048926
 10
125.6609054575256
 20
313.2494310938459
 10
125.9202356585073
 20
313.3729378565545
 10
126.1475404807578
 20
313.5391499973908
 10
126.3340847274318
 20
313.7416800769954
 10
126.4726996077449
 20
313.9727449779893
 10
126.5580582295828
 20
314.2234650058098
 10
126.586880308978
 20
314.4842051303934
  0
LWPOLYLINE
  5
B7
330
1F
100
AcDbEntity
  8
0
  6
CONTINUOUS
 62
     7
100
AcDbPolyline
 90
        3
 70
     0
 43
0.0
 10
18.67230062086781
 20
493.1206290719511
 10
18.60455864890133
 20
493.203327105632
 10
18.60279454752835
 20
493.2033803838799
  0
LWPOLYLINE
  5
B8
330
1F
100
AcDbEntity
  8
0
  6
CONTINUOUS
 62
     7
100
AcDbPolyline
 90
        3
 70
     0
 43
0.0
 10
78.37866831569883
 20
320.3175352420382
 10
78.44454590816066
 20
320.2076323122129
 10
78.46029822938199
 20
320.2033803840174
  0
LWPOLYLINE
  5
B9
330
1F
100
AcDbEntity
  8
0
  6
CONTINUOUS
 62
     7
100
AcDbPolyline
 90
        3
 70
     0
 43
0.0
 10
28.7146460716251
 20
492.9892991942098
 10
28.64836100124997
 20
493.1678912562634
 10
28.60280669859146
 20
493.2033803837959
  0
LWPOLYLINE
  5
BA
330
1F
100
AcDbEntity
  8
0
  6
CONTINUOUS
 62
     7
100
AcDbPolyline
 90
        3
 70
     0
 43
0.0
 10
48.39153175622364
 20
320.2841177633189
 10
48.4598066751312
 20
320.2034202758305
 10
48.46023372917896
 20
320.2033803838903
  0
LWPOLYLINE
  5
BB
330
1F
100
AcDbEntity
  8
0
  6
CONTINUOUS
 62
     7
100
AcDbPolyline
 90
        9
 70
     0
 43
0.0
 10
126.586880308978
 20
498.9225556373856
 10
126.5580582295828
 20
499.1832957619691
 10
126.4726996077449
 20
499.4340157897897
 10
126.3340847274318
 20
499.6650806907836
 10
126.1475404807578
 20
499.8676107703882
 10
125.9202356585074
 20
500.0338229112244
 10
125.6609054575256
 20
500.1573296739331
 10
125.3795157920022
 20
500.2333847628864
 10
125.086880308978
 20
500.2590654236682
  0
LWPOLYLINE
  5
BC
330
1F
100
AcDbEntity
  8
0
  6
CONTINUOUS
 62
     7
100
AcDbPolyline
 90
        3
 70
     0
 43
0.0
 10
-1.625638525306144
 20
320.3292975999266
 10
-1.557238425336477
 20
320.2086292901451
 10
-1.539679881943548
 20
320.2033803840039
  0
LWPOLYLINE
  5
BD
330
1F
100
AcDbEntity
  8
0
  6
CONTINUOUS
 62
     7
100
AcDbPolyline
 90
        9
 70
     0
 43
0.0
 10
125.086880308978
 20
326.2687138563968
 10
125.3795157920022
 20
326.2907928501566
 10
125.6609054575256
 20
326.3561813480878
 10
125.9202356585074
 20
326.4623665068852
 10
126.1475404807578
 20
326.6052676904457
 10
126.3340847274318
 20
326.7793932864248
 10
126.4726996077449
 20
326.9780517458198
 10
126.5580582295828
 20
327.1936087354451
 10
126.586880308978
 20
327.4177805210753
  0
LWPOLYLINE
  5
BE
330
1F
100
AcDbEntity
  8
0
  6
CONTINUOUS
 62
     7
100
AcDbPolyline
 90
        9
 70
     0
 43
0.0
 10
126.586880308978
 20
485.9889802467037
 10
126.5580582295828
 20
486.2131520323338
 10
126.4726996077449
 20
486.4287090219592
 10
126.3340847274318
 20
486.6273674813542
 10
126.1475404807578
 20
486.8014930773332
 10
125.9202356585074
 20
486.9443942608937
 10
125.6609054575256
 20
487.0505794196911
 10
125.3795157920022
 20
487.1159679176224
 10
125.086880308978
 20
487.1380469113822
  0
LWPOLYLINE
  5
BF
330
1F
100
AcDbEntity
  8
0
  6
CONTINUOUS
 62
     7
100
AcDbPolyline
 90
        9
 70
     0
 43
0.0
 10
125.086880308978
 20
339.2106813668029
 10
125.3795157920022
 20
339.2292078423235
 10
125.6609054575256
 20
339.2840753068209
 10
125.9202356585074
 20
339.3731752344044
 10
126.1475404807578
 20
339.4930835648247
 10
126.3340847274318
 20
339.6391922881892
 10
126.4726996077449
 20
339.8058865281978
 10
126.5580582295828
 20
339.9867603186902
 10
126.586880308978
 20
340.1748627813328
  0
LWPOLYLINE
  5
C0
330
1F
100
AcDbEntity
  8
0
  6
CONTINUOUS
 62
     7
100
AcDbPolyline
 90
       33
 70
     0
 43
0.0
 10
-8.091343198851048
 20
317.6542199263587
 10
-8.086352078720717
 20
317.6265158367667
 10
-8.081360958590388
 20
317.5996934973875
 10
-8.076369838460057
 20
317.5737532953713
 10
-8.071378718329726
 20
317.5486951464842
 10
-8.066387598199396
 20
317.5245189175376
 10
-8.061396478069069
 20
317.501224475343
 10
-8.056405357938738
 20
317.4788116867116
 10
-8.051414237808407
 20
317.4572804184551
 10
-8.04642311767808
 20
317.4366305373846
 10
-8.041431997547749
 20
317.4168619103118
 10
-8.03644087741742
 20
317.3979744040479
 10
-8.03144975728709
 20
317.3799678854045
 10
-8.026458637156761
 20
317.362842221193
 10
-8.021467517026432
 20
317.3465972782247
 10
-8.016476396896103
 20
317.3312329233109
 10
-8.011485276765772
 20
317.3167490232632
 10
-8.006494156635442
 20
317.3031454448931
 10
-8.001503036505115
 20
317.2904220550119
 10
-7.996511916374785
 20
317.2785787204309
 10
-7.991520796244454
 20
317.2676153079617
 10
-7.986529676114124
 20
317.2575316844156
 10
-7.981538555983797
 20
317.2483277166041
 10
-7.976547435853463
 20
317.2400032713385
 10
-7.971556315723136
 20
317.2325582154303
 10
-7.966565195592804
 20
317.2259924156909
 10
-7.961574075462473
 20
317.2203057389318
 10
-7.956582955332141
 20
317.2154980519641
 10
-7.951591835201815
 20
317.2115692215997
 10
-7.946600715071481
 20
317.2085191146496
 10
-7.941609594941152
 20
317.2063475979255
 10
-7.936618474810818
 20
317.2050545382385
 10
-7.931627354680379
 20
317.2046398024003
210
0.0
220
0.0
230
-1.0
  0
LWPOLYLINE
  5
C1
330
1F
100
AcDbEntity
  8
0
  6
CONTINUOUS
 62
     7
100
AcDbPolyline
 90
        3
 70
     0
 43
0.0
 10
-51.64263562359967
 20
320.3843795212419
 10
-51.57658087062079
 20
320.2268354869208
 10
-51.53950041221418
 20
320.2033803839021
  0
LWPOLYLINE
  5
C2
330
1F
100
AcDbEntity
  8
0
  6
CONTINUOUS
 62
     7
100
AcDbPolyline
 90
        3
 70
     0
 43
0.0
 10
38.34774055625353
 20
320.4197558970087
 10
38.41549376383706
 20
320.2376134848772
 10
38.46023389376148
 20
320.2033803839735
  0
LWPOLYLINE
  5
C3
330
1F
100
AcDbEntity
  8
0
  6
CONTINUOUS
 62
     7
100
AcDbPolyline
 90
       33
 70
     0
 43
0.0
 10
69.13154792744756
 20
496.2020875553548
 10
69.12654701439331
 20
496.2016893019539
 10
69.12154610133908
 20
496.2004094181337
 10
69.11654518828485
 20
496.1982477787712
 10
69.1115442752306
 20
496.1952042587444
 10
69.10654336217638
 20
496.1912787329303
 10
69.10154244912212
 20
496.1864710762069
 10
69.0965415360679
 20
496.1807811634514
 10
69.09154062301367
 20
496.1742088695414
 10
69.08653970995941
 20
496.1667540693543
 10
69.08153879690519
 20
496.1584166377679
 10
69.07653788385096
 20
496.1491964496594
 10
69.07153697079671
 20
496.1390933799063
 10
69.06653605774248
 20
496.1281073033865
 10
69.06153514468824
 20
496.116238094977
 10
69.056534231634
 20
496.1034856295556
 10
69.05153331857977
 20
496.0898497819998
 10
69.04653240552554
 20
496.075330427187
 10
69.0415314924713
 20
496.0599274399947
 10
69.03653057941705
 20
496.0436406953006
 10
69.03152966636284
 20
496.0264700679822
 10
69.02652875330858
 20
496.0084154329167
 10
69.02152784025435
 20
495.9894766649819
 10
69.01652692720012
 20
495.969653639055
 10
69.01152601414589
 20
495.948946230014
 10
69.00652510109165
 20
495.927354312736
 10
69.0015241880374
 20
495.9048777620984
 10
68.99652327498316
 20
495.8815164529793
 10
68.99152236192893
 20
495.8572702602556
 10
68.9865214488747
 20
495.8321390588052
 10
68.98152053582044
 20
495.8061227235053
 10
68.97651962276623
 20
495.7792211292337
 10
68.97151870971197
 20
495.7514342052197
  0
ARC
  5
C4
330
1F
100
AcDbEntity
  8
0
  6
CONTINUOUS
 62
     7
100
AcDbCircle
 10
403.6019534467295
 20
452.0717029763568
 30
0.0
 40
1.50000000000001
100
AcDbArc
 50
207.8860525253903
 51
297.0000000000002
  0
LINE
  5
C5
330
1F
100
AcDbEntity
  8
0
  6
CONTINUOUS
 62
     7
100
AcDbLine
 10
-15.91311969102206
 20
409.8948516893665
 30
0.0
 11
-45.91311969102203
 21
409.8948516893665
 31
0.0
  0
LINE
  5
C6
330
1F
100
AcDbEntity
  8
0
  6
CONTINUOUS
 62
     7
100
AcDbLine
 10
8.460296064397257
 20
320.2033803838895
 30
0.0
 11
13.5200326703785
 21
320.2033803838895
 31
0.0
  0
ARC
  5
C7
330
1F
100
AcDbEntity
  8
0
  6
CONTINUOUS
 62
     7
100
AcDbCircle
 10
-46.02675520417235
 20
317.3017041686462
 30
0.0
 40
2.915790904698282
100
AcDbArc
 50
191.7109496806517
 51
272.2335225029317
  0
LINE
  5
C8
330
1F
100
AcDbEntity
  8
0
  6
CONTINUOUS
 62
     7
100
AcDbLine
 10
-45.91311969102203
 20
351.6398309208619
 30
0.0
 11
-15.91311969102206
 21
351.6398309208619
 31
0.0
  0
LINE
  5
C9
330
1F
100
AcDbEntity
  8
0
  6
CONTINUOUS
 62
     7
100
AcDbLine
 10
58.46025721637439
 20
320.2033803838895
 30
0.0
 11
63.51987154973661
 21
320.2033803838895
 31
0.0
  0
LINE
  5
CA
330
1F
100
AcDbEntity
  8
0
  6
CONTINUOUS
 62
     7
100
AcDbLine
 10
-15.91311969102206
 20
499.0187489896739
 30
0.0
 11
-45.91311969102203
 21
499.0187489896739
 31
0.0
  0
LINE
  5
CB
330
1F
100
AcDbEntity
  8
0
  6
CONTINUOUS
 62
     7
100
AcDbLine
 10
-149.413119691022
 20
310.2033803838895
 30
0.0
 11
-118.413119691022
 21
310.2033803838895
 31
0.0
  0
LINE
  5
CC
330
1F
100
AcDbEntity
  8
0
  6
CONTINUOUS
 62
     7
100
AcDbLine
 10
-130.913119691022
 20
421.7033803838896
 30
0.0
 11
-131.0006083545479
 21
422.7033803838896
 31
0.0
  0
LINE
  5
CD
330
1F
100
AcDbEntity
  8
0
  6
CONTINUOUS
 62
     7
100
AcDbLine
 10
-51.53951805313565
 20
320.2033803838895
 30
0.0
 11
-48.91311969102203
 21
320.2033803838895
 31
0.0
  0
LINE
  5
CE
330
1F
100
AcDbEntity
  8
0
  6
CONTINUOUS
 62
     7
100
AcDbLine
 10
-88.91311969102205
 20
320.2033803838895
 30
0.0
 11
-86.47998350047085
 21
320.2033803838895
 31
0.0
  0
ARC
  5
CF
330
1F
100
AcDbEntity
  8
0
  6
CONTINUOUS
 62
     7
100
AcDbCircle
 10
-45.91311969102203
 20
508.7033803838895
 30
0.0
 40
3.000000000000003
100
AcDbArc
 50
90.0
 51
179.9999999999996
  0
ARC
  5
D0
330
1F
100
AcDbEntity
  8
0
  6
CONTINUOUS
 62
     7
100
AcDbCircle
 10
-46.25849843574441
 20
376.8160776599926
 30
0.0
 40
33.07260429231569
100
AcDbArc
 50
89.40164663377863
 51
93.88697165884145
  0
ARC
  5
D1
330
1F
100
AcDbEntity
  8
0
  6
CONTINUOUS
 62
     7
100
AcDbCircle
 10
242.6040334766903
 20
467.8972564021306
 30
0.0
 40
1.499999999999971
100
AcDbArc
 50
320.8860525253855
 51
50.00000000000011
  0
LINE
  5
D2
330
1F
100
AcDbEntity
  8
0
  6
CONTINUOUS
 62
     7
100
AcDbLine
 10
-45.91311969102203
 20
314.3880117781051
 30
0.0
 11
-15.91311969102206
 21
314.3880117781051
 31
0.0
  0
LINE
  5
D3
330
1F
100
AcDbEntity
  8
0
  6
CONTINUOUS
 62
     7
100
AcDbLine
 10
-15.91311969102206
 20
461.7669298469172
 30
0.0
 11
-45.91311969102203
 21
461.7669298469172
 31
0.0
  0
LINE
  5
D4
330
1F
100
AcDbEntity
  8
0
  6
CONTINUOUS
 62
     7
100
AcDbLine
 10
28.46024909571389
 20
320.2033803838895
 30
0.0
 11
33.51994938666868
 21
320.2033803838895
 31
0.0
  0
ARC
  5
D5
330
1F
100
AcDbEntity
  8
0
  6
CONTINUOUS
 62
     7
100
AcDbCircle
 10
-46.30129946639823
 20
431.1513057460419
 30
0.0
 40
27.63415001357149
100
AcDbArc
 50
265.4464203463959
 51
270.804866236668
  0
ARC
  5
D6
330
1F
100
AcDbEntity
  8
0
  6
CONTINUOUS
 62
     7
100
AcDbCircle
 10
-46.01460493631309
 20
496.0948305372405
 30
0.0
 40
2.925562545740134
100
AcDbArc
 50
88.01205992092717
 51
169.8930234174304
  0
LINE
  5
D7
330
1F
100
AcDbEntity
  8
0
  6
CONTINUOUS
 62
     7
100
AcDbLine
 10
-88.91311969102205
 20
494.1229080604411
 30
0.0
 11
-112.913119691022
 21
494.1229080604411
 31
0.0
  0
ARC
  5
D8
330
1F
100
AcDbEntity
  8
0
  6
CONTINUOUS
 62
     7
100
AcDbCircle
 10
-149.413119691022
 20
312.2033803838895
 30
0.0
 40
2.000000000000002
100
AcDbArc
 50
180.0
 51
270.0
  0
ARC
  5
D9
330
1F
100
AcDbEntity
  8
0
  6
CONTINUOUS
 62
     7
100
AcDbCircle
 10
-47.63353688448871
 20
459.9444072587687
 30
0.0
 40
1.274165402171554
100
AcDbArc
 50
151.9868360133115
 51
171.8292335565818
  0
ARC
  5
DA
330
1F
100
AcDbEntity
  8
0
  6
CONTINUOUS
 62
     7
100
AcDbCircle
 10
125.086880308978
 20
510.2033803838896
 30
0.0
 40
1.500000000000001
100
AcDbArc
 50
0.0
 51
11.53702088495058
  0
LINE
  5
DB
330
1F
100
AcDbEntity
  8
0
  6
CONTINUOUS
 62
     7
100
AcDbLine
 10
-71.53952189738648
 20
320.2033803838895
 30
0.0
 11
-66.47990855205364
 21
320.2033803838895
 31
0.0
  0
LINE
  5
DC
330
1F
100
AcDbEntity
  8
0
  6
CONTINUOUS
 62
     7
100
AcDbLine
 10
-61.53950775398147
 20
320.2033803838895
 30
0.0
 11
-56.47988121910784
 21
320.2033803838895
 31
0.0
  0
ARC
  5
DD
330
1F
100
AcDbEntity
  8
0
  6
CONTINUOUS
 62
     7
100
AcDbCircle
 10
125.086880308978
 20
303.2033803838896
 30
0.0
 40
1.500000000000001
100
AcDbArc
 50
270.0000000000005
 51
0.0
  0
LINE
  5
DE
330
1F
100
AcDbEntity
  8
0
  6
CONTINUOUS
 62
     7
100
AcDbLine
 10
-114.913119691022
 20
312.2033803838895
 30
0.0
 11
-88.91311969102205
 21
312.2033803838895
 31
0.0
  0
LINE
  5
DF
330
1F
100
AcDbEntity
  8
0
  6
CONTINUOUS
 62
     7
100
AcDbLine
 10
-112.913119691022
 20
319.2838527073379
 30
0.0
 11
-88.91311969102205
 21
319.2838527073379
 31
0.0
  0
LINE
  5
E0
330
1F
100
AcDbEntity
  8
0
  6
CONTINUOUS
 62
     7
100
AcDbLine
 10
-139.8256310274961
 20
422.7033803838896
 30
0.0
 11
-139.913119691022
 21
421.7033803838896
 31
0.0
  0
LINE
  5
E1
330
1F
100
AcDbEntity
  8
0
  6
CONTINUOUS
 62
     7
100
AcDbLine
 10
319.3656408064845
 20
510.5033803838895
 30
0.0
 11
316.3656408064845
 21
510.5033803838895
 31
0.0
  0
LINE
  5
E2
330
1F
100
AcDbEntity
  8
0
  6
CONTINUOUS
 62
     7
100
AcDbLine
 10
-81.53955081723794
 20
320.2033803838895
 30
0.0
 11
-76.47994335310908
 21
320.2033803838895
 31
0.0
  0
LINE
  5
E3
330
1F
100
AcDbEntity
  8
0
  6
CONTINUOUS
 62
     7
100
AcDbLine
 10
-1.539674860221427
 20
320.2033803838895
 30
0.0
 11
3.520071098639624
 21
320.2033803838895
 31
0.0
  0
ARC
  5
E4
330
1F
100
AcDbEntity
  8
0
  6
CONTINUOUS
 62
     7
100
AcDbCircle
 10
317.8656408064845
 20
406.7033803838895
 30
0.0
 40
108.6288320671549
100
AcDbArc
 50
89.20880673134837
 51
90.79119326865163
  0
ARC
  5
E5
330
1F
100
AcDbEntity
  8
0
  6
CONTINUOUS
 62
     7
100
AcDbCircle
 10
379.0595168247256
 20
481.9649877136837
 30
0.0
 40
1.499999999999971
100
AcDbArc
 50
230.8860525253856
 51
320.0000000000001
  0
ARC
  5
E6
330
1F
100
AcDbEntity
  8
0
  6
CONTINUOUS
 62
     7
100
AcDbCircle
 10
256.6717647882434
 20
331.4417730540953
 30
0.0
 40
1.499999999999971
100
AcDbArc
 50
50.88605252538554
 51
140.0000000000001
  0
ARC
  5
E7
330
1F
100
AcDbEntity
  8
0
  6
CONTINUOUS
 62
     7
100
AcDbCircle
 10
232.1293281662395
 20
361.3350577914223
 30
0.0
 40
1.500000000000035
100
AcDbArc
 50
27.88605252539037
 51
117.0000000000002
  0
ARC
  5
E8
330
1F
100
AcDbEntity
  8
0
  6
CONTINUOUS
 62
     7
100
AcDbCircle
 10
393.1272481362786
 20
467.8972564021307
 30
0.0
 40
1.499999999999971
100
AcDbArc
 50
130.0000000000002
 51
219.113947474615
  0
ARC
  5
E9
330
1F
100
AcDbEntity
  8
0
  6
CONTINUOUS
 62
     7
100
AcDbCircle
 10
363.2339633989517
 20
320.9670677436446
 30
0.0
 40
1.500000000000035
100
AcDbArc
 50
117.8860525253904
 51
207.0000000000002
  0
ARC
  5
EA
330
1F
100
AcDbEntity
  8
0
  6
CONTINUOUS
 62
     7
100
AcDbCircle
 10
-46.2008321979544
 20
458.5165996020974
 30
0.0
 40
3.26296646862244
100
AcDbArc
 50
84.94136742076115
 51
141.6119601357731
  0
LINE
  5
EB
330
1F
100
AcDbEntity
  8
0
  6
CONTINUOUS
 62
     7
100
AcDbLine
 10
-88.91311969102205
 20
501.2033803838897
 30
0.0
 11
-114.913119691022
 21
501.2033803838897
 31
0.0
  0
ARC
  5
EC
330
1F
100
AcDbEntity
  8
0
  6
CONTINUOUS
 62
     7
100
AcDbCircle
 10
317.8656408064845
 20
406.7033803838895
 30
0.0
 40
95.49999999999994
100
AcDbArc
 50
320.886052525387
 51
332.113947474613
  0
ARC
  5
ED
330
1F
100
AcDbEntity
  8
0
  6
CONTINUOUS
 62
     7
100
AcDbCircle
 10
272.4973182140173
 20
320.9670677436446
 30
0.0
 40
1.500000000000035
100
AcDbArc
 50
332.9999999999997
 51
62.11394747460969
  0
ARC
  5
EE
330
1F
100
AcDbEntity
  8
0
  6
CONTINUOUS
 62
     7
100
AcDbCircle
 10
-113.0608744231338
 20
491.2575141127206
 30
0.0
 40
2.869200922991459
100
AcDbArc
 50
87.04814371905435
 51
172.9096512615238
  0
ARC
  5
EF
330
1F
100
AcDbEntity
  8
0
  6
CONTINUOUS
 62
     7
100
AcDbCircle
 10
-114.913119691022
 20
313.2033803838895
 30
0.0
 40
1.000000000000001
100
AcDbArc
 50
180.0
 51
270.0
  0
LINE
  5
F0
330
1F
100
AcDbEntity
  8
0
  6
CONTINUOUS
 62
     7
100
AcDbLine
 10
-45.91311969102203
 20
403.5119090784125
 30
0.0
 11
-15.91311969102206
 21
403.5119090784125
 31
0.0
  0
ARC
  5
F1
330
1F
100
AcDbEntity
  8
0
  6
CONTINUOUS
 62
     7
100
AcDbCircle
 10
-45.91311969102203
 20
304.7033803838896
 30
0.0
 40
3.000000000000003
100
AcDbArc
 50
180.0000000000002
 51
270.0
  0
LINE
  5
F2
330
1F
100
AcDbEntity
  8
0
  6
CONTINUOUS
 62
     7
100
AcDbLine
 10
48.46023638107873
 20
320.2033803838895
 30
0.0
 11
53.51988618240384
 21
320.2033803838895
 31
0.0
  0
LINE
  5
F3
330
1F
100
AcDbEntity
  8
0
  6
CONTINUOUS
 62
     7
100
AcDbLine
 10
319.3656408064845
 20
514.1080693545223
 30
0.0
 11
316.3656408064845
 21
514.1080693545223
 31
0.0
  0
ARC
  5
F4
330
1F
100
AcDbEntity
  8
0
  6
CONTINUOUS
 62
     7
100
AcDbCircle
 10
379.0595168247257
 20
331.4417730540954
 30
0.0
 40
1.499999999999963
100
AcDbArc
 50
40.00000000000023
 51
129.113947474615
  0
CIRCLE
  5
F5
330
1F
100
AcDbEntity
  8
0
  6
CONTINUOUS
 62
     7
100
AcDbCircle
 10
317.8859647247933
 20
407.7748668886468
 30
0.0
 40
108.9023827824557
  0
LINE
  5
F6
330
1F
100
AcDbEntity
  8
0
  6
CONTINUOUS
 62
     7
100
AcDbLine
 10
38.46024389492765
 20
320.2033803838895
 30
0.0
 11
43.51991632787706
 21
320.2033803838895
 31
0.0
  0
ARC
  5
F7
330
1F
100
AcDbEntity
  8
0
  6
CONTINUOUS
 62
     7
100
AcDbCircle
 10
317.8656408064845
 20
406.7033803838895
 30
0.0
 40
95.49999999999997
100
AcDbArc
 50
27.88605252538693
 51
39.11394747461306
  0
ARC
  5
F8
330
1F
100
AcDbEntity
  8
0
  6
CONTINUOUS
 62
     7
100
AcDbCircle
 10
-118.413119691022
 20
312.2033803838895
 30
0.0
 40
2.000000000000002
100
AcDbArc
 50
270.0
 51
0.0
  0
ARC
  5
F9
330
1F
100
AcDbEntity
  8
0
  6
CONTINUOUS
 62
     7
100
AcDbCircle
 10
-46.3443060468887
 20
354.4024714605314
 30
0.0
 40
2.796015144141399
100
AcDbArc
 50
204.8300041582517
 51
278.8712484557178
  0
LINE
  5
FA
330
1F
100
AcDbEntity
  8
0
  6
CONTINUOUS
 62
     7
100
AcDbLine
 10
-8.913119691022029
 20
320.2033803838895
 30
0.0
 11
-6.479896360994982
 21
320.2033803838895
 31
0.0
  0
ARC
  5
FB
330
1F
100
AcDbEntity
  8
0
  6
CONTINUOUS
 62
     7
100
AcDbCircle
 10
317.8656408064845
 20
406.7033803838895
 30
0.0
 40
95.49999999999997
100
AcDbArc
 50
117.8860525253869
 51
129.113947474613
  0
LINE
  5
FC
330
1F
100
AcDbEntity
  8
0
  6
CONTINUOUS
 62
     7
100
AcDbLine
 10
-115.913119691022
 20
321.948916216799
 30
0.0
 11
-115.9086913455283
 21
321.8039372470347
 31
0.0
  0
ARC
  5
FD
330
1F
100
AcDbEntity
  8
0
  6
CONTINUOUS
 62
     7
100
AcDbCircle
 10
-114.913119691022
 20
500.2033803838897
 30
0.0
 40
1.000000000000001
100
AcDbArc
 50
90.0
 51
180.0
  0
LINE
  5
FE
330
1F
100
AcDbEntity
  8
0
  6
CONTINUOUS
 62
     7
100
AcDbLine
 10
18.4602635332395
 20
320.2033803838895
 30
0.0
 11
23.51999095376374
 21
320.2033803838895
 31
0.0
  0
ARC
  5
FF
330
1F
100
AcDbEntity
  8
0
  6
CONTINUOUS
 62
     7
100
AcDbCircle
 10
-113.068314874646
 20
322.1398043255865
 30
0.0
 40
2.860165238372921
100
AcDbArc
 50
186.7437607950082
 51
273.1104490336743
  0
ARC
  5
100
330
1F
100
AcDbEntity
  8
0
  6
CONTINUOUS
 62
     7
100
AcDbCircle
 10
317.8656408064845
 20
406.7033803838895
 30
0.0
 40
95.49999999999996
100
AcDbArc
 50
140.8860525253871
 51
152.1139474746132
  0
ARC
  5
101
330
1F
100
AcDbEntity
  8
0
  6
CONTINUOUS
 62
     7
100
AcDbCircle
 10
393.1272481362787
 20
345.5095043656484
 30
0.0
 40
1.499999999999971
100
AcDbArc
 50
140.8860525253856
 51
230.0000000000001
  0
ARC
  5
102
330
1F
100
AcDbEntity
  8
0
  6
CONTINUOUS
 62
     7
100
AcDbCircle
 10
256.6717647882433
 20
481.9649877136837
 30
0.0
 40
1.500000000000006
100
AcDbArc
 50
220.0000000000002
 51
309.113947474615
  0
LINE
  5
103
330
1F
100
AcDbEntity
  8
0
  6
CONTINUOUS
 62
     7
100
AcDbLine
 10
361.8974536126692
 20
320.2860819940352
 30
0.0
 11
365.5346432791369
 21
313.1476953441109
 31
0.0
  0
LINE
  5
104
330
1F
100
AcDbEntity
  8
0
  6
CONTINUOUS
 62
     7
100
AcDbLine
 10
-115.413119691022
 20
408.7033803838895
 30
0.0
 11
-88.91311969102205
 21
408.7033803838895
 31
0.0
  0
LINE
  5
105
330
1F
100
AcDbEntity
  8
0
  6
CONTINUOUS
 62
     7
100
AcDbLine
 10
95.33758213913254
 20
496.2033803838896
 30
0.0
 11
79.086880308978
 21
496.2033803838896
 31
0.0
  0
LINE
  5
106
330
1F
100
AcDbEntity
  8
0
  6
CONTINUOUS
 62
     7
100
AcDbLine
 10
365.5346432791368
 20
500.2590654236682
 30
0.0
 11
361.8974536126691
 21
493.1206787737438
 31
0.0
  0
CIRCLE
  5
107
330
1F
100
AcDbEntity
  8
0
  6
CONTINUOUS
 62
     7
100
AcDbCircle
 10
317.8656408064845
 20
406.7033803838895
 30
0.0
 40
81.00000000000001
  0
LINE
  5
108
330
1F
100
AcDbEntity
  8
0
  6
CONTINUOUS
 62
     7
100
AcDbLine
 10
-10.91311969102206
 20
511.7033803838895
 30
0.0
 11
-10.91311969102206
 21
301.7033803838897
 31
0.0
  0
LINE
  5
109
330
1F
100
AcDbEntity
  8
0
  6
CONTINUOUS
 62
     7
100
AcDbLine
 10
-8.913119691022029
 20
511.7033803838895
 30
0.0
 11
-45.91311969102203
 21
511.7033803838895
 31
0.0
  0
LINE
  5
10A
330
1F
100
AcDbEntity
  8
0
  6
CONTINUOUS
 62
     7
100
AcDbLine
 10
-88.91311969102205
 20
501.2033803838897
 30
0.0
 11
-88.91311969102205
 21
312.2033803838896
 31
0.0
  0
ARC
  5
10B
330
1F
100
AcDbEntity
  8
0
  6
CONTINUOUS
 62
     7
100
AcDbCircle
 10
403.6019534467295
 20
361.3350577914223
 30
0.0
 40
1.499999999999986
100
AcDbArc
 50
62.99999999999962
 51
152.1139474746097
  0
LINE
  5
10C
330
1F
100
AcDbEntity
  8
0
  6
CONTINUOUS
 62
     7
100
AcDbLine
 10
319.3656408064845
 20
515.3218555907996
 30
0.0
 11
319.3656408064845
 21
510.5033803838895
 31
0.0
  0
CIRCLE
  5
10D
330
1F
100
AcDbEntity
  8
0
  6
CONTINUOUS
 62
     7
100
AcDbCircle
 10
317.8656408064845
 20
406.7033803838895
 30
0.0
 40
80.50000000000001
  0
LINE
  5
10E
330
1F
100
AcDbEntity
  8
0
  6
CONTINUOUS
 62
     7
100
AcDbLine
 10
-115.913119691022
 20
313.2033803838895
 30
0.0
 11
-115.913119691022
 21
491.45784455098
 31
0.0
  0
LINE
  5
10F
330
1F
100
AcDbEntity
  8
0
  6
CONTINUOUS
 62
     7
100
AcDbLine
 10
-48.91311969102209
 20
508.7033803838895
 30
0.0
 11
-48.91311969102209
 21
409.3411324290183
 31
0.0
  0
LINE
  5
110
330
1F
100
AcDbEntity
  8
0
  6
CONTINUOUS
 62
     7
100
AcDbLine
 10
250.3729417893979
 20
326.2687138563968
 30
0.0
 11
255.5226981235649
 21
332.4059544686251
 31
0.0
  0
LINE
  5
111
330
1F
100
AcDbEntity
  8
0
  6
CONTINUOUS
 62
     7
100
AcDbLine
 10
250.3729417893978
 20
487.1380469113822
 30
0.0
 11
255.522698123565
 21
481.000806299154
 31
0.0
  0
ARC
  5
112
330
1F
100
AcDbEntity
  8
0
  6
CONTINUOUS
 62
     7
100
AcDbCircle
 10
317.8656408064845
 20
406.7033803838895
 30
0.0
 40
105.0
100
AcDbArc
 50
90.81853897897315
 51
89.1814610210269
  0
LINE
  5
113
330
1F
100
AcDbEntity
  8
0
  6
CONTINUOUS
 62
     7
100
AcDbLine
 10
-151.413119691022
 20
312.2033803838895
 30
0.0
 11
-151.413119691022
 21
501.2033803838897
 31
0.0
  0
LINE
  5
114
330
1F
100
AcDbEntity
  8
0
  6
CONTINUOUS
 62
     7
100
AcDbLine
 10
-88.91311969102205
 20
404.7033803838895
 30
0.0
 11
-115.413119691022
 21
404.7033803838895
 31
0.0
  0
LINE
  5
115
330
1F
100
AcDbEntity
  8
0
  6
CONTINUOUS
 62
     7
100
AcDbLine
 10
316.3656408064845
 20
510.5033803838895
 30
0.0
 11
316.3656408064845
 21
515.3218555907996
 31
0.0
  0
LINE
  5
116
330
1F
100
AcDbEntity
  8
0
  6
CONTINUOUS
 62
     7
100
AcDbLine
 10
270.1966383338321
 20
500.2590654236682
 30
0.0
 11
273.8338280002998
 21
493.1206787737438
 31
0.0
  0
LINE
  5
117
330
1F
100
AcDbEntity
  8
0
  6
CONTINUOUS
 62
     7
100
AcDbLine
 10
-45.91311969102203
 20
301.7033803838896
 30
0.0
 11
-8.913119691022029
 21
301.7033803838896
 31
0.0
  0
LINE
  5
118
330
1F
100
AcDbEntity
  8
0
  6
CENTER
 62
     1
100
AcDbLine
 10
210.8656408064845
 20
406.7033803838895
 30
0.0
 11
424.8656408064845
 21
406.7033803838895
 31
0.0
  0
CIRCLE
  5
11A
330
1F
100
AcDbEntity
  8
0
  6
CONTINUOUS
 62
     7
100
AcDbCircle
 10
317.8656408064845
 20
406.7033803838895
 30
0.0
 40
72.8455169027708
  0
LINE
  5
11B
330
1F
100
AcDbEntity
  8
0
  6
CONTINUOUS
 62
     7
100
AcDbLine
 10
-115.9081338322015
 20
491.6116719786086
 30
0.0
 11
-115.913119691022
 21
491.45784455098
 31
0.0
  0
LINE
  5
11C
330
1F
100
AcDbEntity
  8
0
  6
CONTINUOUS
 62
     7
100
AcDbLine
 10
-116.413119691022
 20
501.2033803838897
 30
0.0
 11
-116.413119691022
 21
312.2033803838894
 31
0.0
  0
LINE
  5
11D
330
1F
100
AcDbEntity
  8
0
  6
CONTINUOUS
 62
     7
100
AcDbLine
 10
81.08688030897798
 20
438.78379931364
 30
0.0
 11
81.08688031884923
 21
436.7071903478982
 31
0.0
  0
LINE
  5
11E
330
1F
100
AcDbEntity
  8
0
  6
CONTINUOUS
 62
     7
100
AcDbLine
 10
-48.91309411672524
 20
407.5675588567086
 30
0.0
 11
-48.94564074482079
 21
409.333136383036
 31
0.0
  0
LINE
  5
11F
330
1F
100
AcDbEntity
  8
0
  6
CONTINUOUS
 62
     7
100
AcDbLine
 10
-88.83679657658533
 20
403.4149507418879
 30
0.0
 11
-88.91311313015086
 21
407.5678426482432
 31
0.0
  0
ARC
  5
120
330
1F
100
AcDbEntity
  8
0
  6
CONTINUOUS
 62
     7
100
AcDbCircle
 10
317.8656408064845
 20
406.7033803838895
 30
0.0
 40
95.49999999999997
100
AcDbArc
 50
207.8860525253869
 51
219.113947474613
  0
LINE
  5
121
330
1F
100
AcDbEntity
  8
0
  6
CONTINUOUS
 62
     7
100
AcDbLine
 10
398.3003073339771
 20
474.1960794009762
 30
0.0
 11
392.163066721749
 21
469.046323066809
 31
0.0
  0
LINE
  5
122
330
1F
100
AcDbEntity
  8
0
  6
CONTINUOUS
 62
     7
100
AcDbLine
 10
84.086880308978
 20
496.2033803838895
 30
0.0
 11
84.086880308978
 21
317.2033803838896
 31
0.0
  0
LINE
  5
123
330
1F
100
AcDbEntity
  8
0
  6
CONTINUOUS
 62
     7
100
AcDbLine
 10
119.086880308978
 20
511.6926655514722
 30
0.0
 11
119.086880308978
 21
301.7033803838897
 31
0.0
  0
CIRCLE
  5
124
330
1F
100
AcDbEntity
  8
0
  6
CONTINUOUS
 62
     7
100
AcDbCircle
 10
317.8656408064845
 20
406.7033803838895
 30
0.0
 40
62.5
  0
LINE
  5
125
330
1F
100
AcDbEntity
  8
0
  6
CONTINUOUS
 62
     7
100
AcDbLine
 10
126.586880308978
 20
510.2033803838896
 30
0.0
 11
126.586880308978
 21
303.2033803838895
 31
0.0
  0
LINE
  5
126
330
1F
100
AcDbEntity
  8
0
  6
CONTINUOUS
 62
     7
100
AcDbLine
 10
81.08733391665479
 20
436.707198988125
 30
0.0
 11
81.04777980533208
 21
438.7837704671107
 31
0.0
  0
LINE
  5
127
330
1F
100
AcDbEntity
  8
0
  6
CONTINUOUS
 62
     7
100
AcDbLine
 10
231.4483424166302
 20
362.6715675777048
 30
0.0
 11
224.3099557667059
 21
359.0343779112371
 31
0.0
  0
ARC
  5
128
330
1F
100
AcDbEntity
  8
0
  6
CONTINUOUS
 62
     7
100
AcDbCircle
 10
317.8656408064845
 20
406.7033803838895
 30
0.0
 40
95.49999999999994
100
AcDbArc
 50
50.88605252538696
 51
62.1139474746131
  0
LINE
  5
129
330
1F
100
AcDbEntity
  8
0
  6
CENTER
 62
     1
100
AcDbLine
 10
317.8656408064845
 20
299.7033803838896
 30
0.0
 11
317.8656408064845
 21
513.7033803838895
 31
0.0
  0
LINE
  5
12A
330
1F
100
AcDbEntity
  8
0
  6
CONTINUOUS
 62
     7
100
AcDbLine
 10
385.358339823571
 20
487.1380469113822
 30
0.0
 11
380.2085834894042
 21
481.0008062991538
 31
0.0
  0
ARC
  5
12B
330
1F
100
AcDbEntity
  8
0
  6
CONTINUOUS
 62
     7
100
AcDbCircle
 10
317.8656408064845
 20
406.7033803838895
 30
0.0
 40
95.49999999999994
100
AcDbArc
 50
230.8860525253872
 51
242.113947474613
  0
ARC
  5
12C
330
1F
100
AcDbEntity
  8
0
  6
CONTINUOUS
 62
     7
100
AcDbCircle
 10
232.1293281662395
 20
452.0717029763567
 30
0.0
 40
1.500000000000035
100
AcDbArc
 50
242.9999999999996
 51
332.1139474746099
  0
ARC
  5
12D
330
1F
100
AcDbEntity
  8
0
  6
CONTINUOUS
 62
     7
100
AcDbCircle
 10
363.2339633989517
 20
492.4396930241345
 30
0.0
 40
1.500000000000035
100
AcDbArc
 50
152.9999999999996
 51
242.1139474746097
  0
ARC
  5
12E
330
1F
100
AcDbEntity
  8
0
  6
CONTINUOUS
 62
     7
100
AcDbCircle
 10
317.8656408064845
 20
406.7033803838895
 30
0.0
 40
95.49999999999997
100
AcDbArc
 50
297.8860525253869
 51
309.1139474746131
  0
LINE
  5
12F
330
1F
100
AcDbEntity
  8
0
  6
CONTINUOUS
 62
     7
100
AcDbLine
 10
404.2829391963387
 20
362.6715675777048
 30
0.0
 11
411.4213258462631
 21
359.0343779112371
 31
0.0
  0
LINE
  5
130
330
1F
100
AcDbEntity
  8
0
  6
CENTER
 62
     1
100
AcDbLine
 10
-157.5
 20
406.7033803838895
 30
0.0
 11
142.4999999999999
 21
406.7033803838895
 31
0.0
  0
LINE
  5
131
330
1F
100
AcDbEntity
  8
0
  6
CONTINUOUS
 62
     7
100
AcDbLine
 10
273.8338280002998
 20
320.2860819940353
 30
0.0
 11
270.1966383338321
 21
313.1476953441109
 31
0.0
  0
ARC
  5
132
330
1F
100
AcDbEntity
  8
0
  6
CONTINUOUS
 62
     7
100
AcDbCircle
 10
242.6040334766903
 20
345.5095043656484
 30
0.0
 40
1.500000000000006
100
AcDbArc
 50
310.0000000000002
 51
39.11394747461497
  0
LINE
  5
133
330
1F
100
AcDbEntity
  8
0
  6
CONTINUOUS
 62
     7
100
AcDbLine
 10
404.2829391963387
 20
450.7351931900741
 30
0.0
 11
411.4213258462631
 21
454.3723828565419
 31
0.0
  0
LINE
  5
134
330
1F
100
AcDbEntity
  8
0
  6
CONTINUOUS
 62
     7
100
AcDbLine
 10
-48.91311969102196
 20
353.4553811577753
 30
0.0
 11
-48.91311969102281
 21
404.0701915202825
 31
0.0
  0
LINE
  5
135
330
1F
100
AcDbEntity
  8
0
  6
CONTINUOUS
 62
     7
100
AcDbLine
 10
79.086880308978
 20
317.2033803838895
 30
0.0
 11
99.086880308978
 21
317.2033803838895
 31
0.0
  0
LINE
  5
136
330
1F
100
AcDbEntity
  8
0
  6
CONTINUOUS
 62
     7
100
AcDbLine
 10
231.4483424166301
 20
450.735193190074
 30
0.0
 11
224.3099557667059
 21
454.3723828565419
 31
0.0
  0
ARC
  5
137
330
1F
100
AcDbEntity
  8
0
  6
CONTINUOUS
 62
     7
100
AcDbCircle
 10
272.4973182140172
 20
492.4396930241345
 30
0.0
 40
1.500000000000035
100
AcDbArc
 50
297.8860525253905
 51
27.00000000000023
  0
LINE
  5
138
330
1F
100
AcDbEntity
  8
0
  6
CONTINUOUS
 62
     7
100
AcDbLine
 10
-117.94466272995
 20
391.7033803838895
 30
0.0
 11
-149.913119691022
 21
391.7033803838895
 31
0.0
  0
LINE
  5
139
330
1F
100
AcDbEntity
  8
0
  6
CONTINUOUS
 62
     7
100
AcDbLine
 10
237.4309742789918
 20
474.1960794009761
 30
0.0
 11
243.5682148912202
 21
469.0463230668092
 31
0.0
  0
LINE
  5
13A
330
1F
100
AcDbEntity
  8
0
  6
CONTINUOUS
 62
     7
100
AcDbLine
 10
-151.413119691022
 20
406.7033803838895
 30
0.0
 11
-116.413119691022
 21
406.7033803838895
 31
0.0
  0
LINE
  5
13B
330
1F
100
AcDbEntity
  8
0
  6
CONTINUOUS
 62
     7
100
AcDbLine
 10
-48.91311969102209
 20
353.4479656245566
 30
0.0
 11
-48.91311969102209
 21
304.7033803838895
 31
0.0
  0
LINE
  5
13C
330
1F
100
AcDbEntity
  8
0
  6
CONTINUOUS
 62
     7
100
AcDbLine
 10
385.3583398235711
 20
326.2687138563968
 30
0.0
 11
380.2085834894042
 21
332.4059544686252
 31
0.0
  0
LINE
  5
13D
330
1F
100
AcDbEntity
  8
0
  6
CONTINUOUS
 62
     7
100
AcDbLine
 10
398.3003073339772
 20
339.2106813668029
 30
0.0
 11
392.1630667217489
 21
344.36043770097
 31
0.0
  0
LINE
  5
13E
330
1F
100
AcDbEntity
  8
0
  6
CONTINUOUS
 62
     7
100
AcDbLine
 10
237.4309742789918
 20
339.2106813668029
 30
0.0
 11
243.56821489122
 21
344.36043770097
 31
0.0
  0
LINE
  5
13F
330
1F
100
AcDbEntity
  8
0
  6
CONTINUOUS
 62
     7
100
AcDbLine
 10
-117.94466272995
 20
421.7033803838896
 30
0.0
 11
-149.913119691022
 21
421.7033803838896
 31
0.0
  0
LINE
  5
140
330
1F
100
AcDbEntity
  8
0
  6
CONTINUOUS
 62
     7
100
AcDbLine
 10
-134.913119691022
 20
424.7555081874081
 30
0.0
 11
-135.913119691022
 21
424.7555081874081
 31
0.0
  0
LINE
  5
141
330
1F
100
AcDbEntity
  8
0
  6
CONTINUOUS
 62
     7
100
AcDbLine
 10
-139.8256310274961
 20
422.7033803838896
 30
0.0
 11
-139.7972109645372
 21
422.7033803838896
 31
0.0
  0
LINE
  5
142
330
1F
100
AcDbEntity
  8
0
  6
CONTINUOUS
 62
     7
100
AcDbLine
 10
-131.0696684810846
 20
423.1648788520061
 30
0.0
 11
-131.0290284175069
 21
422.7033803838896
 31
0.0
  0
LINE
  5
143
330
1F
100
AcDbEntity
  8
0
  6
CONTINUOUS
 62
     7
100
AcDbLine
 10
-114.913119691022
 20
487.5244504086698
 30
0.0
 11
-115.413119691022
 21
487.4083989744312
 31
0.0
  0
ARC
  5
144
330
1F
100
AcDbEntity
  8
0
  6
CONTINUOUS
 62
     7
100
AcDbCircle
 10
-117.913119691022
 20
393.2033803838895
 30
0.0
 40
1.499999999999988
100
AcDbArc
 50
292.110810336801
 51
0.0
  0
LINE
  5
145
330
1F
100
AcDbEntity
  8
0
  6
CONTINUOUS
 62
     7
100
AcDbLine
 10
-135.913119691022
 20
424.9222729498958
 30
0.0
 11
-136.713119691022
 21
424.9222729498958
 31
0.0
  0
LINE
  5
146
330
1F
100
AcDbEntity
  8
0
  6
CONTINUOUS
 62
     7
100
AcDbLine
 10
-16.91311969102206
 20
451.9054086000421
 30
0.0
 11
-48.41311969102203
 21
451.9054086000421
 31
0.0
  0
LINE
  5
147
330
1F
100
AcDbEntity
  8
0
  6
CONTINUOUS
 62
     7
100
AcDbLine
 10
-61.02823037275688
 20
495.7515198057526
 30
0.0
 11
-61.47989387995644
 21
493.2033499151354
 31
0.0
  0
LINE
  5
148
330
1F
100
AcDbEntity
  8
0
  6
CONTINUOUS
 62
     7
100
AcDbLine
 10
8.97133148334836
 20
495.7492813477664
 30
0.0
 11
8.520057704795706
 21
493.2033793934677
 31
0.0
  0
ARC
  5
149
330
1F
100
AcDbEntity
  8
0
  6
CONTINUOUS
 62
     7
100
AcDbCircle
 10
-115.413119691022
 20
405.2033803838895
 30
0.0
 40
0.5000000000000004
100
AcDbArc
 50
180.0
 51
270.0
  0
LINE
  5
14A
330
1F
100
AcDbEntity
  8
0
  6
CONTINUOUS
 62
     7
100
AcDbLine
 10
-115.913119691022
 20
491.4852945923626
 30
0.0
 11
-115.913119691022
 21
500.2033803838897
 31
0.0
  0
LINE
  5
14B
330
1F
100
AcDbEntity
  8
0
  6
CONTINUOUS
 62
     7
100
AcDbLine
 10
-139.7972109645372
 20
422.7033803838896
 30
0.0
 11
-139.7565709009561
 21
423.1648788520063
 31
0.0
  0
LINE
  5
14C
330
1F
100
AcDbEntity
  8
0
  6
CONTINUOUS
 62
     7
100
AcDbLine
 10
18.97207263154553
 20
495.7536829090041
 30
0.0
 11
18.52001376724266
 21
493.2033503273732
 31
0.0
  0
LINE
  5
14D
330
1F
100
AcDbEntity
  8
0
  6
CONTINUOUS
 62
     7
100
AcDbLine
 10
28.97148772172631
 20
495.7506374048018
 30
0.0
 11
28.51996993631621
 21
493.2033500366701
 31
0.0
  0
LINE
  5
14E
330
1F
100
AcDbEntity
  8
0
  6
CONTINUOUS
 62
     7
100
AcDbLine
 10
-131.0290284175069
 20
422.7033803838896
 30
0.0
 11
-131.0006083545479
 21
422.7033803838896
 31
0.0
  0
LINE
  5
14F
330
1F
100
AcDbEntity
  8
0
  6
CONTINUOUS
 62
     7
100
AcDbLine
 10
-16.91311969102206
 20
361.5013521677369
 30
0.0
 11
-48.41311969102203
 21
361.5013521677369
 31
0.0
  0
LINE
  5
150
330
1F
100
AcDbEntity
  8
0
  6
CONTINUOUS
 62
     7
100
AcDbLine
 10
-15.91311969102206
 20
314.4487037943453
 30
0.0
 11
-15.91311969102206
 21
301.7382123726472
 31
0.0
  0
LINE
  5
151
330
1F
100
AcDbEntity
  8
0
  6
CONTINUOUS
 62
     7
100
AcDbLine
 10
-16.91311969102206
 20
325.4947428968133
 30
0.0
 11
-48.41311969102203
 21
325.4947428968133
 31
0.0
  0
LINE
  5
152
330
1F
100
AcDbEntity
  8
0
  6
CONTINUOUS
 62
     7
100
AcDbLine
 10
-45.91311969102203
 20
499.0186323260735
 30
0.0
 11
-45.91311969102203
 21
499.0187489896739
 31
0.0
  0
LINE
  5
153
330
1F
100
AcDbEntity
  8
0
  6
CONTINUOUS
 62
     7
100
AcDbLine
 10
-48.89476507819519
 20
496.6082513033246
 30
0.0
 11
-48.91311969102203
 21
496.3164963177978
 31
0.0
  0
LINE
  5
154
330
1F
100
AcDbEntity
  8
0
  6
CONTINUOUS
 62
     7
100
AcDbLine
 10
-115.913119691022
 20
414.2033803838895
 30
0.0
 11
-116.4131196910219
 21
414.2033803838895
 31
0.0
  0
LINE
  5
155
330
1F
100
AcDbEntity
  8
0
  6
CONTINUOUS
 62
     7
100
AcDbLine
 10
99.08688030897798
 20
317.7033803838895
 30
0.0
 11
101.086880308978
 21
315.7033803838895
 31
0.0
  0
LINE
  5
156
330
1F
100
AcDbEntity
  8
0
  6
CONTINUOUS
 62
     7
100
AcDbLine
 10
-45.91311969102203
 20
403.5119090784125
 30
0.0
 11
-45.91311969102203
 21
403.5198822692478
 31
0.0
  0
LINE
  5
157
330
1F
100
AcDbEntity
  8
0
  6
CONTINUOUS
 62
     7
100
AcDbLine
 10
-15.91311969102206
 20
403.9990312252763
 30
0.0
 11
-15.91311969102206
 21
356.5628314503306
 31
0.0
  0
LINE
  5
158
330
1F
100
AcDbEntity
  8
0
  6
CONTINUOUS
 62
     7
100
AcDbLine
 10
38.97134182743081
 20
495.7500510116316
 30
0.0
 11
38.51993003124648
 21
493.2033500500467
 31
0.0
  0
LINE
  5
159
330
1F
100
AcDbEntity
  8
0
  6
CONTINUOUS
 62
     7
100
AcDbLine
 10
-114.913119691022
 20
487.5244504086698
 30
0.0
 11
-88.91311969102205
 21
487.5244504086698
 31
0.0
  0
LINE
  5
15A
330
1F
100
AcDbEntity
  8
0
  6
CONTINUOUS
 62
     7
100
AcDbLine
 10
-51.02830968070811
 20
495.7509281003486
 30
0.0
 11
-51.47987089894747
 21
493.2033498796532
 31
0.0
  0
LINE
  5
15B
330
1F
100
AcDbEntity
  8
0
  6
CONTINUOUS
 62
     7
100
AcDbLine
 10
-115.913119691022
 20
399.2033803838895
 30
0.0
 11
-116.4131196910219
 21
399.2033803838895
 31
0.0
  0
LINE
  5
15C
330
1F
100
AcDbEntity
  8
0
  6
CONTINUOUS
 62
     7
100
AcDbLine
 10
-48.91311969102203
 20
317.0902644499812
 30
0.0
 11
-48.88176842679785
 21
316.7093731660188
 31
0.0
  0
LINE
  5
15D
330
1F
100
AcDbEntity
  8
0
  6
CONTINUOUS
 62
     7
100
AcDbLine
 10
-135.913119691022
 20
424.7555081874081
 30
0.0
 11
-135.913119691022
 21
424.9222729498958
 31
0.0
  0
ARC
  5
15E
330
1F
100
AcDbEntity
  8
0
  6
CONTINUOUS
 62
     7
100
AcDbCircle
 10
-138.1613761372709
 20
423.0211770514774
 30
0.0
 40
1.601654314002775
100
AcDbArc
 50
105.1338890763707
 51
174.85245148983
  0
LINE
  5
15F
330
1F
100
AcDbEntity
  8
0
  6
CONTINUOUS
 62
     7
100
AcDbLine
 10
-16.91311969102206
 20
502.1588383087956
 30
0.0
 11
-48.41311969102203
 21
502.1588383087956
 31
0.0
  0
LINE
  5
160
330
1F
100
AcDbEntity
  8
0
  6
CONTINUOUS
 62
     7
100
AcDbLine
 10
-15.91311969102206
 20
511.6685483951318
 30
0.0
 11
-15.91311969102206
 21
498.9580569734337
 31
0.0
  0
LINE
  5
161
330
1F
100
AcDbEntity
  8
0
  6
CONTINUOUS
 62
     7
100
AcDbLine
 10
-118.413119691022
 20
503.2033803838897
 30
0.0
 11
-149.413119691022
 21
503.2033803838897
 31
0.0
  0
LINE
  5
162
330
1F
100
AcDbEntity
  8
0
  6
CONTINUOUS
 62
     7
100
AcDbLine
 10
105.0744983339374
 20
298.8784592145423
 30
0.0
 11
119.086880308978
 21
301.7033803838896
 31
0.0
  0
LINE
  5
163
330
1F
100
AcDbEntity
  8
0
  6
CONTINUOUS
 62
     7
100
AcDbLine
 10
-48.91311969102203
 20
409.3185045109997
 30
0.0
 11
-48.91311969102203
 21
404.0882562567797
 31
0.0
  0
ARC
  5
164
330
1F
100
AcDbEntity
  8
0
  6
CONTINUOUS
 62
     7
100
AcDbCircle
 10
-118.413119691022
 20
501.2033803838897
 30
0.0
 40
2.000000000000002
100
AcDbArc
 50
0.0
 51
90.0
  0
LINE
  5
165
330
1F
100
AcDbEntity
  8
0
  6
CONTINUOUS
 62
     7
100
AcDbLine
 10
101.086880308978
 20
515.3322124510444
 30
0.0
 11
94.2912641657744
 21
516.7022207719629
 31
0.0
  0
ARC
  5
166
330
1F
100
AcDbEntity
  8
0
  6
CONTINUOUS
 62
     7
100
AcDbCircle
 10
-114.6355220537822
 20
485.7717082685774
 30
0.0
 40
1.812019467905694
100
AcDbArc
 50
115.4125607667428
 51
127.6611980634889
  0
LINE
  5
167
330
1F
100
AcDbEntity
  8
0
  6
CONTINUOUS
 62
     7
100
AcDbLine
 10
-1.028642031724938
 20
495.7492310042451
 30
0.0
 11
-1.479911825631466
 21
493.2033498566075
 31
0.0
  0
ARC
  5
168
330
1F
100
AcDbEntity
  8
0
  6
CONTINUOUS
 62
     7
100
AcDbCircle
 10
-115.413119691022
 20
408.2033803838895
 30
0.0
 40
0.5000000000000004
100
AcDbArc
 50
90.0
 51
180.0
  0
ARC
  5
169
330
1F
100
AcDbEntity
  8
0
  6
CONTINUOUS
 62
     7
100
AcDbCircle
 10
-132.6648314113307
 20
423.0212037693705
 30
0.0
 40
1.601620211973308
100
AcDbArc
 50
5.146698742664512
 51
74.86696069128845
  0
LINE
  5
16A
330
1F
100
AcDbEntity
  8
0
  6
CONTINUOUS
 62
     7
100
AcDbLine
 10
-115.913119691022
 20
417.2033803838895
 30
0.0
 11
-116.4131196910219
 21
417.2033803838895
 31
0.0
  0
LINE
  5
16B
330
1F
100
AcDbEntity
  8
0
  6
CONTINUOUS
 62
     7
100
AcDbLine
 10
-48.89476724340637
 20
460.1255005541584
 30
0.0
 11
-48.91224434320239
 21
459.9894622171115
 31
0.0
  0
LINE
  5
16C
330
1F
100
AcDbEntity
  8
0
  6
CONTINUOUS
 62
     7
100
AcDbLine
 10
-134.913119691022
 20
424.9222729498958
 30
0.0
 11
-134.913119691022
 21
424.755508187408
 31
0.0
  0
LINE
  5
16D
330
1F
100
AcDbEntity
  8
0
  6
CONTINUOUS
 62
     7
100
AcDbLine
 10
101.086880308978
 20
315.7033803838895
 30
0.0
 11
104.2705299675977
 21
315.7033803838895
 31
0.0
  0
LINE
  5
16E
330
1F
100
AcDbEntity
  8
0
  6
CONTINUOUS
 62
     7
100
AcDbLine
 10
-16.91311969102206
 20
311.2479224589835
 30
0.0
 11
-48.41311969102203
 21
311.2479224589835
 31
0.0
  0
LINE
  5
16F
330
1F
100
AcDbEntity
  8
0
  6
CONTINUOUS
 62
     7
100
AcDbLine
 10
-15.91311969102206
 20
456.8439293174486
 30
0.0
 11
-15.91311969102206
 21
409.4077295425028
 31
0.0
  0
LINE
  5
170
330
1F
100
AcDbEntity
  8
0
  6
CONTINUOUS
 62
     7
100
AcDbLine
 10
-114.913119691022
 20
325.8823103591092
 30
0.0
 11
-88.91311969102205
 21
325.8823103591092
 31
0.0
  0
LINE
  5
171
330
1F
100
AcDbEntity
  8
0
  6
CONTINUOUS
 62
     7
100
AcDbLine
 10
-45.91311969102203
 20
409.8868784279136
 30
0.0
 11
-45.91311969102203
 21
409.8948516893665
 31
0.0
  0
LINE
  5
172
330
1F
100
AcDbEntity
  8
0
  6
CONTINUOUS
 62
     7
100
AcDbLine
 10
-48.91311969102203
 20
404.0882562567793
 30
0.0
 11
-48.90078343210639
 21
404.0801778257164
 31
0.0
  0
LINE
  5
173
330
1F
100
AcDbEntity
  8
0
  6
CONTINUOUS
 62
     7
100
AcDbLine
 10
-15.91311969102206
 20
496.2537078148203
 30
0.0
 11
-15.91311969102206
 21
461.5279994615728
 31
0.0
  0
LINE
  5
174
330
1F
100
AcDbEntity
  8
0
  6
CONTINUOUS
 62
     7
100
AcDbLine
 10
-45.91311969102203
 20
314.3880117781051
 30
0.0
 11
-45.91311969102203
 21
314.3881284330605
 31
0.0
  0
LINE
  5
175
330
1F
100
AcDbEntity
  8
0
  6
CONTINUOUS
 62
     7
100
AcDbLine
 10
-81.02818682257636
 20
495.7521816356403
 30
0.0
 11
-81.47996309022241
 21
493.2033499767774
 31
0.0
  0
LINE
  5
176
330
1F
100
AcDbEntity
  8
0
  6
CONTINUOUS
 62
     7
100
AcDbLine
 10
-16.91311969102206
 20
487.9120178709657
 30
0.0
 11
-48.41311969102203
 21
487.9120178709658
 31
0.0
  0
LINE
  5
177
330
1F
100
AcDbEntity
  8
0
  6
CONTINUOUS
 62
     7
100
AcDbLine
 10
-15.91311969102206
 20
351.8787613062062
 30
0.0
 11
-15.91311969102206
 21
317.1530529529588
 31
0.0
  0
ARC
  5
178
330
1F
100
AcDbEntity
  8
0
  6
CONTINUOUS
 62
     7
100
AcDbCircle
 10
-135.413119691022
 20
413.0033803838895
 30
0.0
 40
11.98957880828182
100
AcDbArc
 50
96.22467549480064
 51
105.3132903196987
  0
LINE
  5
179
330
1F
100
AcDbEntity
  8
0
  6
CONTINUOUS
 62
     7
100
AcDbLine
 10
-134.113119691022
 20
424.9222729498958
 30
0.0
 11
-134.913119691022
 21
424.9222729498958
 31
0.0
  0
LINE
  5
17A
330
1F
100
AcDbEntity
  8
0
  6
CONTINUOUS
 62
     7
100
AcDbLine
 10
-115.913119691022
 20
396.2033803838895
 30
0.0
 11
-116.4131196910219
 21
396.2033803838895
 31
0.0
  0
ARC
  5
17B
330
1F
100
AcDbEntity
  8
0
  6
CONTINUOUS
 62
     7
100
AcDbCircle
 10
-149.913119691022
 20
393.2033803838895
 30
0.0
 40
1.500000000000001
100
AcDbArc
 50
180.0
 51
270.0
  0
LINE
  5
17C
330
1F
100
AcDbEntity
  8
0
  6
CONTINUOUS
 62
     7
100
AcDbLine
 10
-114.913119691022
 20
325.8823103591092
 30
0.0
 11
-115.4131196910215
 21
325.9983617933476
 31
0.0
  0
ARC
  5
17D
330
1F
100
AcDbEntity
  8
0
  6
CONTINUOUS
 62
     7
100
AcDbCircle
 10
-135.413119691022
 20
413.0033803838895
 30
0.0
 40
11.98957880828182
100
AcDbArc
 50
74.6867096803013
 51
83.77532450519914
  0
LINE
  5
17E
330
1F
100
AcDbEntity
  8
0
  6
CONTINUOUS
 62
     7
100
AcDbLine
 10
-65.86872532634912
 20
317.2033846793341
 30
0.0
 11
-62.06872532635906
 21
317.2033934083867
 31
0.0
  0
LINE
  5
17F
330
1F
100
AcDbEntity
  8
0
  6
CONTINUOUS
 62
     7
100
AcDbLine
 10
74.13138798577975
 20
317.2045762126207
 30
0.0
 11
77.93138798576977
 21
317.2045849415568
 31
0.0
  0
LINE
  5
180
330
1F
100
AcDbEntity
  8
0
  6
CONTINUOUS
 62
     7
100
AcDbLine
 10
34.13143612711139
 20
317.2049692198655
 30
0.0
 11
37.93143612710136
 21
317.2049779487635
 31
0.0
  0
LINE
  5
181
330
1F
100
AcDbEntity
  8
0
  6
CONTINUOUS
 62
     7
100
AcDbLine
 10
78.0916027498456
 20
317.6569337024226
 30
0.0
 11
78.54296631275027
 21
320.2034108411562
 31
0.0
  0
LINE
  5
182
330
1F
100
AcDbEntity
  8
0
  6
CONTINUOUS
 62
     7
100
AcDbLine
 10
38.09154114292426
 20
317.6556676383949
 30
0.0
 11
38.54312515740403
 21
320.2034106700666
 31
0.0
  0
LINE
  5
183
330
1F
100
AcDbEntity
  8
0
  6
CONTINUOUS
 62
     7
100
AcDbLine
 10
-66.3705923390437
 20
492.7155055391376
 30
0.0
 11
-66.90851771299143
 21
495.7503222760554
 31
0.0
  0
LINE
  5
184
330
1F
100
AcDbEntity
  8
0
  6
CONTINUOUS
 62
     7
100
AcDbLine
 10
-51.39742534815537
 20
493.2033803838896
 30
0.0
 11
-56.45705101323205
 21
493.2033803838896
 31
0.0
  0
LINE
  5
185
330
1F
100
AcDbEntity
  8
0
  6
CONTINUOUS
 62
     7
100
AcDbLine
 10
28.60279677534415
 20
493.2033803838896
 30
0.0
 11
23.54316363401974
 21
493.2033803838896
 31
0.0
  0
LINE
  5
186
330
1F
100
AcDbEntity
  8
0
  6
CONTINUOUS
 62
     7
100
AcDbLine
 10
-61.90867554443645
 20
317.6554745666301
 30
0.0
 11
-61.45706487950543
 21
320.2034108735169
 31
0.0
  0
LINE
  5
187
330
1F
100
AcDbEntity
  8
0
  6
CONTINUOUS
 62
     7
100
AcDbLine
 10
23.62849567061629
 20
492.7220057515919
 30
0.0
 11
23.09057960032847
 21
495.7567614941961
 31
0.0
  0
LINE
  5
188
330
1F
100
AcDbEntity
  8
0
  6
CONTINUOUS
 62
     7
100
AcDbLine
 10
-48.91311969102203
 20
353.455381157775
 30
0.0
 11
-48.88183442560535
 21
353.2282878125057
 31
0.0
  0
LINE
  5
189
330
1F
100
AcDbEntity
  8
0
  6
CONTINUOUS
 62
     7
100
AcDbLine
 10
-48.91311969102209
 20
496.2033073443901
 30
0.0
 11
-50.86831388735254
 21
496.2033118357008
 31
0.0
  0
LINE
  5
18A
330
1F
100
AcDbEntity
  8
0
  6
CONTINUOUS
 62
     7
100
AcDbLine
 10
14.13142382243419
 20
317.2048003601774
 30
0.0
 11
17.93142382242419
 21
317.2048090890919
 31
0.0
  0
LINE
  5
18B
330
1F
100
AcDbEntity
  8
0
  6
CONTINUOUS
 62
     7
100
AcDbLine
 10
-81.90868682188413
 20
317.6556179322938
 30
0.0
 11
-81.45709644854044
 21
320.203410857487
 31
0.0
  0
LINE
  5
18C
330
1F
100
AcDbEntity
  8
0
  6
CONTINUOUS
 62
     7
100
AcDbLine
 10
-66.56595040152672
 20
320.6887503746532
 30
0.0
 11
-66.02797551792915
 21
317.6537133525337
 31
0.0
  0
LINE
  5
18D
330
1F
100
AcDbEntity
  8
0
  6
CONTINUOUS
 62
     7
100
AcDbLine
 10
73.43346546970872
 20
320.6908450062979
 30
0.0
 11
73.97136782805036
 21
317.6562009866456
 31
0.0
  0
LINE
  5
18E
330
1F
100
AcDbEntity
  8
0
  6
CONTINUOUS
 62
     7
100
AcDbLine
 10
54.1314255699586
 20
317.2048879547837
 30
0.0
 11
57.93142556994857
 21
317.2048966836898
 31
0.0
  0
LINE
  5
18F
330
1F
100
AcDbEntity
  8
0
  6
CONTINUOUS
 62
     7
100
AcDbLine
 10
-56.37076877284373
 20
492.7166421514153
 30
0.0
 11
-56.90871330880302
 21
495.7515846795794
 31
0.0
  0
LINE
  5
190
330
1F
100
AcDbEntity
  8
0
  6
CONTINUOUS
 62
     7
100
AcDbLine
 10
48.09087874638572
 20
317.6521747493383
 30
0.0
 11
48.54308414989971
 21
320.2034103307623
 31
0.0
  0
LINE
  5
191
330
1F
100
AcDbEntity
  8
0
  6
CONTINUOUS
 62
     7
100
AcDbLine
 10
28.09163543279105
 20
317.6560080303081
 30
0.0
 11
28.54315092202146
 21
320.2033815720275
 31
0.0
  0
LINE
  5
192
330
1F
100
AcDbEntity
  8
0
  6
CONTINUOUS
 62
     7
100
AcDbLine
 10
8.091318315393004
 20
317.6540796203768
 30
0.0
 11
8.543172874025535
 21
320.2034105335642
 31
0.0
  0
LINE
  5
193
330
1F
100
AcDbEntity
  8
0
  6
CONTINUOUS
 62
     7
100
AcDbLine
 10
-75.86842523467229
 20
317.203478600813
 30
0.0
 11
-72.06842523468228
 21
317.2034873298564
 31
0.0
  0
LINE
  5
194
330
1F
100
AcDbEntity
  8
0
  6
CONTINUOUS
 62
     7
100
AcDbLine
 10
-6.566289969877389
 20
320.6907208101267
 30
0.0
 11
-6.028312923444953
 21
317.6557581722842
 31
0.0
  0
LINE
  5
195
330
1F
100
AcDbEntity
  8
0
  6
CONTINUOUS
 62
     7
100
AcDbLine
 10
-76.37063783566119
 20
492.7156755621868
 30
0.0
 11
-76.90857066690502
 21
495.750517263042
 31
0.0
  0
LINE
  5
196
330
1F
100
AcDbEntity
  8
0
  6
CONTINUOUS
 62
     7
100
AcDbLine
 10
-57.06855383465338
 20
496.2033746223398
 30
0.0
 11
-60.8685538346435
 21
496.2033833513931
 31
0.0
  0
LINE
  5
197
330
1F
100
AcDbEntity
  8
0
  6
CONTINUOUS
 62
     7
100
AcDbLine
 10
-51.90873763721478
 20
317.6549424485202
 30
0.0
 11
-51.45703515261864
 21
320.2034108298
 31
0.0
  0
LINE
  5
198
330
1F
100
AcDbEntity
  8
0
  6
CONTINUOUS
 62
     7
100
AcDbLine
 10
-81.39741418797074
 20
493.2033803838896
 30
0.0
 11
-86.45709768996949
 21
493.2033803838896
 31
0.0
  0
LINE
  5
199
330
1F
100
AcDbEntity
  8
0
  6
CONTINUOUS
 62
     7
100
AcDbLine
 10
53.62955118866596
 20
492.7155073430417
 30
0.0
 11
53.09166265581568
 21
495.7500551926114
 31
0.0
  0
LINE
  5
19A
330
1F
100
AcDbEntity
  8
0
  6
CONTINUOUS
 62
     7
100
AcDbLine
 10
-71.397441582276
 20
493.2033803838896
 30
0.0
 11
-76.4570924172907
 21
493.2033803838896
 31
0.0
  0
LINE
  5
19B
330
1F
100
AcDbEntity
  8
0
  6
CONTINUOUS
 62
     7
100
AcDbLine
 10
68.97152948155743
 20
495.7514950088102
 30
0.0
 11
68.51987231654688
 21
493.2033501725959
 31
0.0
  0
LINE
  5
19C
330
1F
100
AcDbEntity
  8
0
  6
CONTINUOUS
 62
     7
100
AcDbLine
 10
72.93154792188258
 20
496.2020788264751
 30
0.0
 11
69.13154792189262
 21
496.202087555402
 31
0.0
  0
ARC
  5
19D
330
1F
100
AcDbEntity
  8
0
  6
CONTINUOUS
 62
     7
100
AcDbCircle
 10
-48.4230101231038
 20
486.6301930052875
 30
0.0
 40
1.281863021901303
100
AcDbArc
 50
89.5579202856527
 51
104.7576475253146
  0
ARC
  5
19E
330
1F
100
AcDbEntity
  8
0
  6
CONTINUOUS
 62
     7
100
AcDbCircle
 10
-149.413119691022
 20
501.2033803838897
 30
0.0
 40
2.000000000000002
100
AcDbArc
 50
90.0
 51
180.0
  0
LINE
  5
19F
330
1F
100
AcDbEntity
  8
0
  6
CONTINUOUS
 62
     7
100
AcDbLine
 10
58.97162296270196
 20
495.7519782648379
 30
0.0
 11
58.51987590852136
 21
493.2033502248581
 31
0.0
  0
LINE
  5
1A0
330
1F
100
AcDbEntity
  8
0
  6
CONTINUOUS
 62
     7
100
AcDbLine
 10
44.13150859720849
 20
317.2049600599498
 30
0.0
 11
47.93150859719844
 21
317.2049687888488
 31
0.0
  0
LINE
  5
1A1
330
1F
100
AcDbEntity
  8
0
  6
CONTINUOUS
 62
     7
100
AcDbLine
 10
-61.39744378788524
 20
493.2033803838896
 30
0.0
 11
-66.4570765816878
 21
493.2033803838896
 31
0.0
  0
LINE
  5
1A2
330
1F
100
AcDbEntity
  8
0
  6
CONTINUOUS
 62
     7
100
AcDbLine
 10
18.60279280649297
 20
493.2033803838896
 30
0.0
 11
13.54317469827916
 21
493.2033803838896
 31
0.0
  0
LINE
  5
1A3
330
1F
100
AcDbEntity
  8
0
  6
CONTINUOUS
 62
     7
100
AcDbLine
 10
38.60280244555712
 20
493.2033803838896
 30
0.0
 11
33.54314196136378
 21
493.2033803838896
 31
0.0
  0
LINE
  5
1A4
330
1F
100
AcDbEntity
  8
0
  6
CONTINUOUS
 62
     7
100
AcDbLine
 10
-5.868302674796335
 20
317.2044208998581
 30
0.0
 11
-2.068302674806358
 21
317.2044296288096
 31
0.0
  0
LINE
  5
1A5
330
1F
100
AcDbEntity
  8
0
  6
CONTINUOUS
 62
     7
100
AcDbLine
 10
12.93135357807108
 20
496.2020285710062
 30
0.0
 11
9.13135357808116
 21
496.2020372999283
 31
0.0
  0
LINE
  5
1A6
330
1F
100
AcDbEntity
  8
0
  6
CONTINUOUS
 62
     7
100
AcDbLine
 10
119.086880308978
 20
301.7033803838896
 30
0.0
 11
125.086880308978
 21
301.7033803838896
 31
0.0
  0
LINE
  5
1A7
330
1F
100
AcDbEntity
  8
0
  6
CONTINUOUS
 62
     7
100
AcDbLine
 10
23.43349183714077
 20
320.6913162966299
 30
0.0
 11
23.97143852690518
 21
317.6565231773869
 31
0.0
  0
LINE
  5
1A8
330
1F
100
AcDbEntity
  8
0
  6
CONTINUOUS
 62
     7
100
AcDbLine
 10
43.43454781384326
 20
320.684943730169
 30
0.0
 11
43.97247753453608
 21
317.6502182714432
 31
0.0
  0
LINE
  5
1A9
330
1F
100
AcDbEntity
  8
0
  6
CONTINUOUS
 62
     7
100
AcDbLine
 10
-1.397270352200261
 20
493.2033803838896
 30
0.0
 11
-6.456860745058288
 21
493.2033803838896
 31
0.0
  0
LINE
  5
1AA
330
1F
100
AcDbEntity
  8
0
  6
CONTINUOUS
 62
     7
100
AcDbLine
 10
-67.06817036845196
 20
496.2033300427111
 30
0.0
 11
-70.86817036844162
 21
496.2033387717601
 31
0.0
  0
LINE
  5
1AB
330
1F
100
AcDbEntity
  8
0
  6
CONTINUOUS
 62
     7
100
AcDbLine
 10
-76.56581871497735
 20
320.6878138218783
 30
0.0
 11
-76.02788221222214
 21
317.6529773658095
 31
0.0
  0
LINE
  5
1AC
330
1F
100
AcDbEntity
  8
0
  6
CONTINUOUS
 62
     7
100
AcDbLine
 10
73.62936511765916
 20
492.7160973620743
 30
0.0
 11
73.0914006259048
 21
495.7510652189332
 31
0.0
  0
LINE
  5
1AD
330
1F
100
AcDbEntity
  8
0
  6
CONTINUOUS
 62
     7
100
AcDbLine
 10
-71.90890814683902
 20
317.6542957728643
 30
0.0
 11
-71.45708597205626
 21
320.2034107360299
 31
0.0
  0
LINE
  5
1AE
330
1F
100
AcDbEntity
  8
0
  6
CONTINUOUS
 62
     7
100
AcDbLine
 10
53.43420636564765
 20
320.6867028222209
 30
0.0
 11
53.97218417654974
 21
317.6516861783503
 31
0.0
  0
LINE
  5
1AF
330
1F
100
AcDbEntity
  8
0
  6
CONTINUOUS
 62
     7
100
AcDbLine
 10
33.43335089985962
 20
320.6918785148414
 30
0.0
 11
33.97127632995929
 21
317.6571947198667
 31
0.0
  0
LINE
  5
1B0
330
1F
100
AcDbEntity
  8
0
  6
CONTINUOUS
 62
     7
100
AcDbLine
 10
-71.02827727372208
 20
495.7514461658603
 30
0.0
 11
-71.47992529950982
 21
493.2033499111634
 31
0.0
  0
LINE
  5
1B1
330
1F
100
AcDbEntity
  8
0
  6
CONTINUOUS
 62
     7
100
AcDbLine
 10
63.43355347178151
 20
320.6903073056279
 30
0.0
 11
63.97147913849332
 21
317.6555575351503
 31
0.0
  0
LINE
  5
1B2
330
1F
100
AcDbEntity
  8
0
  6
CONTINUOUS
 62
     7
100
AcDbLine
 10
13.43346382662065
 20
320.6917086655341
 30
0.0
 11
13.97137927694778
 21
317.6570972711912
 31
0.0
  0
LINE
  5
1B3
330
1F
100
AcDbEntity
  8
0
  6
CONTINUOUS
 62
     7
100
AcDbLine
 10
3.433375069294295
 20
320.6924258843686
 30
0.0
 11
3.971319864790421
 21
317.6576497229257
 31
0.0
  0
LINE
  5
1B4
330
1F
100
AcDbEntity
  8
0
  6
CONTINUOUS
 62
     7
100
AcDbLine
 10
18.09141119602981
 20
317.6546222887015
 30
0.0
 11
18.54317370033136
 21
320.2034104933675
 31
0.0
  0
LINE
  5
1B5
330
1F
100
AcDbEntity
  8
0
  6
CONTINUOUS
 62
     7
100
AcDbLine
 10
8.602761383344218
 20
493.2033803838896
 30
0.0
 11
3.543165357583491
 21
493.2033803838896
 31
0.0
  0
LINE
  5
1B6
330
1F
100
AcDbEntity
  8
0
  6
CONTINUOUS
 62
     7
100
AcDbLine
 10
-77.06861095835761
 20
496.2031955424621
 30
0.0
 11
-80.86861095834765
 21
496.2032042714979
 31
0.0
  0
LINE
  5
1B7
330
1F
100
AcDbEntity
  8
0
  6
CONTINUOUS
 62
     7
100
AcDbLine
 10
78.97244589977737
 20
495.7565873045779
 30
0.0
 11
78.5198890841782
 21
493.2033505410272
 31
0.0
  0
LINE
  5
1B8
330
1F
100
AcDbEntity
  8
0
  6
CONTINUOUS
 62
     7
100
AcDbLine
 10
68.09175466189885
 20
317.6575825055431
 30
0.0
 11
68.54300337337648
 21
320.2034108825274
 31
0.0
  0
LINE
  5
1B9
330
1F
100
AcDbEntity
  8
0
  6
CONTINUOUS
 62
     7
100
AcDbLine
 10
-86.5661099493494
 20
320.6892320191739
 30
0.0
 11
-86.02816451666014
 21
317.6543332631789
 31
0.0
  0
LINE
  5
1BA
330
1F
100
AcDbEntity
  8
0
  6
CONTINUOUS
 62
     7
100
AcDbLine
 10
-56.56624093704739
 20
320.6905405467289
 30
0.0
 11
-56.02828462362076
 21
317.6556257393761
 31
0.0
  0
LINE
  5
1BB
330
1F
100
AcDbEntity
  8
0
  6
CONTINUOUS
 62
     7
100
AcDbLine
 10
-87.06865885037497
 20
496.2029945092036
 30
0.0
 11
-88.91311969102205
 21
496.2029987461322
 31
0.0
  0
LINE
  5
1BC
330
1F
100
AcDbEntity
  8
0
  6
CONTINUOUS
 62
     7
100
AcDbLine
 10
48.97160730458566
 20
495.7517500165554
 30
0.0
 11
48.51989718545126
 21
493.2033502293716
 31
0.0
  0
LINE
  5
1BD
330
1F
100
AcDbEntity
  8
0
  6
CONTINUOUS
 62
     7
100
AcDbLine
 10
-55.86843207368379
 20
317.2034002167223
 30
0.0
 11
-52.06843207369381
 21
317.2034089457734
 31
0.0
  0
LINE
  5
1BE
330
1F
100
AcDbEntity
  8
0
  6
CONTINUOUS
 62
     7
100
AcDbLine
 10
119.086880308978
 20
511.6926655514722
 30
0.0
 11
101.086880308978
 21
515.3218555907996
 31
0.0
  0
LINE
  5
1BF
330
1F
100
AcDbEntity
  8
0
  6
CONTINUOUS
 62
     7
100
AcDbLine
 10
33.62964222532132
 20
492.7154199638552
 30
0.0
 11
33.09173989916325
 21
495.7500747026753
 31
0.0
  0
LINE
  5
1C0
330
1F
100
AcDbEntity
  8
0
  6
CONTINUOUS
 62
     7
100
AcDbLine
 10
32.93154913812145
 20
496.2018026086672
 30
0.0
 11
29.13154913813153
 21
496.2018113375672
 31
0.0
  0
LINE
  5
1C1
330
1F
100
AcDbEntity
  8
0
  6
CONTINUOUS
 62
     7
100
AcDbLine
 10
68.60275785825804
 20
493.2033803838896
 30
0.0
 11
63.54302363113808
 21
493.2033803838896
 31
0.0
  0
ARC
  5
1C2
330
1F
100
AcDbEntity
  8
0
  6
CONTINUOUS
 62
     7
100
AcDbCircle
 10
410.2780531794802
 20
356.6806688053788
 30
0.0
 40
498.1439732929416
100
AcDbArc
 50
180.2827904146091
 51
184.1456031872853
  0
LINE
  5
1C3
330
1F
100
AcDbEntity
  8
0
  6
CONTINUOUS
 62
     7
100
AcDbLine
 10
122.0868803089781
 20
500.2590654236682
 30
0.0
 11
122.0868803089781
 21
487.1380469113822
 31
0.0
  0
ARC
  5
1C4
330
1F
100
AcDbEntity
  8
0
  6
CONTINUOUS
 62
     7
100
AcDbCircle
 10
-149.8445217126381
 20
483.8543326520522
 30
0.0
 40
69.15657297364106
100
AcDbArc
 50
0.9170589030629978
 51
7.639135061548778
  0
LINE
  5
1C5
330
1F
100
AcDbEntity
  8
0
  6
CONTINUOUS
 62
     7
100
AcDbLine
 10
122.0868803089781
 20
359.0343779112371
 30
0.0
 11
122.0868803089781
 21
339.2106813668031
 31
0.0
  0
LINE
  5
1C6
330
1F
100
AcDbEntity
  8
0
  6
CONTINUOUS
 62
     7
100
AcDbLine
 10
122.0868803089781
 20
487.1380469113822
 30
0.0
 11
125.086880308978
 21
487.1380469113822
 31
0.0
  0
LINE
  5
1C7
330
1F
100
AcDbEntity
  8
0
  6
CONTINUOUS
 62
     7
100
AcDbLine
 10
122.0868803089779
 20
326.2687138563968
 30
0.0
 11
125.086880308978
 21
326.2687138563968
 31
0.0
  0
LINE
  5
1C8
330
1F
100
AcDbEntity
  8
0
  6
CONTINUOUS
 62
     7
100
AcDbLine
 10
-85.86864439235949
 20
317.2036509476013
 30
0.0
 11
-82.06864439236942
 21
317.2036596766279
 31
0.0
  0
LINE
  5
1C9
330
1F
100
AcDbEntity
  8
0
  6
CONTINUOUS
 62
     7
100
AcDbLine
 10
3.629353926324186
 20
492.7171662709944
 30
0.0
 11
3.091438457199433
 21
495.7519698594234
 31
0.0
  0
LINE
  5
1CA
330
1F
100
AcDbEntity
  8
0
  6
CONTINUOUS
 62
     7
100
AcDbLine
 10
125.086880308978
 20
454.3723828565419
 30
0.0
 11
122.0868803089779
 21
454.3723828565419
 31
0.0
  0
LINE
  5
1CB
330
1F
100
AcDbEntity
  8
0
  6
CONTINUOUS
 62
     7
100
AcDbLine
 10
22.93161867410559
 20
496.201888270619
 30
0.0
 11
19.1316186741156
 21
496.2018969995273
 31
0.0
  0
LINE
  5
1CC
330
1F
100
AcDbEntity
  8
0
  6
CONTINUOUS
 62
     7
100
AcDbLine
 10
99.086880308978
 20
421.8814717600082
 30
0.0
 11
99.086880308978
 21
317.2033803838897
 31
0.0
  0
LINE
  5
1CD
330
1F
100
AcDbEntity
  8
0
  6
CONTINUOUS
 62
     7
100
AcDbLine
 10
42.93157749346335
 20
496.2017794541737
 30
0.0
 11
39.13157749347339
 21
496.2017881830715
 31
0.0
  0
LINE
  5
1CE
330
1F
100
AcDbEntity
  8
0
  6
CONTINUOUS
 62
     7
100
AcDbLine
 10
-8.913119691022029
 20
511.7033803838895
 30
0.0
 11
-8.913119691022029
 21
301.7033803838897
 31
0.0
  0
LINE
  5
1CF
330
1F
100
AcDbEntity
  8
0
  6
CONTINUOUS
 62
     7
100
AcDbLine
 10
78.60272264500851
 20
493.2033803838896
 30
0.0
 11
73.54298385951328
 21
493.2033803838896
 31
0.0
  0
LINE
  5
1D0
330
1F
100
AcDbEntity
  8
0
  6
CONTINUOUS
 62
     7
100
AcDbLine
 10
101.086880308978
 20
515.3218555907997
 30
0.0
 11
101.086880308978
 21
515.3322124510444
 31
0.0
  0
LINE
  5
1D1
330
1F
100
AcDbEntity
  8
0
  6
CONTINUOUS
 62
     7
100
AcDbLine
 10
-86.37057442524494
 20
492.7152907279087
 30
0.0
 11
-86.90851415300433
 21
495.750155031285
 31
0.0
  0
LINE
  5
1D2
330
1F
100
AcDbEntity
  8
0
  6
CONTINUOUS
 62
     7
100
AcDbLine
 10
2.931728002824346
 20
496.2022218850811
 30
0.0
 11
-0.86827199716559
 21
496.202230614022
 31
0.0
  0
LINE
  5
1D3
330
1F
100
AcDbEntity
  8
0
  6
CONTINUOUS
 62
     7
100
AcDbLine
 10
-6.370472825108178
 20
492.7160399284613
 30
0.0
 11
-6.908361065249266
 21
495.7507021345039
 31
0.0
  0
LINE
  5
1D4
330
1F
100
AcDbEntity
  8
0
  6
CONTINUOUS
 62
     7
100
AcDbLine
 10
-7.06875349435708
 20
496.2024416561637
 30
0.0
 11
-8.913119691022029
 21
496.2024458928487
 31
0.0
  0
ARC
  5
1D5
330
1F
100
AcDbEntity
  8
0
  6
CONTINUOUS
 62
     7
100
AcDbCircle
 10
449.3039278236175
 20
358.0956832859199
 30
0.0
 40
527.19642543712
100
AcDbArc
 50
180.3007212812782
 51
184.0711254776982
  0
LINE
  5
1D6
330
1F
100
AcDbEntity
  8
0
  6
CONTINUOUS
 62
     7
100
AcDbLine
 10
122.0868803089779
 20
474.1960794009761
 30
0.0
 11
125.086880308978
 21
474.1960794009761
 31
0.0
  0
LINE
  5
1D7
330
1F
100
AcDbEntity
  8
0
  6
CONTINUOUS
 62
     7
100
AcDbLine
 10
62.93154719176881
 20
496.2019220312667
 30
0.0
 11
59.13154719177884
 21
496.2019307601782
 31
0.0
  0
ARC
  5
1D8
330
1F
100
AcDbEntity
  8
0
  6
CONTINUOUS
 62
     7
100
AcDbCircle
 10
490.6700166951834
 20
359.5365586541742
 30
0.0
 40
558.5862569921425
100
AcDbArc
 50
180.3343874648563
 51
183.9900670090618
  0
LINE
  5
1D9
330
1F
100
AcDbEntity
  8
0
  6
CONTINUOUS
 62
     7
100
AcDbLine
 10
104.1204962264534
 20
318.834513683384
 30
0.0
 11
105.0739323093324
 21
298.8783451029776
 31
0.0
  0
LINE
  5
1DA
330
1F
100
AcDbEntity
  8
0
  6
CONTINUOUS
 62
     7
100
AcDbLine
 10
125.086880308978
 20
500.2590654236682
 30
0.0
 11
122.0868803089781
 21
500.2590654236682
 31
0.0
  0
LINE
  5
1DB
330
1F
100
AcDbEntity
  8
0
  6
CONTINUOUS
 62
     7
100
AcDbLine
 10
4.131627360245471
 20
317.2046310734422
 30
0.0
 11
7.931627360235407
 21
317.2046398023732
 31
0.0
  0
LINE
  5
1DC
330
1F
100
AcDbEntity
  8
0
  6
CONTINUOUS
 62
     7
100
AcDbLine
 10
122.0868803089779
 20
313.1476953441109
 30
0.0
 11
122.0868803089779
 21
326.2687138563968
 31
0.0
  0
ARC
  5
1DD
330
1F
100
AcDbEntity
  8
0
  6
CONTINUOUS
 62
     7
100
AcDbCircle
 10
54.60106592495934
 20
317.6240672549481
 30
0.0
 40
0.6295024612592212
100
AcDbArc
 50
177.4794199064808
 51
221.7506285992989
  0
ARC
  5
1DE
330
1F
100
AcDbEntity
  8
0
  6
CONTINUOUS
 62
     7
100
AcDbCircle
 10
-87.55157833115132
 20
495.7774214858413
 30
0.0
 40
0.6436797519939865
100
AcDbArc
 50
357.5568792392988
 51
41.38813041255082
  0
ARC
  5
1DF
330
1F
100
AcDbEntity
  8
0
  6
CONTINUOUS
 62
     7
100
AcDbCircle
 10
-2748.048615986026
 20
381.0772799213657
 30
0.0
 40
2699.250870960368
100
AcDbArc
 50
0.5997852618533025
 51
2.333713106807094
  0
ARC
  5
1E0
330
1F
100
AcDbEntity
  8
0
  6
CONTINUOUS
 62
     7
100
AcDbCircle
 10
-64.0381724141485
 20
490.3602554074188
 30
0.0
 40
13.01693396363853
100
AcDbArc
 50
2.773029338306327
 51
11.90534415097797
  0
ARC
  5
1E1
330
1F
100
AcDbEntity
  8
0
  6
CONTINUOUS
 62
     7
100
AcDbCircle
 10
509.1911503526176
 20
357.129706677354
 30
0.0
 40
507.0665055128036
100
AcDbArc
 50
180.2814886313536
 51
184.1230685436331
  0
ARC
  5
1E2
330
1F
100
AcDbEntity
  8
0
  6
CONTINUOUS
 62
     7
100
AcDbCircle
 10
-13011.29175365102
 20
138.1590240310831
 30
0.0
 40
13015.22297212099
100
AcDbArc
 50
0.9530328497726707
 51
1.524999247149408
  0
ARC
  5
1E3
330
1F
100
AcDbEntity
  8
0
  6
CONTINUOUS
 62
     7
100
AcDbCircle
 10
-80.92248427561951
 20
483.040265783426
 30
0.0
 40
80.25773290719955
100
AcDbArc
 50
1.066902612288441
 51
7.11196588485235
  0
LINE
  5
1E4
330
1F
100
AcDbEntity
  8
0
  6
CONTINUOUS
 62
     7
100
AcDbLine
 10
58.60277952384867
 20
493.2033803838896
 30
0.0
 11
53.54306557905365
 21
493.2033803838896
 31
0.0
  0
LINE
  5
1E5
330
1F
100
AcDbEntity
  8
0
  6
CONTINUOUS
 62
     7
100
AcDbLine
 10
52.9314794668214
 20
496.2018203064023
 30
0.0
 11
49.13147946683142
 21
496.2018290353041
 31
0.0
  0
ARC
  5
1E6
330
1F
100
AcDbEntity
  8
0
  6
CONTINUOUS
 62
     7
100
AcDbCircle
 10
-11567.6376325043
 20
170.5132760926665
 30
0.0
 40
11501.23119036826
100
AcDbArc
 50
0.9254588299021428
 51
1.56940978804471
  0
ARC
  5
1E7
330
1F
100
AcDbEntity
  8
0
  6
CONTINUOUS
 62
     7
100
AcDbCircle
 10
-149.913119691022
 20
420.2033803838895
 30
0.0
 40
1.500000000000001
100
AcDbArc
 50
90.0
 51
180.0
  0
LINE
  5
1E8
330
1F
100
AcDbEntity
  8
0
  6
CONTINUOUS
 62
     7
100
AcDbLine
 10
125.086880308978
 20
511.6926655514722
 30
0.0
 11
119.086880308978
 21
511.6926655514722
 31
0.0
  0
LINE
  5
1E9
330
1F
100
AcDbEntity
  8
0
  6
CONTINUOUS
 62
     7
100
AcDbLine
 10
101.086880308978
 20
381.3849403634722
 30
0.0
 11
101.086880308978
 21
315.7033803838896
 31
0.0
  0
LINE
  5
1EA
330
1F
100
AcDbEntity
  8
0
  6
CONTINUOUS
 62
     7
100
AcDbLine
 10
125.086880308978
 20
359.0343779112371
 30
0.0
 11
122.0868803089781
 21
359.0343779112371
 31
0.0
  0
ARC
  5
1EB
330
1F
100
AcDbEntity
  8
0
  6
CONTINUOUS
 62
     7
100
AcDbCircle
 10
-55347.44228933513
 20
-2338.181907464576
 30
0.0
 40
55515.18307295156
100
AcDbArc
 50
2.743285696862699
 51
2.947753232587956
  0
LINE
  5
1EC
330
1F
100
AcDbEntity
  8
0
  6
CONTINUOUS
 62
     7
100
AcDbLine
 10
122.0868803089781
 20
339.2106813668029
 30
0.0
 11
125.086880308978
 21
339.2106813668029
 31
0.0
  0
ARC
  5
1ED
330
1F
100
AcDbEntity
  8
0
  6
CONTINUOUS
 62
     7
100
AcDbCircle
 10
-77.55160821539043
 20
495.7777477962306
 30
0.0
 40
0.6436552921204235
100
AcDbArc
 50
357.558493726558
 51
41.37518645314003
  0
LINE
  5
1EE
330
1F
100
AcDbEntity
  8
0
  6
CONTINUOUS
 62
     7
100
AcDbLine
 10
43.62948896188227
 20
492.7160867624898
 30
0.0
 11
43.09156252404986
 21
495.7508603608463
 31
0.0
  0
LINE
  5
1EF
330
1F
100
AcDbEntity
  8
0
  6
CONTINUOUS
 62
     7
100
AcDbLine
 10
68.4602778302847
 20
320.2033803838895
 30
0.0
 11
73.51987816390083
 21
320.2033803838895
 31
0.0
  0
LINE
  5
1F0
330
1F
100
AcDbEntity
  8
0
  6
CONTINUOUS
 62
     7
100
AcDbLine
 10
58.09174806363004
 20
317.6573096626262
 30
0.0
 11
58.54303964958108
 21
320.2033832771099
 31
0.0
  0
LINE
  5
1F1
330
1F
100
AcDbEntity
  8
0
  6
CONTINUOUS
 62
     7
100
AcDbLine
 10
24.13163263460137
 20
317.2049141271303
 30
0.0
 11
27.93163263459133
 21
317.2049228560338
 31
0.0
  0
LINE
  5
1F2
330
1F
100
AcDbEntity
  8
0
  6
CONTINUOUS
 62
     7
100
AcDbLine
 10
78.46030572342
 20
320.2033803838895
 30
0.0
 11
79.086880308978
 21
320.2033803838895
 31
0.0
  0
ARC
  5
1F3
330
1F
100
AcDbEntity
  8
0
  6
CONTINUOUS
 62
     7
100
AcDbCircle
 10
10847.74987366784
 20
596.0039120191227
 30
0.0
 40
10938.2822493169
100
AcDbArc
 50
181.008851720439
 51
181.2665800322535
  0
ARC
  5
1F4
330
1F
100
AcDbEntity
  8
0
  6
CONTINUOUS
 62
     7
100
AcDbCircle
 10
-128.679877006603
 20
484.7359813295031
 30
0.0
 40
57.96423821197331
100
AcDbArc
 50
0.7634747128161276
 51
8.307801125022408
  0
LINE
  5
1F5
330
1F
100
AcDbEntity
  8
0
  6
CONTINUOUS
 62
     7
100
AcDbLine
 10
63.62970645621574
 20
492.7143961173763
 30
0.0
 11
63.09178543488217
 21
495.74912009032
 31
0.0
  0
LINE
  5
1F6
330
1F
100
AcDbEntity
  8
0
  6
CONTINUOUS
 62
     7
100
AcDbLine
 10
48.60280627405057
 20
493.2033803838896
 30
0.0
 11
43.54310642046531
 21
493.2033803838896
 31
0.0
  0
LINE
  5
1F7
330
1F
100
AcDbEntity
  8
0
  6
CONTINUOUS
 62
     7
100
AcDbLine
 10
64.13173743105125
 20
317.204759973414
 30
0.0
 11
67.93173743104123
 21
317.2047687023325
 31
0.0
  0
LINE
  5
1F8
330
1F
100
AcDbEntity
  8
0
  6
CONTINUOUS
 62
     7
100
AcDbLine
 10
122.0868803089779
 20
454.3723828565418
 30
0.0
 11
122.0868803089779
 21
474.1960794009761
 31
0.0
  0
ARC
  5
1F9
330
1F
100
AcDbEntity
  8
0
  6
CONTINUOUS
 62
     7
100
AcDbCircle
 10
-117.913119691022
 20
420.2033803838895
 30
0.0
 40
1.500000000000001
100
AcDbArc
 50
0.0
 51
67.88918966319903
  0
ARC
  5
1FA
330
1F
100
AcDbEntity
  8
0
  6
CONTINUOUS
 62
     7
100
AcDbCircle
 10
-12428.58557470896
 20
152.3038341107942
 30
0.0
 40
12352.36891997164
100
AcDbArc
 50
0.9417618467733146
 51
1.54319928213043
  0
LINE
  5
1FB
330
1F
100
AcDbEntity
  8
0
  6
CONTINUOUS
 62
     7
100
AcDbLine
 10
-1.908575819413852
 20
317.6547677950561
 30
0.0
 11
-1.456845970973411
 21
320.2034106583006
 31
0.0
  0
LINE
  5
1FC
330
1F
100
AcDbEntity
  8
0
  6
CONTINUOUS
 62
     7
100
AcDbLine
 10
125.086880308978
 20
313.1476953441109
 30
0.0
 11
122.0868803089779
 21
313.1476953441109
 31
0.0
  0
LINE
  5
1FD
330
1F
100
AcDbEntity
  8
0
  6
CONTINUOUS
 62
     7
100
AcDbLine
 10
13.62878148456706
 20
492.7204517410691
 30
0.0
 11
13.09081900852237
 21
495.7554957721302
 31
0.0
  0
ARC
  5
1FE
330
1F
100
AcDbEntity
  8
0
  6
CONTINUOUS
 62
     7
100
AcDbCircle
 10
-62.54746802872459
 20
317.6272707127303
 30
0.0
 40
0.6394267304080586
100
AcDbArc
 50
318.4784213506839
 51
2.532859530379312
  0
ARC
  5
1FF
330
1F
100
AcDbEntity
  8
0
  6
CONTINUOUS
 62
     7
100
AcDbCircle
 10
-12029.70667875354
 20
158.9124366311981
 30
0.0
 40
12043.42115021376
100
AcDbArc
 50
0.9360781485171555
 51
1.552190742628471
  0
ARC
  5
200
330
1F
100
AcDbEntity
  8
0
  6
CONTINUOUS
 62
     7
100
AcDbCircle
 10
-26.04443770921072
 20
484.1769896643684
 30
0.0
 40
65.34471443586587
100
AcDbArc
 50
0.9066523742791434
 51
7.816415000948719
  0
ARC
  5
201
330
1F
100
AcDbEntity
  8
0
  6
CONTINUOUS
 62
     7
100
AcDbCircle
 10
-55.38589052557428
 20
317.628377878436
 30
0.0
 40
0.6430026033377908
100
AcDbArc
 50
177.5587572844729
 51
221.370595218537
  0
LINE
  5
202
330
1F
100
AcDbEntity
  8
0
  6
CONTINUOUS
 62
     7
100
AcDbLine
 10
79.0867587638448
 20
496.1672982864759
 30
0.0
 11
78.99529849882302
 21
495.8757084497455
 31
0.0
  0
ARC
  5
203
330
1F
100
AcDbEntity
  8
0
  6
CONTINUOUS
 62
     7
100
AcDbCircle
 10
-0.3867621391803823
 20
495.7768494700562
 30
0.0
 40
0.642495810350758
100
AcDbArc
 50
138.5415963612373
 51
182.4726152284086
  0
ARC
  5
204
330
1F
100
AcDbEntity
  8
0
  6
CONTINUOUS
 62
     7
100
AcDbCircle
 10
75.22736959488012
 20
317.8470714052291
 30
0.0
 40
1.270423452163102
100
AcDbArc
 50
188.6381669735013
 51
210.3800293685595
  0
ARC
  5
205
330
1F
100
AcDbEntity
  8
0
  6
CONTINUOUS
 62
     7
100
AcDbCircle
 10
-11276.02695721098
 20
174.7054345833612
 30
0.0
 40
11299.57742676231
100
AcDbArc
 50
0.9220199726747779
 51
1.577245927984166
  0
ARC
  5
206
330
1F
100
AcDbEntity
  8
0
  6
CONTINUOUS
 62
     7
100
AcDbCircle
 10
-10574.74286396882
 20
188.0597735206249
 30
0.0
 40
10648.1648982055
100
AcDbArc
 50
0.9050685439399637
 51
1.604492339916726
  0
ARC
  5
207
330
1F
100
AcDbEntity
  8
0
  6
CONTINUOUS
 62
     7
100
AcDbCircle
 10
34.61170882465594
 20
317.6295384561669
 30
0.0
 40
0.6410311228184817
100
AcDbArc
 50
177.5265842566939
 51
221.4772294198048
  0
ARC
  5
208
330
1F
100
AcDbEntity
  8
0
  6
CONTINUOUS
 62
     7
100
AcDbCircle
 10
-142.2767481500244
 20
482.9334472135552
 30
0.0
 40
81.61529331032406
100
AcDbArc
 50
1.080680079987795
 51
7.066779731397142
  0
ARC
  5
209
330
1F
100
AcDbEntity
  8
0
  6
CONTINUOUS
 62
     7
100
AcDbCircle
 10
621.8672471967204
 20
359.1927886261835
 30
0.0
 40
549.7815333479656
100
AcDbArc
 50
180.3060888397164
 51
184.0178146300653
  0
ARC
  5
20A
330
1F
100
AcDbEntity
  8
0
  6
CONTINUOUS
 62
     7
100
AcDbCircle
 10
59.83351743071815
 20
489.1219340148486
 30
0.0
 40
19.25368599212037
100
AcDbArc
 50
0.3319396176385885
 51
12.05077824397097
  0
ARC
  5
20B
330
1F
100
AcDbEntity
  8
0
  6
CONTINUOUS
 62
     7
100
AcDbCircle
 10
11.14972397352922
 20
484.9489242231611
 30
0.0
 40
58.11106031269775
100
AcDbArc
 50
1.242042772659343
 51
8.036971014799747
  0
ARC
  5
20C
330
1F
100
AcDbEntity
  8
0
  6
CONTINUOUS
 62
     7
100
AcDbCircle
 10
24.60976325946103
 20
317.6288060472733
 30
0.0
 40
0.6389782894524064
100
AcDbArc
 50
177.492715906584
 51
221.5589423238856
  0
ARC
  5
20D
330
1F
100
AcDbEntity
  8
0
  6
CONTINUOUS
 62
     7
100
AcDbCircle
 10
49.60621635111109
 20
495.7797180523867
 30
0.0
 40
0.6352580467139874
100
AcDbArc
 50
138.3581929522763
 51
182.5367889686941
  0
ARC
  5
20E
330
1F
100
AcDbEntity
  8
0
  6
CONTINUOUS
 62
     7
100
AcDbCircle
 10
-17.12487227250511
 20
483.320907716119
 30
0.0
 40
76.45181974122843
100
AcDbArc
 50
1.023166707400356
 51
7.274285869447419
  0
ARC
  5
20F
330
1F
100
AcDbEntity
  8
0
  6
CONTINUOUS
 62
     7
100
AcDbCircle
 10
543.7219891391668
 20
357.3406791536554
 30
0.0
 40
511.6009355070159
100
AcDbArc
 50
180.2870271878226
 51
184.1101348015704
  0
ARC
  5
210
330
1F
100
AcDbEntity
  8
0
  6
CONTINUOUS
 62
     7
100
AcDbCircle
 10
586.2645097956168
 20
359.8087910213447
 30
0.0
 40
564.1865936568977
100
AcDbArc
 50
180.3326128981757
 51
183.9777817277192
  0
ARC
  5
211
330
1F
100
AcDbEntity
  8
0
  6
CONTINUOUS
 62
     7
100
AcDbCircle
 10
-5.388584976048799
 20
317.6285575409912
 30
0.0
 40
0.6403287994993258
100
AcDbArc
 50
177.5560909416364
 51
221.4811192544867
  0
ARC
  5
212
330
1F
100
AcDbEntity
  8
0
  6
CONTINUOUS
 62
     7
100
AcDbCircle
 10
39.60875436919054
 20
495.7781894440963
 30
0.0
 40
0.6380702727794518
100
AcDbArc
 50
138.4039433722389
 51
182.5425279126435
  0
ARC
  5
213
330
1F
100
AcDbEntity
  8
0
  6
CONTINUOUS
 62
     7
100
AcDbCircle
 10
-11887.18954453354
 20
161.3339632534833
 30
0.0
 40
11930.87845163237
100
AcDbArc
 50
0.9339546443225338
 51
1.555548929298855
  0
ARC
  5
214
330
1F
100
AcDbEntity
  8
0
  6
CONTINUOUS
 62
     7
100
AcDbCircle
 10
441.0913008625951
 20
356.748185942288
 30
0.0
 40
498.9599511707282
100
AcDbArc
 50
180.27416263263
 51
184.1464994236939
  0
ARC
  5
215
330
1F
100
AcDbEntity
  8
0
  6
CONTINUOUS
 62
     7
100
AcDbCircle
 10
-85.58330492971636
 20
317.5583097550789
 30
0.0
 40
0.4551938912847492
100
AcDbArc
 50
167.7921462729778
 51
231.1817089537394
  0
ARC
  5
216
330
1F
100
AcDbEntity
  8
0
  6
CONTINUOUS
 62
     7
100
AcDbCircle
 10
9.616914632186612
 20
495.775696899383
 30
0.0
 40
0.6461700083812155
100
AcDbArc
 50
138.7156819441392
 51
182.3618966052238
  0
ARC
  5
217
330
1F
100
AcDbEntity
  8
0
  6
CONTINUOUS
 62
     7
100
AcDbCircle
 10
-72.55074984612659
 20
317.6278549836792
 30
0.0
 40
0.642436717828696
100
AcDbArc
 50
318.657445356217
 51
2.379456607016039
  0
ARC
  5
218
330
1F
100
AcDbEntity
  8
0
  6
CONTINUOUS
 62
     7
100
AcDbCircle
 10
620.3387727592875
 20
360.00655013356
 30
0.0
 40
568.264439440193
100
AcDbArc
 50
180.3358439202875
 51
183.9695830650851
  0
ARC
  5
219
330
1F
100
AcDbEntity
  8
0
  6
CONTINUOUS
 62
     7
100
AcDbCircle
 10
42.45399987765511
 20
495.7784326814603
 30
0.0
 40
0.638202834914785
100
AcDbArc
 50
357.5058483280818
 51
41.55525687115062
  0
ARC
  5
21A
330
1F
100
AcDbEntity
  8
0
  6
CONTINUOUS
 62
     7
100
AcDbCircle
 10
72.45076946012867
 20
495.7777866023189
 30
0.0
 40
0.6412268132783532
100
AcDbArc
 50
357.5959175076997
 51
41.42875293765849
  0
ARC
  5
21B
330
1F
100
AcDbEntity
  8
0
  6
CONTINUOUS
 62
     7
100
AcDbCircle
 10
553.2953488969764
 20
359.7063664653972
 30
0.0
 40
561.2172454133544
100
AcDbArc
 50
180.3212049029198
 51
183.9885057468085
  0
ARC
  5
21C
330
1F
100
AcDbEntity
  8
0
  6
CONTINUOUS
 62
     7
100
AcDbCircle
 10
77.45047937632414
 20
317.6294673001115
 30
0.0
 40
0.6417149792359992
100
AcDbArc
 50
318.5394299161362
 51
2.454532216463065
  0
ARC
  5
21D
330
1F
100
AcDbEntity
  8
0
  6
CONTINUOUS
 62
     7
100
AcDbCircle
 10
37.45673635940041
 20
317.6274670244597
 30
0.0
 40
0.6354816193536406
100
AcDbArc
 50
318.3304942569644
 51
2.564084262168535
  0
ARC
  5
21E
330
1F
100
AcDbEntity
  8
0
  6
CONTINUOUS
 62
     7
100
AcDbCircle
 10
-34.98236594953612
 20
485.0674705867196
 30
0.0
 40
54.25565967131426
100
AcDbArc
 50
0.6916837283632395
 51
8.535944017354508
  0
ARC
  5
21F
330
1F
100
AcDbEntity
  8
0
  6
CONTINUOUS
 62
     7
100
AcDbCircle
 10
-56.55664672910255
 20
484.1162729264828
 30
0.0
 40
65.85991343066368
100
AcDbArc
 50
0.8896969590559487
 51
7.81004580480785
  0
ARC
  5
220
330
1F
100
AcDbEntity
  8
0
  6
CONTINUOUS
 62
     7
100
AcDbCircle
 10
-11247.25139293106
 20
174.9239058322136
 30
0.0
 40
11300.79714773433
100
AcDbArc
 50
0.9215328947248231
 51
1.57546272589776
  0
LINE
  5
221
330
1F
100
AcDbEntity
  8
0
  6
CONTINUOUS
 62
     7
100
AcDbLine
 10
48.66919449466599
 20
493.1280726039855
 30
0.0
 11
48.6028069016516
 21
493.2033803838831
 31
0.0
  0
ARC
  5
222
330
1F
100
AcDbEntity
  8
0
  6
CONTINUOUS
 62
     7
100
AcDbCircle
 10
4.614301466634724
 20
317.6303754800977
 30
0.0
 40
0.6436090413576517
100
AcDbArc
 50
177.5512702922658
 51
221.4140188351223
  0
ARC
  5
223
330
1F
100
AcDbEntity
  8
0
  6
CONTINUOUS
 62
     7
100
AcDbCircle
 10
-60.3857190589034
 20
495.7786033208255
 30
0.0
 40
0.64309213569145
100
AcDbArc
 50
138.6598858420799
 51
182.4178696701554
  0
ARC
  5
224
330
1F
100
AcDbEntity
  8
0
  6
CONTINUOUS
 62
     7
100
AcDbCircle
 10
52.45278059851903
 20
495.7777577471663
 30
0.0
 40
0.6395167440898342
100
AcDbArc
 50
357.5033202610508
 51
41.53660820968827
  0
LINE
  5
225
330
1F
100
AcDbEntity
  8
0
  6
CONTINUOUS
 62
     7
100
AcDbLine
 10
-66.90849334579323
 20
495.75018464537
 30
0.0
 11
-67.06817037400882
 21
496.2033300427934
 31
0.0
  0
ARC
  5
226
330
1F
100
AcDbEntity
  8
0
  6
CONTINUOUS
 62
     7
100
AcDbCircle
 10
-7.867609021493327
 20
495.6644593122934
 30
0.0
 40
0.9631174059029382
100
AcDbArc
 50
5.137219595997613
 51
33.95795494604712
  0
ARC
  5
227
330
1F
100
AcDbEntity
  8
0
  6
CONTINUOUS
 62
     7
100
AcDbCircle
 10
14.61445140377816
 20
317.6301993570418
 30
0.0
 40
0.6436458271996354
100
AcDbArc
 50
177.6002726056197
 51
221.370145800857
  0
LINE
  5
228
330
1F
100
AcDbEntity
  8
0
  6
CONTINUOUS
 62
     7
100
AcDbLine
 10
81.08688030897795
 20
450.3566989374211
 30
0.0
 11
80.82063743514043
 21
450.3562227952125
 31
0.0
  0
ARC
  5
229
330
1F
100
AcDbEntity
  8
0
  6
CONTINUOUS
 62
     7
100
AcDbCircle
 10
64.6023576589366
 20
317.6259531455811
 30
0.0
 40
0.631575080160204
100
AcDbArc
 50
177.3123898641101
 51
221.8277365420829
  0
ARC
  5
22A
330
1F
100
AcDbEntity
  8
0
  6
CONTINUOUS
 62
     7
100
AcDbCircle
 10
19.60501039642093
 20
495.7808407291033
 30
0.0
 40
0.6335519796043779
100
AcDbArc
 50
138.3486416811192
 51
182.4698398309014
  0
LINE
  5
22B
330
1F
100
AcDbEntity
  8
0
  6
CONTINUOUS
 62
     7
100
AcDbLine
 10
44.13150859720982
 20
317.2049600599498
 30
0.0
 11
43.97243459719672
 21
317.6504588176366
 31
0.0
  0
ARC
  5
22C
330
1F
100
AcDbEntity
  8
0
  6
CONTINUOUS
 62
     7
100
AcDbCircle
 10
-82.54997141986749
 20
317.6282991890544
 30
0.0
 40
0.6418679170310709
100
AcDbArc
 50
318.5804043377333
 51
2.440008934458263
  0
ARC
  5
22D
330
1F
100
AcDbEntity
  8
0
  6
CONTINUOUS
 62
     7
100
AcDbCircle
 10
-50.38648079217703
 20
495.7783424841708
 30
0.0
 40
0.6424656349242674
100
AcDbArc
 50
138.5882045050173
 51
182.4665103629909
  0
ARC
  5
22E
330
1F
100
AcDbEntity
  8
0
  6
CONTINUOUS
 62
     7
100
AcDbCircle
 10
29.60947209832967
 20
495.7782219364096
 30
0.0
 40
0.6386222216294272
100
AcDbArc
 50
138.4490073893926
 51
182.4926019447211
  0
ARC
  5
22F
330
1F
100
AcDbEntity
  8
0
  6
CONTINUOUS
 62
     7
100
AcDbCircle
 10
17.46040270977467
 20
317.625765323189
 30
0.0
 40
0.6317159401390927
100
AcDbArc
 50
318.2125244846693
 51
2.637720755423857
  0
ARC
  5
230
330
1F
100
AcDbEntity
  8
0
  6
CONTINUOUS
 62
     7
100
AcDbCircle
 10
-4.458827361580458
 20
485.0709421993634
 30
0.0
 40
53.7355008975899
100
AcDbArc
 50
0.5885411143469428
 51
8.623481194537918
  0
LINE
  5
231
330
1F
100
AcDbEntity
  8
0
  6
CONTINUOUS
 62
     7
100
AcDbLine
 10
80.5923296890001
 20
461.064185121419
 30
0.0
 11
81.08688030895716
 21
461.0645029829212
 31
0.0
  0
ARC
  5
232
330
1F
100
AcDbEntity
  8
0
  6
CONTINUOUS
 62
     7
100
AcDbCircle
 10
580.3692928270726
 20
358.6460429883102
 30
0.0
 40
538.2729160053434
100
AcDbArc
 50
180.3023452980642
 51
184.0461607509003
  0
ARC
  5
233
330
1F
100
AcDbEntity
  8
0
  6
CONTINUOUS
 62
     7
100
AcDbCircle
 10
575.0462820659608
 20
357.431770933143
 30
0.0
 40
512.9283054402277
100
AcDbArc
 50
180.2808804161338
 51
184.10981143961
  0
ARC
  5
234
330
1F
100
AcDbEntity
  8
0
  6
CONTINUOUS
 62
     7
100
AcDbCircle
 10
12701.74252602997
 20
631.2876901976201
 30
0.0
 40
12712.62446471935
100
AcDbArc
 50
181.008390311262
 51
181.2382930003002
  0
LINE
  5
235
330
1F
100
AcDbEntity
  8
0
  6
CONTINUOUS
 62
     7
100
AcDbLine
 10
78.99066992639398
 20
495.8530745301566
 30
0.0
 11
78.97242458968446
 21
495.7564676042513
 31
0.0
  0
ARC
  5
236
330
1F
100
AcDbEntity
  8
0
  6
CONTINUOUS
 62
     7
100
AcDbCircle
 10
59.60400227981287
 20
495.7805898316985
 30
0.0
 40
0.6330418492829111
100
AcDbArc
 50
138.2730498767983
 51
182.5968333109356
  0
ARC
  5
237
330
1F
100
AcDbEntity
  8
0
  6
CONTINUOUS
 62
     7
100
AcDbCircle
 10
-13245.25008427058
 20
134.3347276809253
 30
0.0
 40
13189.22253777034
100
AcDbArc
 50
0.9558669269204814
 51
1.521225930093195
  0
ARC
  5
238
330
1F
100
AcDbEntity
  8
0
  6
CONTINUOUS
 62
     7
100
AcDbCircle
 10
-12696.11981220492
 20
143.627182744231
 30
0.0
 40
12759.99342640694
100
AcDbArc
 50
0.9487922525711854
 51
1.531627992295515
  0
LINE
  5
239
330
1F
100
AcDbEntity
  8
0
  6
CONTINUOUS
 62
     7
100
AcDbLine
 10
78.66290908585236
 20
493.1416895025287
 30
0.0
 11
78.60272568508583
 21
493.2033803838288
 31
0.0
  0
ARC
  5
23A
330
1F
100
AcDbEntity
  8
0
  6
CONTINUOUS
 62
     7
100
AcDbCircle
 10
-12852.5163674556
 20
140.9117703384751
 30
0.0
 40
12886.41864805486
100
AcDbArc
 50
0.9509378201299522
 51
1.528339569193958
  0
ARC
  5
23B
330
1F
100
AcDbEntity
  8
0
  6
CONTINUOUS
 62
     7
100
AcDbCircle
 10
-48.94761917392301
 20
483.1857186560889
 30
0.0
 40
78.27858988534027
100
AcDbArc
 50
1.042939809774596
 51
7.194593508738065
  0
ARC
  5
23C
330
1F
100
AcDbEntity
  8
0
  6
CONTINUOUS
 62
     7
100
AcDbCircle
 10
546.6652548644437
 20
358.457598851083
 30
0.0
 40
534.5653498953068
100
AcDbArc
 50
180.2993356906559
 51
184.0533676838315
  0
LINE
  5
23D
330
1F
100
AcDbEntity
  8
0
  6
CONTINUOUS
 62
     7
100
AcDbLine
 10
-65.86872532701896
 20
317.2033846793389
 30
0.0
 11
-66.02801312001401
 21
317.6539252538474
 31
0.0
  0
ARC
  5
23E
330
1F
100
AcDbEntity
  8
0
  6
CONTINUOUS
 62
     7
100
AcDbCircle
 10
27.45491244250244
 20
317.6279681372215
 30
0.0
 40
0.6373613194100755
100
AcDbArc
 50
318.4138958485239
 51
2.530101157703598
  0
ARC
  5
23F
330
1F
100
AcDbEntity
  8
0
  6
CONTINUOUS
 62
     7
100
AcDbCircle
 10
32.45439469849361
 20
495.7782925333229
 30
0.0
 40
0.6379946221292644
100
AcDbArc
 50
357.4548601259858
 51
41.59144052907288
  0
LINE
  5
240
330
1F
100
AcDbEntity
  8
0
  6
CONTINUOUS
 62
     7
100
AcDbLine
 10
18.39466932327417
 20
320.2767661944758
 30
0.0
 11
18.46026033287672
 21
320.2033803839117
 31
0.0
  0
ARC
  5
241
330
1F
100
AcDbEntity
  8
0
  6
CONTINUOUS
 62
     7
100
AcDbCircle
 10
47.46038415933445
 20
317.6248817034041
 30
0.0
 40
0.6310983217885369
100
AcDbArc
 50
318.2894016275802
 51
2.48408792109592
  0
ARC
  5
242
330
1F
100
AcDbEntity
  8
0
  6
CONTINUOUS
 62
     7
100
AcDbCircle
 10
67.44597509593441
 20
317.6311622340239
 30
0.0
 40
0.6463563223233963
100
AcDbArc
 50
318.7239151600073
 51
2.35751720271486
  0
ARC
  5
243
330
1F
100
AcDbEntity
  8
0
  6
CONTINUOUS
 62
     7
100
AcDbCircle
 10
-610.2582714441628
 20
454.4656712290977
 30
0.0
 40
545.2287924648258
100
AcDbArc
 50
0.3144245786481292
 51
4.025009764186393
  0
ARC
  5
244
330
1F
100
AcDbEntity
  8
0
  6
CONTINUOUS
 62
     7
100
AcDbCircle
 10
57.45171903440851
 20
317.6295783894624
 30
0.0
 40
0.6406815991253741
100
AcDbArc
 50
318.4817004752416
 51
2.501902875979454
  0
ARC
  5
245
330
1F
100
AcDbEntity
  8
0
  6
CONTINUOUS
 62
     7
100
AcDbCircle
 10
-466.9756433239154
 20
454.6009709336706
 30
0.0
 40
541.9448125247958
100
AcDbArc
 50
0.305998117721515
 51
4.035122382034445
  0
ARC
  5
246
330
1F
100
AcDbEntity
  8
0
  6
CONTINUOUS
 62
     7
100
AcDbCircle
 10
-567.1091041751097
 20
457.025756450722
 30
0.0
 40
492.0324019560387
100
AcDbArc
 50
0.2776483066514288
 51
4.162064752729862
  0
LINE
  5
247
330
1F
100
AcDbEntity
  8
0
  6
CONTINUOUS
 62
     7
100
AcDbLine
 10
-71.59926394302781
 20
320.2643323425917
 30
0.0
 11
-71.53951081568184
 21
320.2033803839638
 31
0.0
  0
ARC
  5
248
330
1F
100
AcDbEntity
  8
0
  6
CONTINUOUS
 62
     7
100
AcDbCircle
 10
11893.62834855876
 20
651.5476177538901
 30
0.0
 40
11900.25052384865
100
AcDbArc
 50
180.9331632617051
 51
181.5572651084289
  0
ARC
  5
249
330
1F
100
AcDbEntity
  8
0
  6
CONTINUOUS
 62
     7
100
AcDbCircle
 10
-553.6087673311872
 20
453.3941939035305
 30
0.0
 40
568.5970741602878
100
AcDbArc
 50
0.3389636918457199
 51
3.967898050847964
  0
ARC
  5
24A
330
1F
100
AcDbEntity
  8
0
  6
CONTINUOUS
 62
     7
100
AcDbCircle
 10
-9.897140014287514
 20
329.7967276967577
 30
0.0
 40
72.35840955721403
100
AcDbArc
 50
180.9830707365017
 51
187.4830466700946
  0
ARC
  5
24B
330
1F
100
AcDbEntity
  8
0
  6
CONTINUOUS
 62
     7
100
AcDbCircle
 10
12593.88085555843
 20
667.6178568295895
 30
0.0
 40
12650.67083059191
100
AcDbArc
 50
180.9471127501121
 51
181.5356829585781
  0
ARC
  5
24C
330
1F
100
AcDbEntity
  8
0
  6
CONTINUOUS
 62
     7
100
AcDbCircle
 10
-13.23930065220997
 20
329.127308301961
 30
0.0
 40
59.02912550734564
100
AcDbArc
 50
180.0151857499409
 51
188.6353766477677
  0
ARC
  5
24D
330
1F
100
AcDbEntity
  8
0
  6
CONTINUOUS
 62
     7
100
AcDbCircle
 10
-484.1732446631413
 20
454.7596145040773
 30
0.0
 40
539.1383970706288
100
AcDbArc
 50
0.3107071890149769
 51
4.039142864591327
  0
ARC
  5
24E
330
1F
100
AcDbEntity
  8
0
  6
CONTINUOUS
 62
     7
100
AcDbCircle
 10
123.7383002843181
 20
329.3016328459836
 30
0.0
 40
65.97932711354733
100
AcDbArc
 50
180.876572598786
 51
187.8039266981839
  0
ARC
  5
24F
330
1F
100
AcDbEntity
  8
0
  6
CONTINUOUS
 62
     7
100
AcDbCircle
 10
-522.8077311956516
 20
453.4013541968213
 30
0.0
 40
567.7978247575913
100
AcDbArc
 50
0.327333835450645
 51
3.972367143594056
  0
LINE
  5
250
330
1F
100
AcDbEntity
  8
0
  6
CONTINUOUS
 62
     7
100
AcDbLine
 10
68.40720581324732
 20
320.2516027711356
 30
0.0
 11
68.46027268726695
 21
320.20338038404
 31
0.0
  0
ARC
  5
251
330
1F
100
AcDbEntity
  8
0
  6
CONTINUOUS
 62
     7
100
AcDbCircle
 10
139.7657754552057
 20
328.9898632984763
 30
0.0
 40
61.99666278821611
100
AcDbArc
 50
180.8361582074934
 51
188.0411216387064
  0
ARC
  5
252
330
1F
100
AcDbEntity
  8
0
  6
CONTINUOUS
 62
     7
100
AcDbCircle
 10
-508.3783970599165
 20
455.9705270463573
 30
0.0
 40
513.3226765292837
100
AcDbArc
 50
0.286336159811924
 51
4.10723527485419
  0
ARC
  5
253
330
1F
100
AcDbEntity
  8
0
  6
CONTINUOUS
 62
     7
100
AcDbCircle
 10
12799.27785785451
 20
670.562281768044
 30
0.0
 40
12796.09670755217
100
AcDbArc
 50
180.9494126111173
 51
181.530747348048
  0
ARC
  5
254
330
1F
100
AcDbEntity
  8
0
  6
CONTINUOUS
 62
     7
100
AcDbCircle
 10
-602.2722733400057
 20
455.7763674483357
 30
0.0
 40
517.2202466764625
100
AcDbArc
 50
0.2872209972796895
 51
4.097751932250843
  0
ARC
  5
255
330
1F
100
AcDbEntity
  8
0
  6
CONTINUOUS
 62
     7
100
AcDbCircle
 10
11881.62311719493
 20
649.5182777680067
 30
0.0
 40
11808.22309972702
100
AcDbArc
 50
180.9317736129324
 51
181.5598483856073
  0
LINE
  5
256
330
1F
100
AcDbEntity
  8
0
  6
CONTINUOUS
 62
     7
100
AcDbLine
 10
81.0477798053321
 20
438.7837704671107
 30
0.0
 11
81.08688030897798
 21
438.78379931364
 31
0.0
  0
ARC
  5
257
330
1F
100
AcDbEntity
  8
0
  6
CONTINUOUS
 62
     7
100
AcDbCircle
 10
125.0868221531339
 20
510.1926258706821
 30
0.0
 40
1.500039681917413
100
AcDbArc
 50
11.95621838613963
 51
89.99777866914835
  0
LINE
  5
258
330
1F
100
AcDbEntity
  8
0
  6
CONTINUOUS
 62
     7
100
AcDbLine
 10
79.086880308978
 20
496.2033803838895
 30
0.0
 11
79.086880308978
 21
317.2033803838896
 31
0.0
  0
ARC
  5
259
330
1F
100
AcDbEntity
  8
0
  6
CONTINUOUS
 62
     7
100
AcDbCircle
 10
62.44911657958733
 20
495.776407635577
 30
0.0
 40
0.6432742819657596
100
AcDbArc
 50
357.5580875127692
 51
41.41300110979677
  0
ARC
  5
25A
330
1F
100
AcDbEntity
  8
0
  6
CONTINUOUS
 62
     7
100
AcDbCircle
 10
-514.7958762962429
 20
454.6880887129053
 30
0.0
 40
539.7639807696972
100
AcDbArc
 50
0.302985181480949
 51
4.042702141632617
  0
ARC
  5
25B
330
1F
100
AcDbEntity
  8
0
  6
CONTINUOUS
 62
     7
100
AcDbCircle
 10
92.10371319578306
 20
329.1735430652096
 30
0.0
 40
64.34086596264711
100
AcDbArc
 50
180.8502024720582
 51
187.8973775167768
  0
LINE
  5
25C
330
1F
100
AcDbEntity
  8
0
  6
CONTINUOUS
 62
     7
100
AcDbLine
 10
23.09061863188212
 20
495.7565427013024
 30
0.0
 11
22.93161866855105
 21
496.2018882706084
 31
0.0
  0
ARC
  5
25D
330
1F
100
AcDbEntity
  8
0
  6
CONTINUOUS
 62
     7
100
AcDbCircle
 10
11732.44217704161
 20
649.2743031078368
 30
0.0
 40
11799.03914658051
100
AcDbArc
 50
180.9314965370551
 51
181.5598617360052
  0
ARC
  5
25E
330
1F
100
AcDbEntity
  8
0
  6
CONTINUOUS
 62
     7
100
AcDbCircle
 10
-1.199320675678614
 20
328.9279297488735
 30
0.0
 40
61.03105461467197
100
AcDbArc
 50
180.7881650025848
 51
188.1164766444196
  0
LINE
  5
25F
330
1F
100
AcDbEntity
  8
0
  6
CONTINUOUS
 62
     7
100
AcDbLine
 10
126.5565741546479
 20
510.5033803838895
 30
0.0
 11
126.5543202552956
 21
510.5033803838895
 31
0.0
  0
ARC
  5
260
330
1F
100
AcDbEntity
  8
0
  6
CONTINUOUS
 62
     7
100
AcDbCircle
 10
1.892993515193738
 20
495.5802959998411
 30
0.0
 40
1.210686227940494
100
AcDbArc
 50
8.14082921866788
 51
30.91040047134528
  0
ARC
  5
261
330
1F
100
AcDbEntity
  8
0
  6
CONTINUOUS
 62
     7
100
AcDbCircle
 10
12.46712860428136
 20
495.7844895321361
 30
0.0
 40
0.6243746189805427
100
AcDbArc
 50
357.3340639833076
 51
41.96924450428128
  0
ARC
  5
262
330
1F
100
AcDbEntity
  8
0
  6
CONTINUOUS
 62
     7
100
AcDbCircle
 10
-572.7567808971086
 20
455.7926938323207
 30
0.0
 40
517.7022812389648
100
AcDbArc
 50
0.3006024222337942
 51
4.092239900031927
  0
ARC
  5
263
330
1F
100
AcDbEntity
  8
0
  6
CONTINUOUS
 62
     7
100
AcDbCircle
 10
11239.84945967516
 20
636.2782488818671
 30
0.0
 40
11196.3097370206
100
AcDbArc
 50
180.9192901635065
 51
181.5792655283137
  0
ARC
  5
264
330
1F
100
AcDbEntity
  8
0
  6
CONTINUOUS
 62
     7
100
AcDbCircle
 10
61.59102936941345
 20
329.1240067304432
 30
0.0
 40
63.82549653862211
100
AcDbArc
 50
180.878229499186
 51
187.920158980454
  0
ARC
  5
265
330
1F
100
AcDbEntity
  8
0
  6
CONTINUOUS
 62
     7
100
AcDbCircle
 10
102.2209895281694
 20
328.3629104984592
 30
0.0
 40
54.43231959120472
100
AcDbArc
 50
180.6881704476685
 51
188.5353188421322
  0
ARC
  5
266
330
1F
100
AcDbEntity
  8
0
  6
CONTINUOUS
 62
     7
100
AcDbCircle
 10
115.9973742992955
 20
330.2196636391375
 30
0.0
 40
78.26559788427355
100
AcDbArc
 50
181.0315796710929
 51
187.1930840465807
  0
ARC
  5
267
330
1F
100
AcDbEntity
  8
0
  6
CONTINUOUS
 62
     7
100
AcDbCircle
 10
-436.8941786997118
 20
456.530372771486
 30
0.0
 40
501.8279956699167
100
AcDbArc
 50
0.2770292975289408
 51
4.137161965392067
  0
ARC
  5
268
330
1F
100
AcDbEntity
  8
0
  6
CONTINUOUS
 62
     7
100
AcDbCircle
 10
11315.39132756729
 20
638.5454495260532
 30
0.0
 40
11301.87506510245
100
AcDbArc
 50
180.9216260126226
 51
181.5757241494899
  0
ARC
  5
269
330
1F
100
AcDbEntity
  8
0
  6
CONTINUOUS
 62
     7
100
AcDbCircle
 10
11972.18652852537
 20
652.3868489154885
 30
0.0
 40
11948.81470116649
100
AcDbArc
 50
180.9343403456838
 51
181.554609280902
  0
ARC
  5
26A
330
1F
100
AcDbEntity
  8
0
  6
CONTINUOUS
 62
     7
100
AcDbCircle
 10
13416.88174795091
 20
685.6164733882448
 30
0.0
 40
13493.86038328163
100
AcDbArc
 50
180.9605315774201
 51
181.5139179920369
  0
ARC
  5
26B
330
1F
100
AcDbEntity
  8
0
  6
CONTINUOUS
 62
     7
100
AcDbCircle
 10
21.74953899284121
 20
329.9085212748631
 30
0.0
 40
74.00757103886886
100
AcDbArc
 50
181.023922703828
 51
187.3939828628571
  0
ARC
  5
26C
330
1F
100
AcDbEntity
  8
0
  6
CONTINUOUS
 62
     7
100
AcDbCircle
 10
-2.985691872643376
 20
317.7833323569926
 30
0.0
 40
1.084772464061889
100
AcDbArc
 50
327.7467277236613
 51
353.2034639313197
  0
ARC
  5
26D
330
1F
100
AcDbEntity
  8
0
  6
CONTINUOUS
 62
     7
100
AcDbCircle
 10
12114.95047137017
 20
654.8161023622309
 30
0.0
 40
12061.60430674274
100
AcDbArc
 50
180.9364742605077
 51
181.5512633369373
  0
ARC
  5
26E
330
1F
100
AcDbEntity
  8
0
  6
CONTINUOUS
 62
     7
100
AcDbCircle
 10
-475.7693260628001
 20
456.1121896934175
 30
0.0
 40
510.7103136078097
100
AcDbArc
 50
0.2875474884783671
 51
4.112161603755795
  0
ARC
  5
26F
330
1F
100
AcDbEntity
  8
0
  6
CONTINUOUS
 62
     7
100
AcDbCircle
 10
71.47277018077685
 20
328.3312648001598
 30
0.0
 40
53.68574986370398
100
AcDbArc
 50
180.6040661270159
 51
188.6286926901182
  0
ARC
  5
270
330
1F
100
AcDbEntity
  8
0
  6
CONTINUOUS
 62
     7
100
AcDbCircle
 10
-545.9031941863553
 20
454.7070973859236
 30
0.0
 40
540.8678086950417
100
AcDbArc
 50
0.3212361798181859
 51
4.031798464446014
  0
ARC
  5
271
330
1F
100
AcDbEntity
  8
0
  6
CONTINUOUS
 62
     7
100
AcDbCircle
 10
12468.51103829291
 20
665.5216963231206
 30
0.0
 40
12555.27860965718
100
AcDbArc
 50
180.9453796418137
 51
181.5379246363267
  0
ARC
  5
272
330
1F
100
AcDbEntity
  8
0
  6
CONTINUOUS
 62
     7
100
AcDbCircle
 10
12955.53788371472
 20
673.278023549457
 30
0.0
 40
12922.3854106392
100
AcDbArc
 50
180.9515579166678
 51
181.5274940727906
  0
ARC
  5
273
330
1F
100
AcDbEntity
  8
0
  6
CONTINUOUS
 62
     7
100
AcDbCircle
 10
13257.60757549483
 20
679.0863019190125
 30
0.0
 40
13194.51600839561
100
AcDbArc
 50
180.9559335167278
 51
181.5204972963648
  0
ARC
  5
274
330
1F
100
AcDbEntity
  8
0
  6
CONTINUOUS
 62
     7
100
AcDbCircle
 10
122.9460767218178
 20
328.8266358451154
 30
0.0
 40
55.20887276698889
100
AcDbArc
 50
179.845506556782
 51
188.9353461676841
  0
ARC
  5
275
330
1F
100
AcDbEntity
  8
0
  6
CONTINUOUS
 62
     7
100
AcDbCircle
 10
84.19126915592473
 20
330.0867437822033
 30
0.0
 40
76.45556952071306
100
AcDbArc
 50
181.0130546995375
 51
187.2730545400362
  0
ENDSEC
  0
SECTION
  2
OBJECTS
  0
DICTIONARY
  5
C
330
0
100
AcDbDictionary
  3
ACAD_GROUP
350
D
  3
ACAD_LAYOUT
350
1A
  3
ACAD_MATERIAL
350
43
  3
ACAD_MLEADERSTYLE
350
6B
  3
ACAD_MLINESTYLE
350
17
  3
ACAD_PLOTSETTINGS
350
19
  3
ACAD_SCALELIST
350
47
  3
ACAD_VISUALSTYLE
350
2A
  3
ACDBHEADERROUNDTRIPXREC
350
276
  3
ACDBVARIABLEDICTIONARY
350
297
  0
DICTIONARY
  5
29E
330
8
100
AcDbDictionary
280
     1
  3
ACAD_XREC_ROUNDTRIP
360
29F
  0
DICTIONARY
  5
D
102
{ACAD_REACTORS
330
C
102
}
330
C
100
AcDbDictionary
  0
DICTIONARY
  5
1A
102
{ACAD_REACTORS
330
C
102
}
330
C
100
AcDbDictionary
  0
DICTIONARY
  5
43
102
{ACAD_REACTORS
330
C
102
}
330
C
100
AcDbDictionary
  3
BYBLOCK
350
45
  3
BYLAYER
350
44
  3
GLOBAL
350
46
  0
DICTIONARY
  5
6B
102
{ACAD_REACTORS
330
C
102
}
330
C
100
AcDbDictionary
  3
STANDARD
350
6C
  0
DICTIONARY
  5
17
102
{ACAD_REACTORS
330
C
102
}
330
C
100
AcDbDictionary
  3
STANDARD
350
18
  0
DICTIONARY
  5
19
102
{ACAD_REACTORS
330
C
102
}
330
C
100
AcDbDictionary
  0
DICTIONARY
  5
47
102
{ACAD_REACTORS
330
C
102
}
330
C
100
AcDbDictionary
  3
A0
350
48
  3
A1
350
49
  3
A2
350
4A
  3
A3
350
4B
  3
A4
350
4C
  3
A5
350
4D
  3
A6
350
4E
  3
A7
350
4F
  3
A8
350
50
  3
A9
350
51
  3
B0
350
52
  3
B1
350
53
  3
B2
350
54
  3
B3
350
55
  3
B4
350
56
  3
B5
350
57
  3
B6
350
58
  3
B7
350
59
  3
B8
350
5A
  3
B9
350
5B
  3
C0
350
5C
  3
C1
350
5D
  3
C2
350
5E
  3
C3
350
5F
  3
C4
350
60
  3
C5
350
61
  3
C6
350
62
  3
C7
350
63
  3
C8
350
64
  3
C9
350
65
  3
D0
350
66
  3
D1
350
67
  3
D2
350
68
  0
DICTIONARY
  5
2A
102
{ACAD_REACTORS
330
C
102
}
330
C
100
AcDbDictionary
  3
2DWIREFRAME
350
2F
  3
BASIC
350
32
  3
BRIGHTEN
350
36
  3
COLORCHANGE
350
3A
  3
CONCEPTUAL
350
34
  3
DIM
350
35
  3
EDGECOLOROFF
350
3D
  3
FACEPATTERN
350
39
  3
FLAT
350
2B
  3
FLATWITHEDGES
350
2C
  3
GOURAUD
350
2D
  3
GOURAUDWITHEDGES
350
2E
  3
HIDDEN
350
31
  3
JITTEROFF
350
3B
  3
LINEPATTERN
350
38
  3
OVERHANGOFF
350
3C
  3
REALISTIC
350
33
  3
SHADED
350
42
  3
SHADED_WITH_EDGES
350
41
  3
SHADES_OF_GRAY
350
3E
  3
SKETCHY
350
3F
  3
THICKEN
350
37
  3
WIREFRAME
350
30
  3
X-RAY
350
40
  0
DICTIONARY
  5
276
102
{ACAD_REACTORS
330
C
102
}
330
C
100
AcDbDictionary
  3
CEPSNID
350
280
  3
CEPSNTYPE
350
27F
  3
DIMSTYLEDATA
350
296
  3
FINGERPRINTGUID
350
281
  3
HYPERLINKBASE
350
279
  3
INSUNITS
350
27E
  3
LAYOUTDICT
350
27B
  3
LWETCUNION
350
27D
  3
PLOTSETDICT
350
27C
  3
PSVPSCALE
350
283
  3
PUCSBASE
350
286
  3
PUCSORGBACK
350
28C
  3
PUCSORGBOTTOM
350
288
  3
PUCSORGFRONT
350
28B
  3
PUCSORGLEFT
350
289
  3
PUCSORGRIGHT
350
28A
  3
PUCSORGTOP
350
287
  3
PUCSORTHOREF
350
284
  3
PUCSORTHOVIEW
350
285
  3
STYLESHEET
350
27A
  3
TSTACKALIGN
350
277
  3
TSTACKSIZE
350
278
  3
UCSBASE
350
28F
  3
UCSORGBACK
350
295
  3
UCSORGBOTTOM
350
291
  3
UCSORGFRONT
350
294
  3
UCSORGLEFT
350
292
  3
UCSORGRIGHT
350
293
  3
UCSORGTOP
350
290
  3
UCSORTHOREF
350
28D
  3
UCSORTHOVIEW
350
28E
  3
VERSIONGUID
350
282
  0
DICTIONARY
  5
297
102
{ACAD_REACTORS
330
C
102
}
330
C
100
AcDbDictionary
  3
CANNOSCALE
350
2A0
  3
CMLEADERSTYLE
350
299
  3
CTABLESTYLE
350
298
  3
DIMASSOC
350
29C
  3
HIDETEXT
350
29D
  3
MSLTSCALE
350
2A1
  0
XRECORD
  5
29F
102
{ACAD_REACTORS
330
29E
102
}
330
29E
100
AcDbXrecord
102
VTR_0.000_0.000_1.000_1.000_VISUALSTYLE
340
2F
102
VTR_0.000_0.000_1.000_1.000_GRIDDISPLAY
 70
     3
102
VTR_0.000_0.000_1.000_1.000_GRIDMAJOR
 70
     5
102
VTR_0.000_0.000_1.000_1.000_DEFAULTLIGHTING
280
     1
102
VTR_0.000_0.000_1.000_1.000_DEFAULTLIGHTINGTYPE
 70
     1
102
VTR_0.000_0.000_1.000_1.000_BRIGHTNESS
141
0.0
102
VTR_0.000_0.000_1.000_1.000_CONTRAST
142
0.0
  0
MATERIAL
  5
45
102
{ACAD_REACTORS
330
43
102
}
102
{ACAD_XDICTIONARY
360
2A4
102
}
330
43
100
AcDbMaterial
  1
BYBLOCK
  0
MATERIAL
  5
44
102
{ACAD_REACTORS
330
43
102
}
102
{ACAD_XDICTIONARY
360
2A2
102
}
330
43
100
AcDbMaterial
  1
BYLAYER
  0
MATERIAL
  5
46
102
{ACAD_REACTORS
330
43
102
}
102
{ACAD_XDICTIONARY
360
2A6
102
}
330
43
100
AcDbMaterial
  1
GLOBAL
  0
ACAD_PROXY_OBJECT
  5
6C
102
{ACAD_REACTORS
330
6B
102
}
330
6B
100
AcDbProxyObject
 90
      499
 91
      505
 93
      610
310
40901902A4063FBFFFFFE056BD1B81E855B9FC0AD7A3703D0AD73F4214DD185B99185C9900AD7A3703D0AC73F90141901A02B5E8DC0F42B1CFC02B5E8DC0F42B1CFE5764000000000000300FC0
340
14
340
0
340
11
340
0
 94
        0
1001
ACAD_MLEADERVER
1070
     2
  0
MLINESTYLE
  5
18
102
{ACAD_REACTORS
330
17
102
}
330
17
100
AcDbMlineStyle
  2
Standard
 70
     0
  3

 62
   256
 51
90.0
 52
90.0
 71
     2
 49
0.5
 62
   256
  6
BYLAYER
 49
-0.5
 62
   256
  6
BYLAYER
  0
ACAD_PROXY_OBJECT
  5
48
102
{ACAD_REACTORS
330
47
102
}
330
47
100
AcDbProxyObject
 90
      499
 91
      503
 93
       41
310
903313A31580
  0
ACAD_PROXY_OBJECT
  5
49
102
{ACAD_REACTORS
330
47
102
}
330
47
100
AcDbProxyObject
 90
      499
 91
      503
 93
      105
310
903313A324000000000000004000
  0
ACAD_PROXY_OBJECT
  5
4A
102
{ACAD_REACTORS
330
47
102
}
330
47
100
AcDbProxyObject
 90
      499
 91
      503
 93
      105
310
903313A344000000000000104000
  0
ACAD_PROXY_OBJECT
  5
4B
102
{ACAD_REACTORS
330
47
102
}
330
47
100
AcDbProxyObject
 90
      499
 91
      503
 93
      105
310
903313A354000000000000144000
  0
ACAD_PROXY_OBJECT
  5
4C
102
{ACAD_REACTORS
330
47
102
}
330
47
100
AcDbProxyObject
 90
      499
 91
      503
 93
      105
310
903313A384000000000000204000
  0
ACAD_PROXY_OBJECT
  5
4D
102
{ACAD_REACTORS
330
47
102
}
330
47
100
AcDbProxyObject
 90
      499
 91
      503
 93
      113
310
904313A31304000000000000244000
  0
ACAD_PROXY_OBJECT
  5
4E
102
{ACAD_REACTORS
330
47
102
}
330
47
100
AcDbProxyObject
 90
      499
 91
      503
 93
      113
310
904313A31364000000000000304000
  0
ACAD_PROXY_OBJECT
  5
4F
102
{ACAD_REACTORS
330
47
102
}
330
47
100
AcDbProxyObject
 90
      499
 91
      503
 93
      113
310
904313A32304000000000000344000
  0
ACAD_PROXY_OBJECT
  5
50
102
{ACAD_REACTORS
330
47
102
}
330
47
100
AcDbProxyObject
 90
      499
 91
      503
 93
      113
310
904313A333040000000000003E4000
  0
ACAD_PROXY_OBJECT
  5
51
102
{ACAD_REACTORS
330
47
102
}
330
47
100
AcDbProxyObject
 90
      499
 91
      503
 93
      113
310
904313A34304000000000000444000
  0
ACAD_PROXY_OBJECT
  5
52
102
{ACAD_REACTORS
330
47
102
}
330
47
100
AcDbProxyObject
 90
      499
 91
      503
 93
      113
310
904313A35304000000000000494000
  0
ACAD_PROXY_OBJECT
  5
53
102
{ACAD_REACTORS
330
47
102
}
330
47
100
AcDbProxyObject
 90
      499
 91
      503
 93
      121
310
905313A3130304000000000000594000
  0
ACAD_PROXY_OBJECT
  5
54
102
{ACAD_REACTORS
330
47
102
}
330
47
100
AcDbProxyObject
 90
      499
 91
      503
 93
      105
310
903323A310000000000000010100
  0
ACAD_PROXY_OBJECT
  5
55
102
{ACAD_REACTORS
330
47
102
}
330
47
100
AcDbProxyObject
 90
      499
 91
      503
 93
      105
310
903343A310000000000000410100
  0
ACAD_PROXY_OBJECT
  5
56
102
{ACAD_REACTORS
330
47
102
}
330
47
100
AcDbProxyObject
 90
      499
 91
      503
 93
      105
310
903383A310000000000000810100
  0
ACAD_PROXY_OBJECT
  5
57
102
{ACAD_REACTORS
330
47
102
}
330
47
100
AcDbProxyObject
 90
      499
 91
      503
 93
      113
310
90431303A310000000000000910100
  0
ACAD_PROXY_OBJECT
  5
58
102
{ACAD_REACTORS
330
47
102
}
330
47
100
AcDbProxyObject
 90
      499
 91
      503
 93
      121
310
9053130303A310000000000001650100
  0
ACAD_PROXY_OBJECT
  5
59
102
{ACAD_REACTORS
330
47
102
}
330
47
100
AcDbProxyObject
 90
      499
 91
      503
 93
      257
310
90E312F31323822203D2031272D3022000000000000200FC000000000000284000
  0
ACAD_PROXY_OBJECT
  5
5A
102
{ACAD_REACTORS
330
47
102
}
330
47
100
AcDbProxyObject
 90
      499
 91
      503
 93
      249
310
90D312F363422203D2031272D3022000000000000240FC000000000000284000
  0
ACAD_PROXY_OBJECT
  5
5B
102
{ACAD_REACTORS
330
47
102
}
330
47
100
AcDbProxyObject
 90
      499
 91
      503
 93
      249
310
90D312F333222203D2031272D3022000000000000280FC000000000000284000
  0
ACAD_PROXY_OBJECT
  5
5C
102
{ACAD_REACTORS
330
47
102
}
330
47
100
AcDbProxyObject
 90
      499
 91
      503
 93
      249
310
90D312F313622203D2031272D30220000000000002C0FC000000000000284000
  0
ACAD_PROXY_OBJECT
  5
5D
102
{ACAD_REACTORS
330
47
102
}
330
47
100
AcDbProxyObject
 90
      499
 91
      503
 93
      249
310
90D332F333222203D2031272D30220000000000002E0FC000000000000284000
  0
ACAD_PROXY_OBJECT
  5
5E
102
{ACAD_REACTORS
330
47
102
}
330
47
100
AcDbProxyObject
 90
      499
 91
      503
 93
      241
310
90C312F3822203D2031272D3022000000000000300FC000000000000284000
  0
ACAD_PROXY_OBJECT
  5
5F
102
{ACAD_REACTORS
330
47
102
}
330
47
100
AcDbProxyObject
 90
      499
 91
      503
 93
      249
310
90D332F313622203D2031272D3022000000000000320FC000000000000284000
  0
ACAD_PROXY_OBJECT
  5
60
102
{ACAD_REACTORS
330
47
102
}
330
47
100
AcDbProxyObject
 90
      499
 91
      503
 93
      241
310
90C312F3422203D2031272D3022000000000000340FC000000000000284000
  0
ACAD_PROXY_OBJECT
  5
61
102
{ACAD_REACTORS
330
47
102
}
330
47
100
AcDbProxyObject
 90
      499
 91
      503
 93
      241
310
90C332F3822203D2031272D3022000000000000360FC000000000000284000
  0
ACAD_PROXY_OBJECT
  5
62
102
{ACAD_REACTORS
330
47
102
}
330
47
100
AcDbProxyObject
 90
      499
 91
      503
 93
      241
310
90C312F3222203D2031272D3022000000000000380FC000000000000284000
  0
ACAD_PROXY_OBJECT
  5
63
102
{ACAD_REACTORS
330
47
102
}
330
47
100
AcDbProxyObject
 90
      499
 91
      503
 93
      241
310
90C332F3422203D2031272D30220000000000003A0FC000000000000284000
  0
ACAD_PROXY_OBJECT
  5
64
102
{ACAD_REACTORS
330
47
102
}
330
47
100
AcDbProxyObject
 90
      499
 91
      503
 93
      161
310
90A3122203D2031272D30224000000000000284000
  0
ACAD_PROXY_OBJECT
  5
65
102
{ACAD_REACTORS
330
47
102
}
330
47
100
AcDbProxyObject
 90
      499
 91
      503
 93
      257
310
90E312D312F3222203D2031272D30220000000000003E0FC000000000000284000
  0
ACAD_PROXY_OBJECT
  5
66
102
{ACAD_REACTORS
330
47
102
}
330
47
100
AcDbProxyObject
 90
      499
 91
      503
 93
      225
310
90A3322203D2031272D302200000000000002100000000000000284000
  0
ACAD_PROXY_OBJECT
  5
67
102
{ACAD_REACTORS
330
47
102
}
330
47
100
AcDbProxyObject
 90
      499
 91
      503
 93
      225
310
90A3622203D2031272D302200000000000006100000000000000284000
  0
ACAD_PROXY_OBJECT
  5
68
102
{ACAD_REACTORS
330
47
102
}
330
47
100
AcDbProxyObject
 90
      499
 91
      503
 93
      249
310
90D31272D3022203D2031272D30220000000000000A100000000000000284000
  0
ACAD_PROXY_OBJECT
  5
2F
102
{ACAD_REACTORS
330
2A
102
}
330
2A
100
AcDbProxyObject
 90
      499
 91
      501
 93
      436
310
42CC9915DA5C99599C985B595049028333333333333E33F0000000000000F90107901411070040501600405405064090741402480A0340
1001
ACAD
1000
AcDbSavedByObjectVersion
1070
     0
  0
ACAD_PROXY_OBJECT
  5
32
102
{ACAD_REACTORS
330
2A
102
}
330
2A
100
AcDbProxyObject
 90
      499
 91
      501
 93
      388
310
4150985CDA58D07406404333333333333E33F0000000000000F90107A41107004050150841D405064090741402480A0350
1001
ACAD
1000
AcDbSavedByObjectVersion
1070
     0
  0
ACAD_PROXY_OBJECT
  5
36
102
{ACAD_REACTORS
330
2A
102
}
330
2A
100
AcDbProxyObject
 90
      499
 91
      501
 93
      428
310
42109C9A59DA1D195B90C409028333333333333E33F0000000000000F9010790141107004050150841D405064090741402480A029950
1001
ACAD
1000
AcDbSavedByObjectVersion
1070
     0
  0
ACAD_PROXY_OBJECT
  5
3A
102
{ACAD_REACTORS
330
2A
102
}
330
2A
100
AcDbProxyObject
 90
      499
 91
      501
 93
      452
310
42D0DBDB1BDC90DA185B99D95104090240C333333333333E33F0000000000000F90108901411070040501508421405064090741402480A0350
1001
ACAD
1000
AcDbSavedByObjectVersion
1070
     0
  0
ACAD_PROXY_OBJECT
  5
34
102
{ACAD_REACTORS
330
2A
102
}
330
2A
100
AcDbProxyObject
 90
      499
 91
      501
 93
      500
310
4290DBDB98D95C1D1D585B10940D028333333333333E33F0000000000000F90107902409070040501000000000018199010841D405064090740C02480A0340
1001
ACAD
1000
AcDbSavedByObjectVersion
1070
     0
  0
ACAD_PROXY_OBJECT
  5
35
102
{ACAD_REACTORS
330
2A
102
}
330
2A
100
AcDbProxyObject
 90
      499
 91
      501
 93
      412
310
40D11A5B50B409028333333333333E33F0000000000000F9010790141107004050150841D405064090741402480A02677FFFFFD0
1001
ACAD
1000
AcDbSavedByObjectVersion
1070
     0
  0
ACAD_PROXY_OBJECT
  5
3D
102
{ACAD_REACTORS
330
2A
102
}
330
2A
100
AcDbProxyObject
 90
      499
 91
      501
 93
      452
310
43115919D950DBDB1BDC93D999916409028333333333333E33F0000000000000F9010790141107004050150841D405064090741402480A0350
1001
ACAD
1000
AcDbSavedByObjectVersion
1070
     0
  0
ACAD_PROXY_OBJECT
  5
39
102
{ACAD_REACTORS
330
2A
102
}
330
2A
100
AcDbProxyObject
 90
      499
 91
      501
 93
      444
310
42D19858D95C185D1D195C9B90F409028333333333333E33F0000000000000F9010790141107004050150841D405064090741402480A0350
1001
ACAD
1000
AcDbSavedByObjectVersion
1070
     0
  0
ACAD_PROXY_OBJECT
  5
2B
102
{ACAD_REACTORS
330
2A
102
}
330
2A
100
AcDbProxyObject
 90
      499
 91
      501
 93
      380
310
41119B185D240901404333333333333E33F0000000000000F9010740A907004050150841D405064090741402480A1B50
1001
ACAD
1000
AcDbSavedByObjectVersion
1070
     0
  0
ACAD_PROXY_OBJECT
  5
2C
102
{ACAD_REACTORS
330
2A
102
}
330
2A
100
AcDbProxyObject
 90
      499
 91
      501
 93
      468
310
43519B185D15DA5D1A115919D95CD0140901404333333333333E33F0000000000000F90107409019070040501600405405064090741402480A1B50
1001
ACAD
1000
AcDbSavedByObjectVersion
1070
     0
  0
ACAD_PROXY_OBJECT
  5
2D
102
{ACAD_REACTORS
330
2A
102
}
330
2A
100
AcDbProxyObject
 90
      499
 91
      501
 93
      404
310
41D1DBDD5C985D5910240902404333333333333E33F0000000000000F9010740A9070040501641D405064090741402480A1B50
1001
ACAD
1000
AcDbSavedByObjectVersion
1070
     0
  0
ACAD_PROXY_OBJECT
  5
2E
102
{ACAD_REACTORS
330
2A
102
}
330
2A
100
AcDbProxyObject
 90
      499
 91
      501
 93
      492
310
4411DBDD5C985D5915DA5D1A115919D95CD0340902404333333333333E33F0000000000000F90107409019070040501600405405064090741402480A1B50
1001
ACAD
1000
AcDbSavedByObjectVersion
1070
     0
  0
ACAD_PROXY_OBJECT
  5
31
102
{ACAD_REACTORS
330
2A
102
}
330
2A
100
AcDbProxyObject
 90
      499
 91
      501
 93
      476
310
41921A5919195B90640502408333333333333E33F0000000000000F901079024090700405020000000000001110200405405064090740C02480A0340
1001
ACAD
1000
AcDbSavedByObjectVersion
1070
     0
  0
ACAD_PROXY_OBJECT
  5
3B
102
{ACAD_REACTORS
330
2A
102
}
330
2A
100
AcDbProxyObject
 90
      499
 91
      501
 93
      428
310
42529A5D1D195C93D999914409028333333333333E33F0000000000000F9010790141107004050150A41D405064090741402480A0350
1001
ACAD
1000
AcDbSavedByObjectVersion
1070
     0
  0
ACAD_PROXY_OBJECT
  5
38
102
{ACAD_REACTORS
330
2A
102
}
330
2A
100
AcDbProxyObject
 90
      499
 91
      501
 93
      444
310
42D31A5B995C185D1D195C9B90E409028333333333333E33F0000000000000F9010790141107004050750841D405064090741402483A0350
1001
ACAD
1000
AcDbSavedByObjectVersion
1070
     0
  0
ACAD_PROXY_OBJECT
  5
3C
102
{ACAD_REACTORS
330
2A
102
}
330
2A
100
AcDbProxyObject
 90
      499
 91
      501
 93
      444
310
42D3DD995C9A185B99D3D999915409028333333333333E33F0000000000000F9010790141107004050150941D405064090741402480A0350
1001
ACAD
1000
AcDbSavedByObjectVersion
1070
     0
  0
ACAD_PROXY_OBJECT
  5
33
102
{ACAD_REACTORS
330
2A
102
}
330
2A
100
AcDbProxyObject
 90
      499
 91
      501
 93
      428
310
425499585B1A5CDD1A58D08409038333333333333E33F0000000000000F9010740A907004050150800405405064090740C02480A1B40
1001
ACAD
1000
AcDbSavedByObjectVersion
1070
     0
  0
ACAD_PROXY_OBJECT
  5
42
102
{ACAD_REACTORS
330
2A
102
}
330
2A
100
AcDbProxyObject
 90
      499
 91
      501
 93
      420
310
4194DA1859195911B40902404333333333333E33F0000000000000F9010740A41107004050150800405405064090840C02480A0B40
1001
ACAD
1000
AcDbSavedByObjectVersion
1070
     0
  0
ACAD_PROXY_OBJECT
  5
41
102
{ACAD_REACTORS
330
2A
102
}
330
2A
100
AcDbProxyObject
 90
      499
 91
      501
 93
      516
310
4454DA18591959081DDA5D1A08195919D95CD1A40902404333333333333E33F0000000000000F901074090142907004050250800405405064090740C02480A0B40
1001
ACAD
1000
AcDbSavedByObjectVersion
1070
     0
  0
ACAD_PROXY_OBJECT
  5
3E
102
{ACAD_REACTORS
330
2A
102
}
330
2A
100
AcDbProxyObject
 90
      499
 91
      501
 93
      532
310
4394DA1859195CC81BD98811DC985E5174090240C333333333333E33F0000000000000F901079024090741D01000000000000111010841D405064090740C02480A0340
1001
ACAD
1000
AcDbSavedByObjectVersion
1070
     0
  0
ACAD_PROXY_OBJECT
  5
3F
102
{ACAD_REACTORS
330
2A
102
}
330
2A
100
AcDbProxyObject
 90
      499
 91
      501
 93
      476
310
41D4DAD95D18DA1E51840502408333333333333E33F0000000000000F901079024090741D01000000000000111010B41D405064090741802480A0340
1001
ACAD
1000
AcDbSavedByObjectVersion
1070
     0
  0
ACAD_PROXY_OBJECT
  5
37
102
{ACAD_REACTORS
330
2A
102
}
330
2A
100
AcDbProxyObject
 90
      499
 91
      501
 93
      412
310
41D51A1A58DAD95B90D409028333333333333E33F0000000000000F9010790141107004050150C41D405064090741402480A0350
1001
ACAD
1000
AcDbSavedByObjectVersion
1070
     0
  0
ACAD_PROXY_OBJECT
  5
30
102
{ACAD_REACTORS
330
2A
102
}
330
2A
100
AcDbProxyObject
 90
      499
 91
      501
 93
      420
310
4255DA5C99599C985B595059028333333333333E33F0000000000000F90107901411070040501600405405064090740C02480A0340
1001
ACAD
1000
AcDbSavedByObjectVersion
1070
     0
  0
ACAD_PROXY_OBJECT
  5
40
102
{ACAD_REACTORS
330
2A
102
}
330
2A
100
AcDbProxyObject
 90
      499
 91
      501
 93
      404
310
41560B54985E51940902404000000000000E03F0000000000000F9010740501907004050150841D405064090740C02480A1B40
1001
ACAD
1000
AcDbSavedByObjectVersion
1070
     0
  0
XRECORD
  5
280
102
{ACAD_REACTORS
330
276
102
}
330
276
100
AcDbXrecord
340
0
  0
XRECORD
  5
27F
102
{ACAD_REACTORS
330
276
102
}
330
276
100
AcDbXrecord
 90
        0
  0
XRECORD
  5
296
102
{ACAD_REACTORS
330
276
102
}
330
276
100
AcDbXrecord
1000
DSTYLE
1002
{
1070
   179
 70
     2
1070
   171
 70
     2
1070
   143
 40
25.4
1070
   274
 70
     2
1070
    41
 40
3.0
1070
   141
 40
0.09
1070
    43
 40
0.38
1070
   278
 70
    46
1070
    44
 40
1.5
1070
    42
 40
0.0625
1070
   147
 40
1.5
1070
   272
 70
     4
1070
    73
 70
     1
1070
   172
 70
     0
1070
    74
 70
     1
1070
   283
 70
     1
1070
   340
340
6E
1070
   140
 40
3.0
1070
   284
 70
     0
1070
    78
 70
     0
1002
}
  0
XRECORD
  5
281
102
{ACAD_REACTORS
330
276
102
}
330
276
100
AcDbXrecord
  1
{699318CC-AA94-44C1-856B-F88FAFF9D82B}
  0
XRECORD
  5
279
102
{ACAD_REACTORS
330
276
102
}
330
276
100
AcDbXrecord
  1

  0
XRECORD
  5
27E
102
{ACAD_REACTORS
330
276
102
}
330
276
100
AcDbXrecord
 90
        4
  0
XRECORD
  5
27B
102
{ACAD_REACTORS
330
276
102
}
330
276
100
AcDbXrecord
340
1A
  0
XRECORD
  5
27D
102
{ACAD_REACTORS
330
276
102
}
330
276
100
AcDbXrecord
 90
    10269
  0
XRECORD
  5
27C
102
{ACAD_REACTORS
330
276
102
}
330
276
100
AcDbXrecord
340
19
  0
XRECORD
  5
283
102
{ACAD_REACTORS
330
276
102
}
330
276
100
AcDbXrecord
 40
0.0
  0
XRECORD
  5
286
102
{ACAD_REACTORS
330
276
102
}
330
276
100
AcDbXrecord
340
0
  0
XRECORD
  5
28C
102
{ACAD_REACTORS
330
276
102
}
330
276
100
AcDbXrecord
 10
0.0
 20
0.0
 30
0.0
  0
XRECORD
  5
288
102
{ACAD_REACTORS
330
276
102
}
330
276
100
AcDbXrecord
 10
0.0
 20
0.0
 30
0.0
  0
XRECORD
  5
28B
102
{ACAD_REACTORS
330
276
102
}
330
276
100
AcDbXrecord
 10
0.0
 20
0.0
 30
0.0
  0
XRECORD
  5
289
102
{ACAD_REACTORS
330
276
102
}
330
276
100
AcDbXrecord
 10
0.0
 20
0.0
 30
0.0
  0
XRECORD
  5
28A
102
{ACAD_REACTORS
330
276
102
}
330
276
100
AcDbXrecord
 10
0.0
 20
0.0
 30
0.0
  0
XRECORD
  5
287
102
{ACAD_REACTORS
330
276
102
}
330
276
100
AcDbXrecord
 10
0.0
 20
0.0
 30
0.0
  0
XRECORD
  5
284
102
{ACAD_REACTORS
330
276
102
}
330
276
100
AcDbXrecord
340
0
  0
XRECORD
  5
285
102
{ACAD_REACTORS
330
276
102
}
330
276
100
AcDbXrecord
 70
     0
  0
XRECORD
  5
27A
102
{ACAD_REACTORS
330
276
102
}
330
276
100
AcDbXrecord
  1

  0
XRECORD
  5
277
102
{ACAD_REACTORS
330
276
102
}
330
276
100
AcDbXrecord
 90
        1
  0
XRECORD
  5
278
102
{ACAD_REACTORS
330
276
102
}
330
276
100
AcDbXrecord
 90
       70
  0
XRECORD
  5
28F
102
{ACAD_REACTORS
330
276
102
}
330
276
100
AcDbXrecord
340
0
  0
XRECORD
  5
295
102
{ACAD_REACTORS
330
276
102
}
330
276
100
AcDbXrecord
 10
0.0
 20
0.0
 30
0.0
  0
XRECORD
  5
291
102
{ACAD_REACTORS
330
276
102
}
330
276
100
AcDbXrecord
 10
0.0
 20
0.0
 30
0.0
  0
XRECORD
  5
294
102
{ACAD_REACTORS
330
276
102
}
330
276
100
AcDbXrecord
 10
0.0
 20
0.0
 30
0.0
  0
XRECORD
  5
292
102
{ACAD_REACTORS
330
276
102
}
330
276
100
AcDbXrecord
 10
0.0
 20
0.0
 30
0.0
  0
XRECORD
  5
293
102
{ACAD_REACTORS
330
276
102
}
330
276
100
AcDbXrecord
 10
0.0
 20
0.0
 30
0.0
  0
XRECORD
  5
290
102
{ACAD_REACTORS
330
276
102
}
330
276
100
AcDbXrecord
 10
0.0
 20
0.0
 30
0.0
  0
XRECORD
  5
28D
102
{ACAD_REACTORS
330
276
102
}
330
276
100
AcDbXrecord
340
0
  0
XRECORD
  5
28E
102
{ACAD_REACTORS
330
276
102
}
330
276
100
AcDbXrecord
 70
     0
  0
XRECORD
  5
282
102
{ACAD_REACTORS
330
276
102
}
330
276
100
AcDbXrecord
  1
{FAEB1C32-E019-11D5-929B-00C0DF256EC4}
  0
DICTIONARYVAR
  5
2A0
102
{ACAD_REACTORS
330
297
102
}
330
297
100
DictionaryVariables
280
     0
  1
1:1
  0
DICTIONARYVAR
  5
299
102
{ACAD_REACTORS
330
297
102
}
330
297
100
DictionaryVariables
280
     0
  1
Standard
  0
DICTIONARYVAR
  5
298
102
{ACAD_REACTORS
330
297
102
}
330
297
100
DictionaryVariables
280
     0
  1
Standard
  0
DICTIONARYVAR
  5
29C
102
{ACAD_REACTORS
330
297
102
}
330
297
100
DictionaryVariables
280
     0
  1
2
  0
DICTIONARYVAR
  5
29D
102
{ACAD_REACTORS
330
297
102
}
330
297
100
DictionaryVariables
280
     0
  1
1
  0
DICTIONARYVAR
  5
2A1
102
{ACAD_REACTORS
330
297
102
}
330
297
100
DictionaryVariables
280
     0
  1
1
  0
DICTIONARY
  5
2A4
330
45
100
AcDbDictionary
280
     1
  3
ACAD_XREC_ROUNDTRIP
360
2A5
  0
DICTIONARY
  5
2A2
330
44
100
AcDbDictionary
280
     1
  3
ACAD_XREC_ROUNDTRIP
360
2A3
  0
DICTIONARY
  5
2A6
330
46
100
AcDbDictionary
280
     1
  3
ACAD_XREC_ROUNDTRIP
360
2A7
  0
XRECORD
  5
2A5
102
{ACAD_REACTORS
330
2A4
102
}
330
2A4
100
AcDbXrecord
102
MATERIAL
148
0.0
149
0.0
149
0.0
 93
        0
 94
      127
282
     0
 72
     1
 77
     1
171
     1
175
     1
179
     1
273
     0
  0
XRECORD
  5
2A3
102
{ACAD_REACTORS
330
2A2
102
}
330
2A2
100
AcDbXrecord
102
MATERIAL
148
0.0
149
0.0
149
0.0
 93
        0
 94
      127
282
     0
 72
     1
 77
     1
171
     1
175
     1
179
     1
273
     0
  0
XRECORD
  5
2A7
102
{ACAD_REACTORS
330
2A6
102
}
330
2A6
100
AcDbXrecord
102
MATERIAL
148
0.0
149
0.0
149
0.0
 93
        0
 94
      127
282
     0
 72
     1
 77
     1
171
     1
175
     1
179
     1
273
     0
  0
ENDSEC
  0
EOF
