  0
SECTION
  2
HEADER
  9
$ACADVER
  1
AC1014
  9
$ACADMAINTVER
 70
     9
  9
$DWGCODEPAGE
  3
ANSI_932
  9
$INSBASE
 10
0.0
 20
0.0
 30
0.0
  9
$EXTMIN
 10
-297.1522974668266
 20
317.2125109416031
 30
0.0
  9
$EXTMAX
 10
488.0
 20
565.2033803838895
 30
0.0
  9
$LIMMIN
 10
0.0
 20
0.0
  9
$LIMMAX
 10
12.0
 20
9.0
  9
$ORTHOMODE
 70
     0
  9
$REGENMODE
 70
     1
  9
$FILLMODE
 70
     1
  9
$QTEXTMODE
 70
     0
  9
$MIRRTEXT
 70
     1
  9
$DRAGMODE
 70
     2
  9
$LTSCALE
 40
1.0
  9
$OSMODE
 70
    37
  9
$ATTMODE
 70
     1
  9
$TEXTSIZE
 40
0.2
  9
$TRACEWID
 40
0.05
  9
$TEXTSTYLE
  7
STANDARD
  9
$CLAYER
  8
0
  9
$CELTYPE
  6
BYLAYER
  9
$CECOLOR
 62
   256
  9
$CELTSCALE
 40
1.0
  9
$DELOBJ
 70
     1
  9
$DISPSILH
 70
     0
  9
$DIMSCALE
 40
1.0
  9
$DIMASZ
 40
3.0
  9
$DIMEXO
 40
0.0625
  9
$DIMDLI
 40
0.38
  9
$DIMRND
 40
0.0
  9
$DIMDLE
 40
0.0
  9
$DIMEXE
 40
1.5
  9
$DIMTP
 40
0.0
  9
$DIMTM
 40
0.0
  9
$DIMTXT
 40
3.0
  9
$DIMCEN
 40
0.09
  9
$DIMTSZ
 40
0.0
  9
$DIMTOL
 70
     0
  9
$DIMLIM
 70
     0
  9
$DIMTIH
 70
     1
  9
$DIMTOH
 70
     1
  9
$DIMSE1
 70
     0
  9
$DIMSE2
 70
     0
  9
$DIMTAD
 70
     1
  9
$DIMZIN
 70
     0
  9
$DIMBLK
  1

  9
$DIMASO
 70
     1
  9
$DIMSHO
 70
     1
  9
$DIMPOST
  1

  9
$DIMAPOST
  1

  9
$DIMALT
 70
     0
  9
$DIMALTD
 70
     2
  9
$DIMALTF
 40
25.4
  9
$DIMLFAC
 40
1.0
  9
$DIMTOFL
 70
     0
  9
$DIMTVP
 40
0.0
  9
$DIMTIX
 70
     0
  9
$DIMSOXD
 70
     0
  9
$DIMSAH
 70
     0
  9
$DIMBLK1
  1

  9
$DIMBLK2
  1

  9
$DIMSTYLE
  2
STANDARD
  9
$DIMCLRD
 70
     0
  9
$DIMCLRE
 70
     0
  9
$DIMCLRT
 70
     0
  9
$DIMTFAC
 40
1.0
  9
$DIMGAP
 40
1.5
  9
$DIMJUST
 70
     0
  9
$DIMSD1
 70
     0
  9
$DIMSD2
 70
     0
  9
$DIMTOLJ
 70
     1
  9
$DIMTZIN
 70
     0
  9
$DIMALTZ
 70
     0
  9
$DIMALTTZ
 70
     0
  9
$DIMFIT
 70
     3
  9
$DIMUPT
 70
     0
  9
$DIMUNIT
 70
     2
  9
$DIMDEC
 70
     2
  9
$DIMTDEC
 70
     4
  9
$DIMALTU
 70
     2
  9
$DIMALTTD
 70
     2
  9
$DIMTXSTY
  7
ＭＳ_ゴシック
  9
$DIMAUNIT
 70
     0
  9
$LUNITS
 70
     2
  9
$LUPREC
 70
     4
  9
$SKETCHINC
 40
0.1
  9
$FILLETRAD
 40
0.5
  9
$AUNITS
 70
     0
  9
$AUPREC
 70
     0
  9
$MENU
  1
.
  9
$ELEVATION
 40
0.0
  9
$PELEVATION
 40
0.0
  9
$THICKNESS
 40
0.0
  9
$LIMCHECK
 70
     0
  9
$CHAMFERA
 40
0.0
  9
$CHAMFERB
 40
0.0
  9
$CHAMFERC
 40
0.0
  9
$CHAMFERD
 40
0.0
  9
$SKPOLY
 70
     0
  9
$TDCREATE
 40
2460202.623179815
  9
$TDUPDATE
 40
2460202.623180151
  9
$TDINDWG
 40
0.0000000116
  9
$TDUSRTIMER
 40
0.0000000116
  9
$USRTIMER
 70
     1
  9
$ANGBASE
 50
0.0
  9
$ANGDIR
 70
     0
  9
$PDMODE
 70
     0
  9
$PDSIZE
 40
0.0
  9
$PLINEWID
 40
0.0
  9
$COORDS
 70
     1
  9
$SPLFRAME
 70
     0
  9
$SPLINETYPE
 70
     6
  9
$SPLINESEGS
 70
     8
  9
$ATTDIA
 70
     0
  9
$ATTREQ
 70
     1
  9
$HANDLING
 70
     1
  9
$HANDSEED
  5
36C
  9
$SURFTAB1
 70
     6
  9
$SURFTAB2
 70
     6
  9
$SURFTYPE
 70
     6
  9
$SURFU
 70
     6
  9
$SURFV
 70
     6
  9
$UCSNAME
  2

  9
$UCSORG
 10
0.0
 20
0.0
 30
0.0
  9
$UCSXDIR
 10
1.0
 20
0.0
 30
0.0
  9
$UCSYDIR
 10
0.0
 20
1.0
 30
0.0
  9
$PUCSNAME
  2

  9
$PUCSORG
 10
0.0
 20
0.0
 30
0.0
  9
$PUCSXDIR
 10
1.0
 20
0.0
 30
0.0
  9
$PUCSYDIR
 10
0.0
 20
1.0
 30
0.0
  9
$USERI1
 70
     0
  9
$USERI2
 70
     0
  9
$USERI3
 70
     0
  9
$USERI4
 70
     0
  9
$USERI5
 70
     0
  9
$USERR1
 40
0.0
  9
$USERR2
 40
0.0
  9
$USERR3
 40
0.0
  9
$USERR4
 40
0.0
  9
$USERR5
 40
0.0
  9
$WORLDVIEW
 70
     1
  9
$SHADEDGE
 70
     3
  9
$SHADEDIF
 70
    70
  9
$TILEMODE
 70
     1
  9
$MAXACTVP
 70
    64
  9
$PINSBASE
 10
0.0
 20
0.0
 30
0.0
  9
$PLIMCHECK
 70
     0
  9
$PEXTMIN
 10
1.000000000000000E+20
 20
1.000000000000000E+20
 30
1.000000000000000E+20
  9
$PEXTMAX
 10
-1.000000000000000E+20
 20
-1.000000000000000E+20
 30
-1.000000000000000E+20
  9
$PLIMMIN
 10
0.0
 20
0.0
  9
$PLIMMAX
 10
12.0
 20
9.0
  9
$UNITMODE
 70
     0
  9
$VISRETAIN
 70
     1
  9
$PLINEGEN
 70
     0
  9
$PSLTSCALE
 70
     1
  9
$TREEDEPTH
 70
  3020
  9
$PICKSTYLE
 70
     1
  9
$CMLSTYLE
  2
STANDARD
  9
$CMLJUST
 70
     0
  9
$CMLSCALE
 40
1.0
  9
$PROXYGRAPHICS
 70
     1
  9
$MEASUREMENT
 70
     1
  0
ENDSEC
  0
SECTION
  2
CLASSES
  0
CLASS
  1
ACDBDICTIONARYWDFLT
  2
AcDbDictionaryWithDefault
  3
ObjectDBX Classes
 90
        0
280
     0
281
     0
  0
CLASS
  1
VISUALSTYLE
  2
AcDbVisualStyle
  3
ObjectDBX Classes
 90
     4095
280
     0
281
     0
  0
CLASS
  1
MATERIAL
  2
AcDbMaterial
  3
ObjectDBX Classes
 90
     1153
280
     0
281
     0
  0
CLASS
  1
SCALE
  2
AcDbScale
  3
ObjectDBX Classes
 90
     1153
280
     0
281
     0
  0
CLASS
  1
TABLESTYLE
  2
AcDbTableStyle
  3
ObjectDBX Classes
 90
     4095
280
     0
281
     0
  0
CLASS
  1
MLEADERSTYLE
  2
AcDbMLeaderStyle
  3
ACDB_MLEADERSTYLE_CLASS
 90
     4095
280
     0
281
     0
  0
CLASS
  1
SUN
  2
AcDbSun
  3
SCENEOE
 90
     1153
280
     0
281
     0
  0
CLASS
  1
DICTIONARYVAR
  2
AcDbDictionaryVar
  3
ObjectDBX Classes
 90
        0
280
     0
281
     0
  0
CLASS
  1
XRECORD
  2
AcDbXrecord
  3
ObjectDBX Classes
 90
        0
280
     0
281
     0
  0
CLASS
  1
LWPOLYLINE
  2
AcDbPolyline
  3
ObjectDBX Classes
 90
        0
280
     0
281
     1
  0
CLASS
  1
HATCH
  2
AcDbHatch
  3
ObjectDBX Classes
 90
        0
280
     0
281
     1
  0
CLASS
  1
ACDBPLACEHOLDER
  2
AcDbPlaceHolder
  3
ObjectDBX Classes
 90
        0
280
     0
281
     0
  0
CLASS
  1
LAYOUT
  2
AcDbLayout
  3
ObjectDBX Classes
 90
        0
280
     0
281
     0
  0
ENDSEC
  0
SECTION
  2
TABLES
  0
TABLE
  2
VPORT
  5
8
102
{ACAD_XDICTIONARY
360
361
102
}
330
0
100
AcDbSymbolTable
 70
     1
  0
VPORT
  5
29
330
8
100
AcDbSymbolTableRecord
100
AcDbViewportTableRecord
  2
*ACTIVE
 70
     0
 10
0.0
 20
0.0
 11
1.0
 21
1.0
 12
95.4238512665867
 22
441.2079456627463
 13
0.0
 23
0.0
 14
0.5
 24
0.5
 15
0.5
 25
0.5
 16
0.0
 26
0.0
 36
1.0
 17
0.0
 27
0.0
 37
0.0
 40
247.9908694422863
 41
1.6
 42
50.0
 43
0.0
 44
0.0
 50
0.0
 51
0.0
 71
     0
 72
   100
 73
     1
 74
     3
 75
     0
 76
     0
 77
     0
 78
     0
  0
ENDTAB
  0
TABLE
  2
LTYPE
  5
5
330
0
100
AcDbSymbolTable
 70
     2
  0
LTYPE
  5
14
330
5
100
AcDbSymbolTableRecord
100
AcDbLinetypeTableRecord
  2
BYBLOCK
 70
     0
  3

 72
    65
 73
     0
 40
0.0
  0
LTYPE
  5
15
330
5
100
AcDbSymbolTableRecord
100
AcDbLinetypeTableRecord
  2
BYLAYER
 70
     0
  3

 72
    65
 73
     0
 40
0.0
  0
LTYPE
  5
16
330
5
100
AcDbSymbolTableRecord
100
AcDbLinetypeTableRecord
  2
CONTINUOUS
 70
     0
  3
Solid line
 72
    65
 73
     0
 40
0.0
  0
LTYPE
  5
298
330
5
100
AcDbSymbolTableRecord
100
AcDbLinetypeTableRecord
  2
CENTER
 70
     0
  3

 72
    65
 73
     0
 40
0.0
  0
ENDTAB
  0
TABLE
  2
LAYER
  5
2
330
0
100
AcDbSymbolTable
 70
     1
  0
LAYER
  5
10
330
2
100
AcDbSymbolTableRecord
100
AcDbLayerTableRecord
  2
0
 70
     0
 62
     7
  6
CONTINUOUS
  0
ENDTAB
  0
TABLE
  2
STYLE
  5
3
330
0
100
AcDbSymbolTable
 70
     2
  0
STYLE
  5
11
330
3
100
AcDbSymbolTableRecord
100
AcDbTextStyleTableRecord
  2
STANDARD
 70
     0
 40
0.0
 41
1.0
 50
0.0
 71
     0
 42
0.2
  3
txt
  4

  0
STYLE
  5
6E
330
3
100
AcDbSymbolTableRecord
100
AcDbTextStyleTableRecord
  2
ＭＳ_ゴシック
 70
     0
 40
0.0
 41
1.0
 50
0.0
 71
     0
 42
0.2
  3
ＭＳ ゴシック.shx
  4

  0
ENDTAB
  0
TABLE
  2
VIEW
  5
6
330
0
100
AcDbSymbolTable
 70
     0
  0
ENDTAB
  0
TABLE
  2
UCS
  5
7
330
0
100
AcDbSymbolTable
 70
     0
  0
ENDTAB
  0
TABLE
  2
APPID
  5
9
330
0
100
AcDbSymbolTable
 70
     2
  0
APPID
  5
12
330
9
100
AcDbSymbolTableRecord
100
AcDbRegAppTableRecord
  2
ACAD
 70
     0
  0
APPID
  5
36B
330
9
100
AcDbSymbolTableRecord
100
AcDbRegAppTableRecord
  2
ACAD_MLEADERVER
 70
     0
  0
ENDTAB
  0
TABLE
  2
DIMSTYLE
  5
A
330
0
100
AcDbSymbolTable
 70
     1
  0
DIMSTYLE
105
27
330
A
100
AcDbSymbolTableRecord
100
AcDbDimStyleTableRecord
  2
STANDARD
 70
     0
  3

  4

  5

  6

  7

 40
1.0
 41
0.18
 42
0.0625
 43
0.38
 44
0.18
 45
0.0
 46
0.0
 47
0.0
 48
0.0
140
0.18
141
0.09
142
0.0
143
25.4
144
1.0
145
0.0
146
1.0
147
0.09
 71
     0
 72
     0
 73
     1
 74
     1
 75
     0
 76
     0
 77
     0
 78
     0
170
     0
171
     2
172
     0
173
     0
174
     0
175
     0
176
     0
177
     0
178
     0
270
     2
271
     4
272
     4
273
     2
274
     2
340
11
275
     0
280
     0
281
     0
282
     0
283
     1
284
     0
285
     0
286
     0
287
     3
288
     0
  0
ENDTAB
  0
TABLE
  2
BLOCK_RECORD
  5
1
330
0
100
AcDbSymbolTable
 70
     0
  0
BLOCK_RECORD
  5
1F
330
1
100
AcDbSymbolTableRecord
100
AcDbBlockTableRecord
  2
*MODEL_SPACE
  0
BLOCK_RECORD
  5
1B
330
1
100
AcDbSymbolTableRecord
100
AcDbBlockTableRecord
  2
*PAPER_SPACE
  0
ENDTAB
  0
ENDSEC
  0
SECTION
  2
BLOCKS
  0
BLOCK
  5
20
330
1F
100
AcDbEntity
  8
0
100
AcDbBlockBegin
  2
*MODEL_SPACE
 70
     0
 10
0.0
 20
0.0
 30
0.0
  3
*MODEL_SPACE
  1

  0
ENDBLK
  5
21
330
1F
100
AcDbEntity
  8
0
100
AcDbBlockEnd
  0
BLOCK
  5
1C
330
1B
100
AcDbEntity
 67
     1
  8
0
100
AcDbBlockBegin
  2
*PAPER_SPACE
 70
     0
 10
0.0
 20
0.0
 30
0.0
  3
*PAPER_SPACE
  1

  0
ENDBLK
  5
1D
330
1B
100
AcDbEntity
 67
     1
  8
0
100
AcDbBlockEnd
  0
ENDSEC
  0
SECTION
  2
ENTITIES
  0
ARC
  5
6F
330
1F
100
AcDbEntity
  8
0
  6
CONTINUOUS
 62
     7
100
AcDbCircle
 10
-92.30749265045044
 20
367.1398043255865
 30
0.0
 40
2.860165238372921
100
AcDbArc
 50
186.7437607950082
 51
273.1104490336743
  0
ARC
  5
70
330
1F
100
AcDbEntity
  8
0
  6
CONTINUOUS
 62
     7
100
AcDbCircle
 10
-260.1522974668265
 20
563.2033803838895
 30
0.0
 40
2.000000000000002
100
AcDbArc
 50
0.0
 51
90.0
  0
ARC
  5
71
330
1F
100
AcDbEntity
  8
0
  6
CONTINUOUS
 62
     7
100
AcDbCircle
 10
-94.15229746682648
 20
545.2033803838895
 30
0.0
 40
1.000000000000001
100
AcDbArc
 50
90.0
 51
180.0
  0
LINE
  5
72
330
1F
100
AcDbEntity
  8
0
  6
CONTINUOUS
 62
     7
100
AcDbLine
 10
484.3743403483427
 20
433.6512525803711
 30
0.0
 11
484.4264154816865
 21
433.6512525803711
 31
0.0
  0
LINE
  5
73
330
1F
100
AcDbEntity
  8
0
  6
CONTINUOUS
 62
     7
100
AcDbLine
 10
34.38960370876258
 20
537.720451741069
 30
0.0
 11
33.85164123271789
 21
540.7554957721302
 31
0.0
  0
LINE
  5
74
330
1F
100
AcDbEntity
  8
0
  6
CONTINUOUS
 62
     7
100
AcDbLine
 10
-128.6522974668265
 20
355.2033803838895
 30
0.0
 11
-97.65229746682652
 21
355.2033803838895
 31
0.0
  0
LINE
  5
75
330
1F
100
AcDbEntity
  8
0
  6
CONTINUOUS
 62
     7
100
AcDbLine
 10
58.85236336711979
 20
362.655667638395
 30
0.0
 11
59.30394738159955
 21
365.2034106700666
 31
0.0
  0
LINE
  5
76
330
1F
100
AcDbEntity
  8
0
  6
CONTINUOUS
 62
     7
100
AcDbLine
 10
14.19453225431813
 20
365.6907208101267
 30
0.0
 11
14.73250930075057
 21
362.6557581722842
 31
0.0
  0
LINE
  5
77
330
1F
100
AcDbEntity
  8
0
  6
CONTINUOUS
 62
     7
100
AcDbLine
 10
-94.15229746682648
 20
357.2033803838896
 30
0.0
 11
-68.15229746682652
 21
357.2033803838896
 31
0.0
  0
LINE
  5
78
330
1F
100
AcDbEntity
  8
0
  6
CONTINUOUS
 62
     7
100
AcDbLine
 10
-119.0648088033006
 20
467.7033803838895
 30
0.0
 11
-119.1522974668265
 21
466.7033803838895
 31
0.0
  0
LINE
  5
79
330
1F
100
AcDbEntity
  8
0
  6
CONTINUOUS
 62
     7
100
AcDbLine
 10
-260.1522974668265
 20
565.2033803838895
 30
0.0
 11
-294.1522974668265
 21
565.2033803838895
 31
0.0
  0
ARC
  5
7A
330
1F
100
AcDbEntity
  8
0
  6
CONTINUOUS
 62
     7
100
AcDbCircle
 10
482.0000000000001
 20
445.4033803838896
 30
0.0
 40
11.98957880828177
100
AcDbArc
 50
276.2246754948006
 51
281.4219971763072
  0
LINE
  5
7B
330
1F
100
AcDbEntity
  8
0
  6
CONTINUOUS
 62
     7
100
AcDbLine
 10
98.85242497404111
 20
362.6569337024226
 30
0.0
 11
99.30378853694577
 21
365.2034108411563
 31
0.0
  0
ARC
  5
7C
330
1F
100
AcDbEntity
  8
0
  6
CONTINUOUS
 62
     7
100
AcDbCircle
 10
145.8477025331735
 20
555.2033803838895
 30
0.0
 40
1.500000000000001
100
AcDbArc
 50
0.0
 51
11.53702088495058
  0
LINE
  5
7D
330
1F
100
AcDbEntity
  8
0
  6
CONTINUOUS
 62
     7
100
AcDbLine
 10
366.5
 20
559.1080693545223
 30
0.0
 11
363.5
 21
559.1080693545223
 31
0.0
  0
LINE
  5
7E
330
1F
100
AcDbEntity
  8
0
  6
CONTINUOUS
 62
     7
100
AcDbLine
 10
369.0
 20
343.964785513786
 30
0.0
 11
369.0
 21
343.2771360803584
 31
0.0
  0
LINE
  5
7F
330
1F
100
AcDbEntity
  8
0
  6
CONTINUOUS
 62
     7
100
AcDbLine
 10
69.36362850924834
 20
538.2033803838895
 30
0.0
 11
64.30392864466083
 21
538.2033803838895
 31
0.0
  0
LINE
  5
80
330
1F
100
AcDbEntity
  8
0
  6
CONTINUOUS
 62
     7
100
AcDbLine
 10
471.0103594352253
 20
423.2979901838879
 30
0.0
 11
469.8871197491416
 21
423.5989613506806
 31
0.0
  0
LINE
  5
81
330
1F
100
AcDbEntity
  8
0
  6
CONTINUOUS
 62
     7
100
AcDbLine
 10
4.847702533173459
 20
544.0187489896738
 30
0.0
 11
-25.15229746682651
 21
544.0187489896738
 31
0.0
  0
ARC
  5
82
330
1F
100
AcDbEntity
  8
0
  6
CONTINUOUS
 62
     7
100
AcDbCircle
 10
-25.54047724220272
 20
476.1513057460419
 30
0.0
 40
27.63415001357149
100
AcDbArc
 50
265.4464203463959
 51
270.804866236668
  0
LINE
  5
83
330
1F
100
AcDbEntity
  8
0
  6
CONTINUOUS
 62
     7
100
AcDbLine
 10
-110.1522974668265
 20
466.7033803838895
 30
0.0
 11
-110.2397861303525
 21
467.7033803838895
 31
0.0
  0
LINE
  5
84
330
1F
100
AcDbEntity
  8
0
  6
CONTINUOUS
 62
     7
100
AcDbLine
 10
64.19537003803877
 20
365.684943730169
 30
0.0
 11
64.7332997587316
 21
362.6502182714432
 31
0.0
  0
LINE
  5
85
330
1F
100
AcDbEntity
  8
0
  6
CONTINUOUS
 62
     7
100
AcDbLine
 10
-61.14786459768862
 20
362.6556179322937
 30
0.0
 11
-60.69627422434493
 21
365.203410857487
 31
0.0
  0
ARC
  5
86
330
1F
100
AcDbEntity
  8
0
  6
CONTINUOUS
 62
     7
100
AcDbCircle
 10
-92.30005219893825
 20
536.2575141127206
 30
0.0
 40
2.869200922991459
100
AcDbArc
 50
87.04814371905435
 51
172.9096512615249
  0
ARC
  5
87
330
1F
100
AcDbEntity
  8
0
  6
CONTINUOUS
 62
     7
100
AcDbCircle
 10
-97.65229746682652
 20
357.2033803838896
 30
0.0
 40
2.000000000000002
100
AcDbArc
 50
270.0
 51
0.0
  0
LINE
  5
88
330
1F
100
AcDbEntity
  8
0
  6
CONTINUOUS
 62
     7
100
AcDbLine
 10
4.847702533173459
 20
506.7669298469172
 30
0.0
 11
-25.15229746682651
 21
506.7669298469172
 31
0.0
  0
LINE
  5
89
330
1F
100
AcDbEntity
  8
0
  6
CONTINUOUS
 62
     7
100
AcDbLine
 10
-68.15229746682652
 20
539.1229080604412
 30
0.0
 11
-92.15229746682651
 21
539.1229080604412
 31
0.0
  0
LINE
  5
8A
330
1F
100
AcDbEntity
  8
0
  6
CONTINUOUS
 62
     7
100
AcDbLine
 10
473.5880845293475
 20
445.0618486169524
 30
0.0
 11
474.5452941267999
 21
445.0033031699389
 31
0.0
  0
LINE
  5
8B
330
1F
100
AcDbEntity
  8
0
  6
CONTINUOUS
 62
     7
100
AcDbLine
 10
361.0000000000001
 20
343.2771360803584
 30
0.0
 11
361.0000000000001
 21
343.9612899627826
 31
0.0
  0
LINE
  5
8C
330
1F
100
AcDbEntity
  8
0
  6
CONTINUOUS
 62
     7
100
AcDbLine
 10
-41.14785332024093
 20
362.6554745666301
 30
0.0
 11
-40.69624265530991
 21
365.2034108735169
 31
0.0
  0
LINE
  5
8D
330
1F
100
AcDbEntity
  8
0
  6
CONTINUOUS
 62
     7
100
AcDbLine
 10
250.4264154816865
 20
469.7555081874079
 30
0.0
 11
250.3743403483427
 21
469.7555081874079
 31
0.0
  0
LINE
  5
8E
330
1F
100
AcDbEntity
  8
0
  6
CONTINUOUS
 62
     7
100
AcDbLine
 10
38.85223342022532
 20
362.6546222887015
 30
0.0
 11
39.30399592452688
 21
365.2034104933675
 31
0.0
  0
ARC
  5
8F
330
1F
100
AcDbEntity
  8
0
  6
CONTINUOUS
 62
     7
100
AcDbCircle
 10
-25.49767621154889
 20
421.8160776599926
 30
0.0
 40
33.07260429231569
100
AcDbArc
 50
89.40164663377863
 51
93.88697165884145
  0
ARC
  5
90
330
1F
100
AcDbEntity
  8
0
  6
CONTINUOUS
 62
     7
100
AcDbCircle
 10
-128.6522974668265
 20
357.2033803838896
 30
0.0
 40
2.000000000000002
100
AcDbArc
 50
180.0
 51
270.0
  0
LINE
  5
91
330
1F
100
AcDbEntity
  8
0
  6
CONTINUOUS
 62
     7
100
AcDbLine
 10
-25.15229746682651
 20
396.6398309208619
 30
0.0
 11
4.847702533173459
 21
396.6398309208619
 31
0.0
  0
ARC
  5
92
330
1F
100
AcDbEntity
  8
0
  6
CONTINUOUS
 62
     7
100
AcDbCircle
 10
-294.1522974668265
 20
562.2033803838895
 30
0.0
 40
3.000000000000003
100
AcDbArc
 50
90.0
 51
180.0000000000003
  0
LINE
  5
93
330
1F
100
AcDbEntity
  8
0
  6
CONTINUOUS
 62
     7
100
AcDbLine
 10
29.36358360753974
 20
538.2033803838895
 30
0.0
 11
24.30398758177901
 21
538.2033803838895
 31
0.0
  0
LINE
  5
94
330
1F
100
AcDbEntity
  8
0
  6
CONTINUOUS
 62
     7
100
AcDbLine
 10
479.5735845183136
 20
433.6512525803711
 30
0.0
 11
479.6256596516574
 21
433.6512525803711
 31
0.0
  0
LINE
  5
95
330
1F
100
AcDbEntity
  8
0
  6
CONTINUOUS
 62
     7
100
AcDbLine
 10
482.5000000000001
 20
435.7033803838896
 30
0.0
 11
481.5000000000001
 21
435.7033803838896
 31
0.0
  0
CIRCLE
  5
96
330
1F
100
AcDbEntity
  8
0
  6
CONTINUOUS
 62
     7
100
AcDbCircle
 10
365.0240027059942
 20
452.772178448742
 30
0.0
 40
108.9023101353927
  0
LINE
  5
97
330
1F
100
AcDbEntity
  8
0
  6
CONTINUOUS
 62
     7
100
AcDbLine
 10
18.85224640478167
 20
362.6547677950561
 30
0.0
 11
19.30397625322211
 21
365.2034106583005
 31
0.0
  0
LINE
  5
98
330
1F
100
AcDbEntity
  8
0
  6
CONTINUOUS
 62
     7
100
AcDbLine
 10
318.6176457739583
 20
352.2361007566171
 30
0.0
 11
319.145918601134
 21
353.3689854904128
 31
0.0
  0
LINE
  5
99
330
1F
100
AcDbEntity
  8
0
  6
CONTINUOUS
 62
     7
100
AcDbLine
 10
-60.77871986172048
 20
365.2033803838895
 30
0.0
 11
-55.71912112891356
 21
365.2033803838895
 31
0.0
  0
LINE
  5
9A
330
1F
100
AcDbEntity
  8
0
  6
CONTINUOUS
 62
     7
100
AcDbLine
 10
4.847702533173459
 20
454.8948516893665
 30
0.0
 11
-25.15229746682651
 21
454.8948516893665
 31
0.0
  0
LINE
  5
9B
330
1F
100
AcDbEntity
  8
0
  6
CONTINUOUS
 62
     7
100
AcDbLine
 10
34.19428605081617
 20
365.6917086655341
 30
0.0
 11
34.73220150114329
 21
362.6570972711912
 31
0.0
  0
ARC
  5
9C
330
1F
100
AcDbEntity
  8
0
  6
CONTINUOUS
 62
     7
100
AcDbCircle
 10
365.0
 20
451.7033803838895
 30
0.0
 40
109.5
100
AcDbArc
 50
195.0
 51
245.0000000000001
  0
ARC
  5
9D
330
1F
100
AcDbEntity
  8
0
  6
CONTINUOUS
 62
     7
100
AcDbCircle
 10
482.0000000000001
 20
445.4033803838896
 30
0.0
 40
11.9895788082818
100
AcDbArc
 50
258.5780028236928
 51
263.7753245051994
  0
LINE
  5
9E
330
1F
100
AcDbEntity
  8
0
  6
CONTINUOUS
 62
     7
100
AcDbLine
 10
249.3
 20
469.9222729498958
 30
0.0
 11
248.5
 21
469.9222729498958
 31
0.0
  0
LINE
  5
9F
330
1F
100
AcDbEntity
  8
0
  6
CONTINUOUS
 62
     7
100
AcDbLine
 10
247.5
 20
467.7033803838895
 30
0.0
 11
248.5
 21
467.7033803838895
 31
0.0
  0
LINE
  5
A0
330
1F
100
AcDbEntity
  8
0
  6
CONTINUOUS
 62
     7
100
AcDbLine
 10
247.5
 20
469.9222729498958
 30
0.0
 11
246.7
 21
469.9222729498958
 31
0.0
  0
ARC
  5
A1
330
1F
100
AcDbEntity
  8
0
  6
CONTINUOUS
 62
     7
100
AcDbCircle
 10
365.0
 20
451.7033803838895
 30
0.0
 40
109.5
100
AcDbArc
 50
146.5211270024687
 51
165.0
  0
ARC
  5
A2
330
1F
100
AcDbEntity
  8
0
  6
CONTINUOUS
 62
     7
100
AcDbCircle
 10
365.0
 20
451.7033803838895
 30
0.0
 40
108.6288320671548
100
AcDbArc
 50
89.20880673134837
 51
90.79119326865163
  0
LINE
  5
A3
330
1F
100
AcDbEntity
  8
0
  6
CONTINUOUS
 62
     7
100
AcDbLine
 10
28.85214053958853
 20
362.6540796203768
 30
0.0
 11
29.30399509822105
 21
365.2034105335642
 31
0.0
  0
ARC
  5
A4
330
1F
100
AcDbEntity
  8
0
  6
CONTINUOUS
 62
     7
100
AcDbCircle
 10
-25.15229746682651
 20
349.7033803838895
 30
0.0
 40
3.000000000000003
100
AcDbArc
 50
180.0000000000002
 51
270.0
  0
LINE
  5
A5
330
1F
100
AcDbEntity
  8
0
  6
CONTINUOUS
 62
     7
100
AcDbLine
 10
482.5000000000001
 20
433.4844878178833
 30
0.0
 11
483.3000000000001
 21
433.4844878178833
 31
0.0
  0
ARC
  5
A6
330
1F
100
AcDbEntity
  8
0
  6
CONTINUOUS
 62
     7
100
AcDbCircle
 10
145.8477025331735
 20
348.2033803838895
 30
0.0
 40
1.500000000000001
100
AcDbArc
 50
270.0000000000005
 51
0.0
  0
LINE
  5
A7
330
1F
100
AcDbEntity
  8
0
  6
CONTINUOUS
 62
     7
100
AcDbLine
 10
-95.15229746682651
 20
366.9489162167989
 30
0.0
 11
-95.14786912133277
 21
366.8039372470347
 31
0.0
  0
LINE
  5
A8
330
1F
100
AcDbEntity
  8
0
  6
CONTINUOUS
 62
     7
100
AcDbLine
 10
68.85170097058123
 20
362.6521747493383
 30
0.0
 11
69.30390637409522
 21
365.2034103307622
 31
0.0
  0
ARC
  5
A9
330
1F
100
AcDbEntity
  8
0
  6
CONTINUOUS
 62
     7
100
AcDbCircle
 10
248.0
 20
458.0033803838895
 30
0.0
 40
11.9895788082818
100
AcDbArc
 50
78.57800282369281
 51
83.77532450519921
  0
ARC
  5
AA
330
1F
100
AcDbEntity
  8
0
  6
CONTINUOUS
 62
     7
100
AcDbCircle
 10
365.0
 20
451.7033803838895
 30
0.0
 40
109.5
100
AcDbArc
 50
15.0
 51
33.05885878843117
  0
LINE
  5
AB
330
1F
100
AcDbEntity
  8
0
  6
CONTINUOUS
 62
     7
100
AcDbLine
 10
59.36362614459453
 20
538.2033803838895
 30
0.0
 11
54.3039641855593
 21
538.2033803838895
 31
0.0
  0
LINE
  5
AC
330
1F
100
AcDbEntity
  8
0
  6
CONTINUOUS
 62
     7
100
AcDbLine
 10
-35.80541871285187
 20
365.6905405467288
 30
0.0
 11
-35.26746239942524
 21
362.6556257393761
 31
0.0
  0
LINE
  5
AD
330
1F
100
AcDbEntity
  8
0
  6
CONTINUOUS
 62
     7
100
AcDbLine
 10
245.6256596516573
 20
469.7555081874079
 30
0.0
 11
245.5735845183135
 21
469.7555081874079
 31
0.0
  0
ARC
  5
AE
330
1F
100
AcDbEntity
  8
0
  6
CONTINUOUS
 62
     7
100
AcDbCircle
 10
-25.25378271211732
 20
541.0948305372401
 30
0.0
 40
2.925562545740458
100
AcDbArc
 50
88.01205992093216
 51
169.8930234174248
  0
LINE
  5
AF
330
1F
100
AcDbEntity
  8
0
  6
CONTINUOUS
 62
     7
100
AcDbLine
 10
-255.3093823212417
 20
557.2839183631971
 30
0.0
 11
-257.1522974668266
 21
451.7033803838895
 31
0.0
  0
LINE
  5
B0
330
1F
100
AcDbEntity
  8
0
  6
CONTINUOUS
 62
     7
100
AcDbLine
 10
-257.1522974668265
 20
352.8145539169928
 30
0.0
 11
-255.9178014163179
 21
352.8145539169928
 31
0.0
  0
LINE
  5
B1
330
1F
100
AcDbEntity
  8
0
  6
CONTINUOUS
 62
     7
100
AcDbLine
 10
-131.1193349818291
 20
369.3004071365606
 30
0.0
 11
-131.1198724984224
 21
369.2033803838895
 31
0.0
  0
LINE
  5
B2
330
1F
100
AcDbEntity
  8
0
  6
CONTINUOUS
 62
     7
100
AcDbLine
 10
-131.1198724984223
 20
534.2033803838895
 30
0.0
 11
-131.1193349818292
 21
534.1063536312183
 31
0.0
  0
LINE
  5
B3
330
1F
100
AcDbEntity
  8
0
  6
CONTINUOUS
 62
     7
100
AcDbLine
 10
-130.9714203570835
 20
534.0744225484793
 30
0.0
 11
-131.119334981829
 21
534.1063536312183
 31
0.0
  0
LINE
  5
B4
330
1F
100
AcDbEntity
  8
0
  6
CONTINUOUS
 62
     7
100
AcDbLine
 10
-253.1522974668265
 20
560.1296225948968
 30
0.0
 11
-253.1522974668265
 21
455.7033803838895
 31
0.0
  0
LINE
  5
B5
330
1F
100
AcDbEntity
  8
0
  6
CONTINUOUS
 62
     7
100
AcDbLine
 10
-247.1522974668265
 20
447.7033803838895
 30
0.0
 11
-247.1522974668265
 21
349.2814589022067
 31
0.0
  0
ARC
  5
B6
330
1F
100
AcDbEntity
  8
0
  6
CONTINUOUS
 62
     7
100
AcDbCircle
 10
-130.4310692043656
 20
371.0743741684688
 30
0.0
 40
2.128329642833813
100
AcDbArc
 50
125.0153991943464
 51
179.3558128515425
  0
LINE
  5
B7
330
1F
100
AcDbEntity
  8
0
  6
CONTINUOUS
 62
     7
100
AcDbLine
 10
-255.3093823212417
 20
346.1228424045819
 30
0.0
 11
-257.1522974668265
 21
346.1228424045819
 31
0.0
  0
ARC
  5
B8
330
1F
100
AcDbEntity
  8
0
  6
CONTINUOUS
 62
     7
100
AcDbCircle
 10
-130.4330304088687
 20
532.3313519437347
 30
0.0
 40
2.126357170784381
100
AcDbArc
 50
180.6169037278842
 51
235.0118842262269
  0
LINE
  5
B9
330
1F
100
AcDbEntity
  8
0
  6
CONTINUOUS
 62
     7
100
AcDbLine
 10
-140.1902158847755
 20
343.2033803838895
 30
0.0
 11
-140.1902158847754
 21
343.2771381728833
 31
0.0
  0
LINE
  5
BA
330
1F
100
AcDbEntity
  8
0
  6
CONTINUOUS
 62
     7
100
AcDbLine
 10
-130.6522971081562
 20
534.0180861567258
 30
0.0
 11
-130.9714203570835
 21
534.0744225484793
 31
0.0
  0
LINE
  5
BB
330
1F
100
AcDbEntity
  8
0
  6
CONTINUOUS
 62
     7
100
AcDbLine
 10
-130.6522974668264
 20
534.1063536312183
 30
0.0
 11
-131.119334981829
 21
534.1063536312183
 31
0.0
  0
LINE
  5
BC
330
1F
100
AcDbEntity
  8
0
  6
CONTINUOUS
 62
     7
100
AcDbLine
 10
-258.1522974668265
 20
553.2120007074857
 30
0.0
 11
-257.1522974668265
 21
553.2120007074857
 31
0.0
  0
LINE
  5
BD
330
1F
100
AcDbEntity
  8
0
  6
CONTINUOUS
 62
     7
100
AcDbLine
 10
-131.1193349818292
 20
369.3004071365606
 30
0.0
 11
-130.6522974668264
 21
369.3004071365606
 31
0.0
  0
LINE
  5
BE
330
1F
100
AcDbEntity
  8
0
  6
CONTINUOUS
 62
     7
100
AcDbLine
 10
-247.1522974668265
 20
349.2814589022067
 30
0.0
 11
-253.1522974668267
 21
343.2771381728823
 31
0.0
  0
ARC
  5
BF
330
1F
100
AcDbEntity
  8
0
  6
CONTINUOUS
 62
     7
100
AcDbCircle
 10
-134.9062856248987
 20
552.1244752366839
 30
0.0
 40
2.000826783175256
100
AcDbArc
 50
0.978725340195922
 51
89.97749922724266
  0
LINE
  5
C0
330
1F
100
AcDbEntity
  8
0
  6
CONTINUOUS
 62
     7
100
AcDbLine
 10
-253.1522974668265
 20
447.7033803838895
 30
0.0
 11
-253.1522974668265
 21
343.2771381728823
 31
0.0
  0
LINE
  5
C1
330
1F
100
AcDbEntity
  8
0
  6
CONTINUOUS
 62
     7
100
AcDbLine
 10
-130.9714203570835
 20
369.3323382192997
 30
0.0
 11
-130.6522971081562
 21
369.3886746110533
 31
0.0
  0
ARC
  5
C2
330
1F
100
AcDbEntity
  8
0
  6
CONTINUOUS
 62
     7
100
AcDbCircle
 10
-134.90623548616
 20
351.2822345485164
 30
0.0
 40
2.000775781538131
100
AcDbArc
 50
270.0210655340981
 51
359.0227098984652
  0
LINE
  5
C3
330
1F
100
AcDbEntity
  8
0
  6
CONTINUOUS
 62
     7
100
AcDbLine
 10
-255.9178014163179
 20
550.5922068507863
 30
0.0
 11
-257.1522974668265
 21
550.5922068507862
 31
0.0
  0
LINE
  5
C4
330
1F
100
AcDbEntity
  8
0
  6
CONTINUOUS
 62
     7
100
AcDbLine
 10
-131.1193349818292
 20
369.3004071365606
 30
0.0
 11
-130.9714203570835
 21
369.3323382192997
 31
0.0
  0
LINE
  5
C5
330
1F
100
AcDbEntity
  8
0
  6
CONTINUOUS
 62
     7
100
AcDbLine
 10
-134.9054998750931
 20
554.1253018655723
 30
0.0
 11
-247.1522974668265
 21
554.1253018655723
 31
0.0
  0
LINE
  5
C6
330
1F
100
AcDbEntity
  8
0
  6
CONTINUOUS
 62
     7
100
AcDbLine
 10
-247.1522974668265
 20
554.1253018655723
 30
0.0
 11
-247.1522974668265
 21
455.7033803838895
 31
0.0
  0
LINE
  5
C7
330
1F
100
AcDbEntity
  8
0
  6
CONTINUOUS
 62
     7
100
AcDbLine
 10
-257.1522974668265
 20
555.2214947407498
 30
0.0
 11
-258.1522974668265
 21
555.2214947407498
 31
0.0
  0
LINE
  5
C8
330
1F
100
AcDbEntity
  8
0
  6
CONTINUOUS
 62
     7
100
AcDbLine
 10
-140.1902158847756
 20
560.1296225948957
 30
0.0
 11
-140.1902158847756
 21
560.2033803838895
 31
0.0
  0
LINE
  5
C9
330
1F
100
AcDbEntity
  8
0
  6
CONTINUOUS
 62
     7
100
AcDbLine
 10
-255.3093823212416
 20
557.283918363197
 30
0.0
 11
-257.1522974668265
 21
557.2839183631971
 31
0.0
  0
LINE
  5
CA
330
1F
100
AcDbEntity
  8
0
  6
CONTINUOUS
 62
     7
100
AcDbLine
 10
-140.1902158835797
 20
343.2771381728823
 30
0.0
 11
-253.1522974668268
 21
343.2771381728823
 31
0.0
  0
LINE
  5
CB
330
1F
100
AcDbEntity
  8
0
  6
CONTINUOUS
 62
     7
100
AcDbLine
 10
-257.1522974668266
 20
451.7033803838895
 30
0.0
 11
-255.3093823212417
 21
346.1228424045819
 31
0.0
  0
LINE
  5
CC
330
1F
100
AcDbEntity
  8
0
  6
CONTINUOUS
 62
     7
100
AcDbLine
 10
-257.6523736308486
 20
451.7033803838895
 30
0.0
 11
-257.1522974668266
 21
451.7033803838895
 31
0.0
  0
LINE
  5
CD
330
1F
100
AcDbEntity
  8
0
  6
CONTINUOUS
 62
     7
100
AcDbLine
 10
-247.1522974668265
 20
554.1253018655723
 30
0.0
 11
-253.1522974668265
 21
560.1296225948968
 31
0.0
  0
LINE
  5
CE
330
1F
100
AcDbEntity
  8
0
  6
CONTINUOUS
 62
     7
100
AcDbLine
 10
-140.1902158496756
 20
560.1296225948968
 30
0.0
 11
-253.1522974668266
 21
560.1296225948968
 31
0.0
  0
LINE
  5
CF
330
1F
100
AcDbEntity
  8
0
  6
CONTINUOUS
 62
     7
100
AcDbLine
 10
-138.019463034422
 20
447.703380383901
 30
0.0
 11
-138.1539526472592
 21
455.7033803838773
 31
0.0
  0
LINE
  5
D0
330
1F
100
AcDbEntity
  8
0
  6
CONTINUOUS
 62
     7
100
AcDbLine
 10
-94.15229746682648
 20
532.5244504086697
 30
0.0
 11
-94.65229746682651
 21
532.4083989744313
 31
0.0
  0
LINE
  5
D1
330
1F
100
AcDbEntity
  8
0
  6
CONTINUOUS
 62
     7
100
AcDbLine
 10
-94.15229746682648
 20
370.8823103591092
 30
0.0
 11
-94.65229746682601
 21
370.9983617933476
 31
0.0
  0
LINE
  5
D2
330
1F
100
AcDbEntity
  8
0
  6
CONTINUOUS
 62
     7
100
AcDbLine
 10
-134.9054998750931
 20
349.2814589022067
 30
0.0
 11
-247.1522974668265
 21
349.2814589022067
 31
0.0
  0
LINE
  5
D3
330
1F
100
AcDbEntity
  8
0
  6
CONTINUOUS
 62
     7
100
AcDbLine
 10
145.8477025331735
 20
404.0343779112371
 30
0.0
 11
142.8477025331736
 21
404.0343779112371
 31
0.0
  0
ARC
  5
D4
330
1F
100
AcDbEntity
  8
0
  6
CONTINUOUS
 62
     7
100
AcDbCircle
 10
40.36583262061643
 20
540.7808407291031
 30
0.0
 40
0.6335519796043649
100
AcDbArc
 50
138.3486416811181
 51
182.4698398308914
  0
LINE
  5
D5
330
1F
100
AcDbEntity
  8
0
  6
CONTINUOUS
 62
     7
100
AcDbLine
 10
142.8477025331734
 20
358.147695344111
 30
0.0
 11
142.8477025331734
 21
371.2687138563968
 31
0.0
  0
ARC
  5
D6
330
1F
100
AcDbEntity
  8
0
  6
CONTINUOUS
 62
     7
100
AcDbCircle
 10
55.37253104885157
 20
362.6295384561669
 30
0.0
 40
0.6410311228185964
100
AcDbArc
 50
177.5265842566942
 51
221.4772294198024
  0
LINE
  5
D7
330
1F
100
AcDbEntity
  8
0
  6
CONTINUOUS
 62
     7
100
AcDbLine
 10
64.89233082140534
 20
362.2049600599497
 30
0.0
 11
64.73325682139225
 21
362.6504588176365
 31
0.0
  0
LINE
  5
D8
330
1F
100
AcDbEntity
  8
0
  6
CONTINUOUS
 62
     7
100
AcDbLine
 10
-262.8088462568891
 20
468.164878852006
 30
0.0
 11
-262.7682061933112
 21
467.7033803838895
 31
0.0
  0
ARC
  5
D9
330
1F
100
AcDbEntity
  8
0
  6
CONTINUOUS
 62
     7
100
AcDbCircle
 10
-264.4040091871351
 20
468.0212037693705
 30
0.0
 40
1.601620211973308
100
AcDbArc
 50
5.146698742662466
 51
74.86696069128845
  0
LINE
  5
DA
330
1F
100
AcDbEntity
  8
0
  6
CONTINUOUS
 62
     7
100
AcDbLine
 10
11.84770253317349
 20
556.7033803838895
 30
0.0
 11
11.84770253317349
 21
346.7033803838896
 31
0.0
  0
ARC
  5
DB
330
1F
100
AcDbEntity
  8
0
  6
CONTINUOUS
 62
     7
100
AcDbCircle
 10
50.37029432252562
 20
540.7782219364093
 30
0.0
 40
0.6386222216298622
100
AcDbArc
 50
138.4490073894072
 51
182.4926019447044
  0
LINE
  5
DC
330
1F
100
AcDbEntity
  8
0
  6
CONTINUOUS
 62
     7
100
AcDbLine
 10
-45.10790310282345
 20
362.2033846793389
 30
0.0
 11
-45.26719089581849
 21
362.6539252538474
 31
0.0
  0
LINE
  5
DD
330
1F
100
AcDbEntity
  8
0
  6
CONTINUOUS
 62
     7
100
AcDbLine
 10
-291.6522974668266
 20
469.7555081874079
 30
0.0
 11
-291.6522974668266
 21
469.9222729498958
 31
0.0
  0
LINE
  5
DE
330
1F
100
AcDbEntity
  8
0
  6
CONTINUOUS
 62
     7
100
AcDbLine
 10
145.8477025331735
 20
556.6926655514723
 30
0.0
 11
139.8477025331735
 21
556.6926655514723
 31
0.0
  0
LINE
  5
DF
330
1F
100
AcDbEntity
  8
0
  6
CONTINUOUS
 62
     7
100
AcDbLine
 10
124.8813184506489
 20
363.834513683384
 30
0.0
 11
125.8347545335269
 21
343.8783451029989
 31
0.0
  0
ARC
  5
E0
330
1F
100
AcDbEntity
  8
0
  6
CONTINUOUS
 62
     7
100
AcDbCircle
 10
-291.1522974668266
 20
458.0033803838895
 30
0.0
 40
11.98957880828182
100
AcDbArc
 50
74.6867096803013
 51
83.77532450519914
  0
ARC
  5
E1
330
1F
100
AcDbEntity
  8
0
  6
CONTINUOUS
 62
     7
100
AcDbCircle
 10
-64.82248270552034
 20
362.558309755079
 30
0.0
 40
0.4551938912851834
100
AcDbArc
 50
167.7921462730044
 51
231.1817089537049
  0
ARC
  5
E2
330
1F
100
AcDbEntity
  8
0
  6
CONTINUOUS
 62
     7
100
AcDbCircle
 10
45.37058548365693
 20
362.6288060472734
 30
0.0
 40
0.6389782894527682
100
AcDbArc
 50
177.4927159065955
 51
221.5589423238701
  0
ARC
  5
E3
330
1F
100
AcDbEntity
  8
0
  6
CONTINUOUS
 62
     7
100
AcDbCircle
 10
-34.62506830137831
 20
362.6283778784361
 30
0.0
 40
0.6430026033382341
100
AcDbArc
 50
177.5587572844845
 51
221.3705952185219
  0
ARC
  5
E4
330
1F
100
AcDbEntity
  8
0
  6
CONTINUOUS
 62
     7
100
AcDbCircle
 10
70.36703857530608
 20
540.7797180523869
 30
0.0
 40
0.6352580467134458
100
AcDbArc
 50
138.3581929522597
 51
182.5367889687112
  0
ARC
  5
E5
330
1F
100
AcDbEntity
  8
0
  6
CONTINUOUS
 62
     7
100
AcDbCircle
 10
-39.62489683470788
 20
540.7786033208255
 30
0.0
 40
0.6430921356914866
100
AcDbArc
 50
138.6598858420762
 51
182.4178696701505
  0
LINE
  5
E6
330
1F
100
AcDbEntity
  8
0
  6
CONTINUOUS
 62
     7
100
AcDbLine
 10
-266.6522974668264
 20
469.7555081874079
 30
0.0
 11
-267.6522974668264
 21
469.7555081874079
 31
0.0
  0
LINE
  5
E7
330
1F
100
AcDbEntity
  8
0
  6
CONTINUOUS
 62
     7
100
AcDbLine
 10
-265.8522974668264
 20
469.9222729498958
 30
0.0
 11
-266.6522974668264
 21
469.9222729498958
 31
0.0
  0
ARC
  5
E8
330
1F
100
AcDbEntity
  8
0
  6
CONTINUOUS
 62
     7
100
AcDbCircle
 10
-288.4040091871352
 20
468.0212037693705
 30
0.0
 40
1.601620211973308
100
AcDbArc
 50
5.146698742662466
 51
74.86696069128845
  0
LINE
  5
E9
330
1F
100
AcDbEntity
  8
0
  6
CONTINUOUS
 62
     7
100
AcDbLine
 10
-295.5648088033007
 20
467.7033803838895
 30
0.0
 11
-295.5363887403417
 21
467.7033803838895
 31
0.0
  0
LINE
  5
EA
330
1F
100
AcDbEntity
  8
0
  6
CONTINUOUS
 62
     7
100
AcDbLine
 10
-286.8088462568892
 20
468.164878852006
 30
0.0
 11
-286.7682061933114
 21
467.7033803838895
 31
0.0
  0
ARC
  5
EB
330
1F
100
AcDbEntity
  8
0
  6
CONTINUOUS
 62
     7
100
AcDbCircle
 10
-291.1522974668266
 20
458.0033803838895
 30
0.0
 40
11.98957880828182
100
AcDbArc
 50
96.2246754948009
 51
105.3132903196987
  0
LINE
  5
EC
330
1F
100
AcDbEntity
  8
0
  6
CONTINUOUS
 62
     7
100
AcDbLine
 10
-271.5363887403416
 20
467.7033803838895
 30
0.0
 11
-271.4957486767605
 21
468.1648788520063
 31
0.0
  0
LINE
  5
ED
330
1F
100
AcDbEntity
  8
0
  6
CONTINUOUS
 62
     7
100
AcDbLine
 10
-132.9750240441697
 20
556.127316122808
 30
0.0
 11
-140.1902158835797
 21
560.1296246874208
 31
0.0
  0
LINE
  5
EE
330
1F
100
AcDbEntity
  8
0
  6
CONTINUOUS
 62
     7
100
AcDbLine
 10
142.8477025331734
 20
371.2687138563968
 30
0.0
 11
145.8477025331735
 21
371.2687138563968
 31
0.0
  0
LINE
  5
EF
330
1F
100
AcDbEntity
  8
0
  6
CONTINUOUS
 62
     7
100
AcDbLine
 10
-290.6522974668266
 20
469.7555081874079
 30
0.0
 11
-291.6522974668266
 21
469.7555081874079
 31
0.0
  0
LINE
  5
F0
330
1F
100
AcDbEntity
  8
0
  6
CONTINUOUS
 62
     7
100
AcDbLine
 10
-267.6522974668264
 20
469.7555081874079
 30
0.0
 11
-267.6522974668264
 21
469.9222729498958
 31
0.0
  0
ARC
  5
F1
330
1F
100
AcDbEntity
  8
0
  6
CONTINUOUS
 62
     7
100
AcDbCircle
 10
25.3751236908303
 20
362.6303754800976
 30
0.0
 40
0.6436090413577332
100
AcDbArc
 50
177.5512702922661
 51
221.4140188351224
  0
ARC
  5
F2
330
1F
100
AcDbEntity
  8
0
  6
CONTINUOUS
 62
     7
100
AcDbCircle
 10
-267.1522974668264
 20
458.0033803838895
 30
0.0
 40
11.98957880828182
100
AcDbArc
 50
74.6867096803013
 51
83.77532450519914
  0
LINE
  5
F3
330
1F
100
AcDbEntity
  8
0
  6
CONTINUOUS
 62
     7
100
AcDbLine
 10
145.8477025331735
 20
545.2590654236681
 30
0.0
 11
142.8477025331736
 21
545.2590654236681
 31
0.0
  0
LINE
  5
F4
330
1F
100
AcDbEntity
  8
0
  6
CONTINUOUS
 62
     7
100
AcDbLine
 10
142.8477025331734
 20
519.1960794009761
 30
0.0
 11
145.8477025331735
 21
519.1960794009761
 31
0.0
  0
LINE
  5
F5
330
1F
100
AcDbEntity
  8
0
  6
CONTINUOUS
 62
     7
100
AcDbLine
 10
-291.6522974668266
 20
469.9222729498958
 30
0.0
 11
-292.4522974668266
 21
469.9222729498958
 31
0.0
  0
LINE
  5
F6
330
1F
100
AcDbEntity
  8
0
  6
CONTINUOUS
 62
     7
100
AcDbLine
 10
142.8477025331734
 20
499.3723828565418
 30
0.0
 11
142.8477025331734
 21
519.196079400976
 31
0.0
  0
ARC
  5
F7
330
1F
100
AcDbEntity
  8
0
  6
CONTINUOUS
 62
     7
100
AcDbCircle
 10
15.37223724814631
 20
362.628557540991
 30
0.0
 40
0.6403287994989121
100
AcDbArc
 50
177.5560909416249
 51
221.4811192544995
  0
ARC
  5
F8
330
1F
100
AcDbEntity
  8
0
  6
CONTINUOUS
 62
     7
100
AcDbCircle
 10
-269.9005539130753
 20
468.0211770514774
 30
0.0
 40
1.601654314002775
100
AcDbArc
 50
105.1338890763707
 51
174.85245148983
  0
LINE
  5
F9
330
1F
100
AcDbEntity
  8
0
  6
CONTINUOUS
 62
     7
100
AcDbLine
 10
-266.6522974668264
 20
469.9222729498957
 30
0.0
 11
-266.6522974668264
 21
469.7555081874079
 31
0.0
  0
ARC
  5
FA
330
1F
100
AcDbEntity
  8
0
  6
CONTINUOUS
 62
     7
100
AcDbCircle
 10
30.37773685638173
 20
540.7756968993831
 30
0.0
 40
0.6461700083808005
100
AcDbArc
 50
138.7156819441266
 51
182.3618966052302
  0
LINE
  5
FB
330
1F
100
AcDbEntity
  8
0
  6
CONTINUOUS
 62
     7
100
AcDbLine
 10
-295.5363887403417
 20
467.7033803838895
 30
0.0
 11
-295.4957486767606
 21
468.1648788520063
 31
0.0
  0
LINE
  5
FC
330
1F
100
AcDbEntity
  8
0
  6
CONTINUOUS
 62
     7
100
AcDbLine
 10
145.8477025331735
 20
358.1476953441109
 30
0.0
 11
142.8477025331734
 21
358.1476953441109
 31
0.0
  0
ARC
  5
FD
330
1F
100
AcDbEntity
  8
0
  6
CONTINUOUS
 62
     7
100
AcDbCircle
 10
-293.9005539130754
 20
468.0211770514774
 30
0.0
 40
1.601654314002775
100
AcDbArc
 50
105.1338890763707
 51
174.85245148983
  0
LINE
  5
FE
330
1F
100
AcDbEntity
  8
0
  6
CONTINUOUS
 62
     7
100
AcDbLine
 10
121.8477025331735
 20
560.3218555907996
 30
0.0
 11
121.8477025331735
 21
560.3322124510444
 31
0.0
  0
ARC
  5
FF
330
1F
100
AcDbEntity
  8
0
  6
CONTINUOUS
 62
     7
100
AcDbCircle
 10
35.37527362797372
 20
362.6301993570418
 30
0.0
 40
0.6436458271996627
100
AcDbArc
 50
177.6002726056149
 51
221.370145800855
  0
ARC
  5
100
330
1F
100
AcDbEntity
  8
0
  6
CONTINUOUS
 62
     7
100
AcDbCircle
 10
60.36957659338518
 20
540.7781894440965
 30
0.0
 40
0.6380702727785716
100
AcDbArc
 50
138.4039433722087
 51
182.5425279126669
  0
LINE
  5
101
330
1F
100
AcDbEntity
  8
0
  6
CONTINUOUS
 62
     7
100
AcDbLine
 10
-140.1902158835794
 20
343.2771360803584
 30
0.0
 11
-132.9750240441699
 21
347.279444644971
 31
0.0
  0
LINE
  5
102
330
1F
100
AcDbEntity
  8
0
  6
CONTINUOUS
 62
     7
100
AcDbLine
 10
121.8477025331735
 20
426.3849403235225
 30
0.0
 11
121.8477025331735
 21
360.7033803838896
 31
0.0
  0
LINE
  5
103
330
1F
100
AcDbEntity
  8
0
  6
CONTINUOUS
 62
     7
100
AcDbLine
 10
-267.6522974668264
 20
469.9222729498958
 30
0.0
 11
-268.4522974668265
 21
469.9222729498958
 31
0.0
  0
LINE
  5
104
330
1F
100
AcDbEntity
  8
0
  6
CONTINUOUS
 62
     7
100
AcDbLine
 10
139.8477025331735
 20
556.6926655514723
 30
0.0
 11
121.8477025331735
 21
560.3218555907995
 31
0.0
  0
LINE
  5
105
330
1F
100
AcDbEntity
  8
0
  6
CONTINUOUS
 62
     7
100
AcDbLine
 10
119.8477025331735
 20
466.8814683982108
 30
0.0
 11
119.8477025331735
 21
362.2033803838896
 31
0.0
  0
LINE
  5
106
330
1F
100
AcDbEntity
  8
0
  6
CONTINUOUS
 62
     7
100
AcDbLine
 10
-290.6522974668266
 20
469.9222729498958
 30
0.0
 11
-290.6522974668266
 21
469.7555081874079
 31
0.0
  0
ARC
  5
107
330
1F
100
AcDbEntity
  8
0
  6
CONTINUOUS
 62
     7
100
AcDbCircle
 10
-267.1522974668264
 20
458.0033803838895
 30
0.0
 40
11.98957880828182
100
AcDbArc
 50
96.2246754948009
 51
105.3132903196987
  0
LINE
  5
108
330
1F
100
AcDbEntity
  8
0
  6
CONTINUOUS
 62
     7
100
AcDbLine
 10
-289.8522974668265
 20
469.9222729498958
 30
0.0
 11
-290.6522974668266
 21
469.9222729498958
 31
0.0
  0
LINE
  5
109
330
1F
100
AcDbEntity
  8
0
  6
CONTINUOUS
 62
     7
100
AcDbLine
 10
-286.7682061933114
 20
467.7033803838895
 30
0.0
 11
-286.7397861303525
 21
467.7033803838895
 31
0.0
  0
ARC
  5
10A
330
1F
100
AcDbEntity
  8
0
  6
CONTINUOUS
 62
     7
100
AcDbCircle
 10
-129.1522974668265
 20
465.2033803838895
 30
0.0
 40
1.500000000000001
100
AcDbArc
 50
90.0
 51
180.0
  0
ARC
  5
10B
330
1F
100
AcDbEntity
  8
0
  6
CONTINUOUS
 62
     7
100
AcDbCircle
 10
-55326.55879543597
 20
-2293.175810123511
 30
0.0
 40
55515.06025003278
100
AcDbArc
 50
2.743285470678075
 51
2.947753458772978
  0
ARC
  5
10C
330
1F
100
AcDbEntity
  8
0
  6
CONTINUOUS
 62
     7
100
AcDbCircle
 10
-29.62565856798191
 20
540.778342484171
 30
0.0
 40
0.6424656349238633
100
AcDbArc
 50
138.5882045050053
 51
182.4665103630023
  0
LINE
  5
10D
330
1F
100
AcDbEntity
  8
0
  6
CONTINUOUS
 62
     7
100
AcDbLine
 10
-262.7682061933112
 20
467.7033803838895
 30
0.0
 11
-262.7397861303523
 21
467.7033803838895
 31
0.0
  0
LINE
  5
10E
330
1F
100
AcDbEntity
  8
0
  6
CONTINUOUS
 62
     7
100
AcDbLine
 10
142.8477025331736
 20
545.259065423668
 30
0.0
 11
142.8477025331736
 21
532.138046911382
 31
0.0
  0
ARC
  5
10F
330
1F
100
AcDbEntity
  8
0
  6
CONTINUOUS
 62
     7
100
AcDbCircle
 10
-295.1522974668265
 20
433.7033803838895
 30
0.0
 40
2.000000000000002
100
AcDbArc
 50
180.0
 51
270.0000000000015
  0
LINE
  5
110
330
1F
100
AcDbEntity
  8
0
  6
CONTINUOUS
 62
     7
100
AcDbLine
 10
-271.5648088033005
 20
467.7033803838895
 30
0.0
 11
-271.5363887403416
 21
467.7033803838895
 31
0.0
  0
ARC
  5
111
330
1F
100
AcDbEntity
  8
0
  6
CONTINUOUS
 62
     7
100
AcDbCircle
 10
20.37406008501512
 20
540.776849470056
 30
0.0
 40
0.6424958103507431
100
AcDbArc
 50
138.5415963612361
 51
182.4726152283988
  0
ARC
  5
112
330
1F
100
AcDbEntity
  8
0
  6
CONTINUOUS
 62
     7
100
AcDbCircle
 10
-97.15229746682652
 20
465.2033803838895
 30
0.0
 40
1.500000000000001
100
AcDbArc
 50
0.0
 51
67.88918966319903
  0
ARC
  5
113
330
1F
100
AcDbEntity
  8
0
  6
CONTINUOUS
 62
     7
100
AcDbCircle
 10
-463.5020296228645
 20
499.7562112343513
 30
0.0
 40
539.2280214002596
100
AcDbArc
 50
0.3110171667208306
 51
4.038832937407562
  0
ARC
  5
114
330
1F
100
AcDbEntity
  8
0
  6
CONTINUOUS
 62
     7
100
AcDbCircle
 10
92.18262811518696
 20
373.324503860284
 30
0.0
 40
53.63434808132754
100
AcDbArc
 50
180.6088943613783
 51
188.6297201289427
  0
ARC
  5
115
330
1F
100
AcDbEntity
  8
0
  6
CONTINUOUS
 62
     7
100
AcDbCircle
 10
11314.83596733231
 20
683.0850316509878
 30
0.0
 40
11280.55409644065
100
AcDbArc
 50
180.9211380975654
 51
181.5764182607853
  0
ARC
  5
116
330
1F
100
AcDbEntity
  8
0
  6
CONTINUOUS
 62
     7
100
AcDbCircle
 10
-454.9787709586062
 20
501.114024870679
 30
0.0
 40
510.6805256926162
100
AcDbArc
 50
0.2876363685199408
 51
4.112195428847542
  0
ARC
  5
117
330
1F
100
AcDbEntity
  8
0
  6
CONTINUOUS
 62
     7
100
AcDbCircle
 10
9.391360732620313
 20
375.3529971967276
 30
0.0
 40
70.94390112503349
100
AcDbArc
 50
180.1081451063795
 51
188.1899919580925
  0
ARC
  5
118
330
1F
100
AcDbEntity
  8
0
  6
CONTINUOUS
 62
     7
100
AcDbCircle
 10
68.22120638352997
 20
362.6248817034041
 30
0.0
 40
0.6310983217885275
100
AcDbArc
 50
318.2894016275798
 51
2.484087921090917
  0
ARC
  5
119
330
1F
100
AcDbEntity
  8
0
  6
CONTINUOUS
 62
     7
100
AcDbCircle
 10
-525.647338758769
 20
499.676630744738
 30
0.0
 40
541.3736669131399
100
AcDbArc
 50
0.3196701263674414
 51
4.03125835384236
  0
ARC
  5
11A
330
1F
100
AcDbEntity
  8
0
  6
CONTINUOUS
 62
     7
100
AcDbCircle
 10
82.35191388753049
 20
374.1230422327703
 30
0.0
 40
63.82546959913195
100
AcDbArc
 50
180.8797058056837
 51
187.9191539828316
  0
ARC
  5
11B
330
1F
100
AcDbEntity
  8
0
  6
CONTINUOUS
 62
     7
100
AcDbCircle
 10
53.21521692268999
 20
540.7782925333231
 30
0.0
 40
0.6379946221284172
100
AcDbArc
 50
357.4548601259575
 51
41.59144052910551
  0
ARC
  5
11C
330
1F
100
AcDbEntity
  8
0
  6
CONTINUOUS
 62
     7
100
AcDbCircle
 10
-93.87472235068984
 20
530.7717506980141
 30
0.0
 40
1.811971479337998
100
AcDbArc
 50
115.4124932846933
 51
127.6621264744737
  0
ARC
  5
11D
330
1F
100
AcDbEntity
  8
0
  6
CONTINUOUS
 62
     7
100
AcDbCircle
 10
58.21755858359593
 20
362.6274670244597
 30
0.0
 40
0.6354816193536406
100
AcDbArc
 50
318.3304942569644
 51
2.564084262168535
  0
ARC
  5
11E
330
1F
100
AcDbEntity
  8
0
  6
CONTINUOUS
 62
     7
100
AcDbCircle
 10
143.7154138174613
 20
373.8272895975981
 30
0.0
 40
55.21738584884046
100
AcDbArc
 50
179.8462087380163
 51
188.9346439864498
  0
ARC
  5
11F
330
1F
100
AcDbEntity
  8
0
  6
CONTINUOUS
 62
     7
100
AcDbCircle
 10
136.6906026012999
 20
375.2122145127116
 30
0.0
 40
78.19760321457649
100
AcDbArc
 50
181.0353858532974
 51
187.1938703633982
  0
LINE
  5
120
330
1F
100
AcDbEntity
  8
0
  6
CONTINUOUS
 62
     7
100
AcDbLine
 10
142.8477025331736
 20
384.2106813668029
 30
0.0
 11
145.8477025331735
 21
384.2106813668029
 31
0.0
  0
ARC
  5
121
330
1F
100
AcDbEntity
  8
0
  6
CONTINUOUS
 62
     7
100
AcDbCircle
 10
11992.94735074956
 20
697.3868489154885
 30
0.0
 40
11948.81470116649
100
AcDbArc
 50
180.9343403456838
 51
181.554609280902
  0
ARC
  5
122
330
1F
100
AcDbEntity
  8
0
  6
CONTINUOUS
 62
     7
100
AcDbCircle
 10
19556.63305828548
 20
866.9613831751594
 30
0.0
 40
19624.34742118027
100
AcDbArc
 50
181.0373412456807
 51
181.4358544821188
  0
LINE
  5
123
330
1F
100
AcDbEntity
  8
0
  6
CONTINUOUS
 62
     7
100
AcDbLine
 10
89.16802803744284
 20
365.2516027711356
 30
0.0
 11
89.2210948993634
 21
365.2033803840389
 31
0.0
  0
LINE
  5
124
330
1F
100
AcDbEntity
  8
0
  6
CONTINUOUS
 62
     7
100
AcDbLine
 10
39.15549154746969
 20
365.2767661944758
 30
0.0
 11
39.22108251958187
 21
365.2033803839103
 31
0.0
  0
ARC
  5
125
330
1F
100
AcDbEntity
  8
0
  6
CONTINUOUS
 62
     7
100
AcDbCircle
 10
-94.65229746682651
 20
453.2033803838895
 30
0.0
 40
0.5000000000000004
100
AcDbArc
 50
90.0
 51
180.0
  0
ARC
  5
126
330
1F
100
AcDbEntity
  8
0
  6
CONTINUOUS
 62
     7
100
AcDbCircle
 10
11261.14684243292
 20
681.2916979153252
 30
0.0
 40
11196.84646439779
100
AcDbArc
 50
180.919300504242
 51
181.579258652797
  0
ARC
  5
127
330
1F
100
AcDbEntity
  8
0
  6
CONTINUOUS
 62
     7
100
AcDbCircle
 10
63.21482210185106
 20
540.7784326814606
 30
0.0
 40
0.6382028349143625
100
AcDbArc
 50
357.5058483280651
 51
41.55525687116506
  0
ARC
  5
128
330
1F
100
AcDbEntity
  8
0
  6
CONTINUOUS
 62
     7
100
AcDbCircle
 10
-487.5463645619161
 20
500.9738378114428
 30
0.0
 40
513.2514120743515
100
AcDbArc
 50
0.2862833602839032
 51
4.107435935440606
  0
ARC
  5
129
330
1F
100
AcDbEntity
  8
0
  6
CONTINUOUS
 62
     7
100
AcDbCircle
 10
112.8645354199815
 20
374.1735430652098
 30
0.0
 40
64.34086596265001
100
AcDbArc
 50
180.8502024720583
 51
187.8973775167765
  0
ARC
  5
12A
330
1F
100
AcDbEntity
  8
0
  6
CONTINUOUS
 62
     7
100
AcDbCircle
 10
12968.93166971865
 20
718.1381425780422
 30
0.0
 40
12915.01708486495
100
AcDbArc
 50
180.9514692096924
 51
181.5277956432028
  0
LINE
  5
12B
330
1F
100
AcDbEntity
  8
0
  6
CONTINUOUS
 62
     7
100
AcDbLine
 10
145.8477025331735
 20
499.3723828565419
 30
0.0
 11
142.8477025331734
 21
499.3723828565419
 31
0.0
  0
ARC
  5
12C
330
1F
100
AcDbEntity
  8
0
  6
CONTINUOUS
 62
     7
100
AcDbCircle
 10
11902.9728228876
 20
694.5310841762071
 30
0.0
 40
11808.81211358206
100
AcDbArc
 50
180.9317892770163
 51
181.5598327215233
  0
ARC
  5
12D
330
1F
100
AcDbEntity
  8
0
  6
CONTINUOUS
 62
     7
100
AcDbCircle
 10
160.5265976794012
 20
373.9898632984763
 30
0.0
 40
61.99666278821609
100
AcDbArc
 50
180.8361582074934
 51
188.0411216387064
  0
ARC
  5
12E
330
1F
100
AcDbEntity
  8
0
  6
CONTINUOUS
 62
     7
100
AcDbCircle
 10
-416.2190507246102
 20
501.527069223432
 30
0.0
 40
501.9137048984858
100
AcDbArc
 50
0.2773591100478257
 51
4.136832418412382
  0
ARC
  5
12F
330
1F
100
AcDbEntity
  8
0
  6
CONTINUOUS
 62
     7
100
AcDbCircle
 10
-0.4537875542825059
 20
373.1006789809825
 30
0.0
 40
50.99040795991243
100
AcDbArc
 50
180.5671652578834
 51
188.840408656898
  0
ARC
  5
130
330
1F
100
AcDbEntity
  8
0
  6
CONTINUOUS
 62
     7
100
AcDbCircle
 10
-446.9732586309587
 20
499.5722248870189
 30
0.0
 40
542.7033933240908
100
AcDbArc
 50
0.3086052956501248
 51
4.032515227240253
  0
LINE
  5
131
330
1F
100
AcDbEntity
  8
0
  6
CONTINUOUS
 62
     7
100
AcDbLine
 10
-50.83844171883229
 20
365.2643323425917
 30
0.0
 11
-50.77868846073119
 21
365.2033803839733
 31
0.0
  0
LINE
  5
132
330
1F
100
AcDbEntity
  8
0
  6
CONTINUOUS
 62
     7
100
AcDbLine
 10
101.8086020295276
 20
483.7837704671107
 30
0.0
 11
101.8477025331735
 21
483.78379931364
 31
0.0
  0
ARC
  5
133
330
1F
100
AcDbEntity
  8
0
  6
CONTINUOUS
 62
     7
100
AcDbCircle
 10
88.20679732012904
 20
362.6311622340241
 30
0.0
 40
0.6463563223242885
100
AcDbArc
 50
318.7239151600378
 51
2.357517202691895
  0
ARC
  5
134
330
1F
100
AcDbEntity
  8
0
  6
CONTINUOUS
 62
     7
100
AcDbCircle
 10
13265.62554405418
 20
728.9612957727835
 30
0.0
 40
13311.84704524879
100
AcDbArc
 50
180.9626490519272
 51
181.5319019161696
  0
ARC
  5
135
330
1F
100
AcDbEntity
  8
0
  6
CONTINUOUS
 62
     7
100
AcDbCircle
 10
122.9887589651734
 20
373.3634708912309
 30
0.0
 40
54.43927303563088
100
AcDbArc
 50
180.6886723844436
 51
188.534816905357
  0
ARC
  5
136
330
1F
100
AcDbEntity
  8
0
  6
CONTINUOUS
 62
     7
100
AcDbCircle
 10
-619.3007396671993
 20
498.4429183973227
 30
0.0
 40
565.0551222948254
100
AcDbArc
 50
0.3018822455453005
 51
3.987522714166971
  0
ARC
  5
137
330
1F
100
AcDbEntity
  8
0
  6
CONTINUOUS
 62
     7
100
AcDbCircle
 10
11904.47829325937
 20
696.3109222367743
 30
0.0
 40
11890.33683085425
100
AcDbArc
 50
180.9330051248305
 51
181.5574354058884
  0
ARC
  5
138
330
1F
100
AcDbEntity
  8
0
  6
CONTINUOUS
 62
     7
100
AcDbCircle
 10
12136.26221568679
 20
699.8280645431392
 30
0.0
 40
12062.1553507571
100
AcDbArc
 50
180.9364883035655
 51
181.5512492938794
  0
ARC
  5
139
330
1F
100
AcDbEntity
  8
0
  6
CONTINUOUS
 62
     7
100
AcDbCircle
 10
-502.4018557768587
 20
498.3888122153634
 30
0.0
 40
568.1527883373856
100
AcDbArc
 50
0.3286782647675182
 51
3.971148708942337
  0
ARC
  5
13A
330
1F
100
AcDbEntity
  8
0
  6
CONTINUOUS
 62
     7
100
AcDbCircle
 10
83.20993880378273
 20
540.7764076355769
 30
0.0
 40
0.6432742819658751
100
AcDbArc
 50
357.5580875127746
 51
41.41300110978898
  0
ARC
  5
13B
330
1F
100
AcDbEntity
  8
0
  6
CONTINUOUS
 62
     7
100
AcDbCircle
 10
12812.53611468872
 20
715.4184469375841
 30
0.0
 40
12788.59279868737
100
AcDbArc
 50
180.9493141241118
 51
181.5310520731018
  0
ARC
  5
13C
330
1F
100
AcDbEntity
  8
0
  6
CONTINUOUS
 62
     7
100
AcDbCircle
 10
-768.8431382596389
 20
490.3892768867423
 30
0.0
 40
734.7566964733277
100
AcDbArc
 50
0.2975126109608368
 51
3.694711894377576
  0
LINE
  5
13D
330
1F
100
AcDbEntity
  8
0
  6
CONTINUOUS
 62
     7
100
AcDbLine
 10
43.85144085607764
 20
540.7565427013025
 30
0.0
 11
43.69244089274657
 21
541.2018882706084
 31
0.0
  0
LINE
  5
13E
330
1F
100
AcDbEntity
  8
0
  6
CONTINUOUS
 62
     7
100
AcDbLine
 10
142.8477025331736
 20
532.1380469113822
 30
0.0
 11
145.8477025331735
 21
532.1380469113822
 31
0.0
  0
ARC
  5
13F
330
1F
100
AcDbEntity
  8
0
  6
CONTINUOUS
 62
     7
100
AcDbCircle
 10
10975.23227855739
 20
677.7109324813343
 30
0.0
 40
11030.89452989518
100
AcDbArc
 50
180.9157146124309
 51
181.5850057594643
  0
LINE
  5
140
330
1F
100
AcDbEntity
  8
0
  6
CONTINUOUS
 62
     7
100
AcDbLine
 10
99.84770253317352
 20
541.2033803838893
 30
0.0
 11
99.84770253317352
 21
362.2033803838896
 31
0.0
  0
ARC
  5
141
330
1F
100
AcDbEntity
  8
0
  6
CONTINUOUS
 62
     7
100
AcDbCircle
 10
-114.6522974668265
 20
458.0033803838895
 30
0.0
 40
11.98957880828182
100
AcDbArc
 50
74.6867096803013
 51
83.77532450519914
  0
ARC
  5
142
330
1F
100
AcDbEntity
  8
0
  6
CONTINUOUS
 62
     7
100
AcDbCircle
 10
-94.65229746682651
 20
450.2033803838895
 30
0.0
 40
0.5000000000000004
100
AcDbArc
 50
180.0
 51
270.0
  0
ARC
  5
143
330
1F
100
AcDbEntity
  8
0
  6
CONTINUOUS
 62
     7
100
AcDbCircle
 10
13278.99635635158
 20
724.0998748056978
 30
0.0
 40
13195.14410607269
100
AcDbArc
 50
180.955946953643
 51
181.5204838594495
  0
ARC
  5
144
330
1F
100
AcDbEntity
  8
0
  6
CONTINUOUS
 62
     7
100
AcDbCircle
 10
144.5136285906399
 20
374.3024081519115
 30
0.0
 40
65.99384336136957
100
AcDbArc
 50
180.8770529681538
 51
187.8027513054077
  0
ARC
  5
145
330
1F
100
AcDbEntity
  8
0
  6
CONTINUOUS
 62
     7
100
AcDbCircle
 10
19.5767801944163
 20
373.9287605587112
 30
0.0
 40
61.04634324648389
100
AcDbArc
 50
180.7887474400809
 51
188.1150905599067
  0
ARC
  5
146
330
1F
100
AcDbEntity
  8
0
  6
CONTINUOUS
 62
     7
100
AcDbCircle
 10
104.8859074357701
 20
375.0793660678256
 30
0.0
 40
76.38898408903398
100
AcDbArc
 50
181.0169336092171
 51
187.2738499028485
  0
ARC
  5
147
330
1F
100
AcDbEntity
  8
0
  6
CONTINUOUS
 62
     7
100
AcDbCircle
 10
-507.6872954276953
 20
503.389215787596
 30
0.0
 40
463.3486287327362
100
AcDbArc
 50
0.2380376766736276
 51
4.251121907250762
  0
ARC
  5
148
330
1F
100
AcDbEntity
  8
0
  6
CONTINUOUS
 62
     7
100
AcDbCircle
 10
93.21159168432406
 20
540.777786602319
 30
0.0
 40
0.6412268132784803
100
AcDbArc
 50
357.5959175076952
 51
41.42875293765189
  0
ARC
  5
149
330
1F
100
AcDbEntity
  8
0
  6
CONTINUOUS
 62
     7
100
AcDbCircle
 10
8920.716178066496
 20
629.4835141124966
 30
0.0
 40
8955.834286434838
100
AcDbArc
 50
180.8654926918796
 51
181.6468392901963
  0
ARC
  5
14A
330
1F
100
AcDbEntity
  8
0
  6
CONTINUOUS
 62
     7
100
AcDbCircle
 10
21.37788295241502
 20
372.943102411396
 30
0.0
 40
52.80350513473971
100
AcDbArc
 50
180.9110805052267
 51
188.2300560299187
  0
ARC
  5
14B
330
1F
100
AcDbEntity
  8
0
  6
CONTINUOUS
 62
     7
100
AcDbCircle
 10
73.2136028227137
 20
540.7777577471661
 30
0.0
 40
0.6395167440906886
100
AcDbArc
 50
357.5033202610791
 51
41.53660820965536
  0
ARC
  5
14C
330
1F
100
AcDbEntity
  8
0
  6
CONTINUOUS
 62
     7
100
AcDbCircle
 10
-494.0350540720595
 20
499.6880887129049
 30
0.0
 40
539.7639807697093
100
AcDbArc
 50
0.3029851814810627
 51
4.042702141632617
  0
ARC
  5
14D
330
1F
100
AcDbEntity
  8
0
  6
CONTINUOUS
 62
     7
100
AcDbCircle
 10
-404.1032869995572
 20
510.1949700720277
 30
0.0
 40
339.6084397112327
100
AcDbArc
 50
0.2508098675815518
 51
4.651600343051769
  0
LINE
  5
14E
330
1F
100
AcDbEntity
  8
0
  6
CONTINUOUS
 62
     7
100
AcDbLine
 10
-60.82899271592363
 20
365.2466096917834
 30
0.0
 11
-60.77871979460922
 21
365.2033803838902
 31
0.0
  0
ARC
  5
14F
330
1F
100
AcDbEntity
  8
0
  6
CONTINUOUS
 62
     7
100
AcDbCircle
 10
78.2125412586046
 20
362.6295783894622
 30
0.0
 40
0.6406815991248016
100
AcDbArc
 50
318.4817004752178
 51
2.501902876001566
  0
ARC
  5
150
330
1F
100
AcDbEntity
  8
0
  6
CONTINUOUS
 62
     7
100
AcDbCircle
 10
98.21130160051992
 20
362.6294673001115
 30
0.0
 40
0.6417149792357683
100
AcDbArc
 50
318.5394299161242
 51
2.454532216473865
  0
ARC
  5
151
330
1F
100
AcDbEntity
  8
0
  6
CONTINUOUS
 62
     7
100
AcDbCircle
 10
-533.062715546325
 20
498.3804916223141
 30
0.0
 40
568.8122784496124
100
AcDbArc
 50
0.3380573811191994
 51
3.967777502825243
  0
LINE
  5
152
330
1F
100
AcDbEntity
  8
0
  6
CONTINUOUS
 62
     7
100
AcDbLine
 10
142.8477025331736
 20
404.0343779112371
 30
0.0
 11
142.8477025331736
 21
384.210681366803
 31
0.0
  0
ARC
  5
153
330
1F
100
AcDbEntity
  8
0
  6
CONTINUOUS
 62
     7
100
AcDbCircle
 10
79.18510615735704
 20
533.9690573043183
 30
0.0
 40
20.66428821742168
100
AcDbArc
 50
0.7331793397093117
 51
11.64953852190042
  0
ARC
  5
154
330
1F
100
AcDbEntity
  8
0
  6
CONTINUOUS
 62
     7
100
AcDbCircle
 10
-107.7668079578854
 20
529.7483787000134
 30
0.0
 40
57.81184064142093
100
AcDbArc
 50
0.753199641443262
 51
8.31732887136597
  0
ARC
  5
155
330
1F
100
AcDbEntity
  8
0
  6
CONTINUOUS
 62
     7
100
AcDbCircle
 10
-11060.9802952025
 20
220.1311536757482
 30
0.0
 40
11155.32635462507
100
AcDbArc
 50
0.9146829278399353
 51
1.597981371684378
  0
ARC
  5
156
330
1F
100
AcDbEntity
  8
0
  6
CONTINUOUS
 62
     7
100
AcDbCircle
 10
-8778.623251362334
 20
276.8789956297091
 30
0.0
 40
8822.287062267977
100
AcDbArc
 50
0.8698672028794749
 51
1.655653046987458
  0
ARC
  5
157
330
1F
100
AcDbEntity
  8
0
  6
CONTINUOUS
 62
     7
100
AcDbCircle
 10
-9210.216880011087
 20
267.9208866902241
 30
0.0
 40
9233.981869830415
100
AcDbArc
 50
0.8732288626438278
 51
1.632915629857295
  0
ARC
  5
158
330
1F
100
AcDbEntity
  8
0
  6
CONTINUOUS
 62
     7
100
AcDbCircle
 10
17.77513035155161
 20
362.7833323569928
 30
0.0
 40
1.084772464062446
100
AcDbArc
 50
327.7467277236665
 51
353.2034639313113
  0
ARC
  5
159
330
1F
100
AcDbEntity
  8
0
  6
CONTINUOUS
 62
     7
100
AcDbCircle
 10
85.36317988313263
 20
362.6259531455813
 30
0.0
 40
0.6315750801606873
100
AcDbArc
 50
177.3123898641222
 51
221.8277365420638
  0
ARC
  5
15A
330
1F
100
AcDbEntity
  8
0
  6
CONTINUOUS
 62
     7
100
AcDbCircle
 10
22.65381573939013
 20
540.5802959998415
 30
0.0
 40
1.210686227939582
100
AcDbArc
 50
8.140829218658132
 51
30.910400471353
  0
ARC
  5
15B
330
1F
100
AcDbEntity
  8
0
  6
CONTINUOUS
 62
     7
100
AcDbCircle
 10
95.98819181907648
 20
362.8470714052294
 30
0.0
 40
1.270423452163961
100
AcDbArc
 50
188.6381669735107
 51
210.3800293685513
  0
ARC
  5
15C
330
1F
100
AcDbEntity
  8
0
  6
CONTINUOUS
 62
     7
100
AcDbCircle
 10
145.8476443773294
 20
555.1926258706821
 30
0.0
 40
1.500039681917413
100
AcDbArc
 50
11.95621838613963
 51
89.99777866914943
  0
ARC
  5
15D
330
1F
100
AcDbEntity
  8
0
  6
CONTINUOUS
 62
     7
100
AcDbCircle
 10
489.6455101797156
 20
400.6836805594755
 30
0.0
 40
476.7348436267749
100
AcDbArc
 50
180.2476656504243
 51
184.2118504186847
  0
ARC
  5
15E
330
1F
100
AcDbEntity
  8
0
  6
CONTINUOUS
 62
     7
100
AcDbCircle
 10
-41.37669592470533
 20
528.2283145827076
 30
0.0
 40
71.49967585677656
100
AcDbArc
 50
0.2666632506561188
 51
7.945896244168104
  0
ARC
  5
15F
330
1F
100
AcDbEntity
  8
0
  6
CONTINUOUS
 62
     7
100
AcDbCircle
 10
431.5170008568518
 20
401.7104315574328
 30
0.0
 40
498.6229992588858
100
AcDbArc
 50
180.2811387418738
 51
184.1450426266052
  0
ARC
  5
160
330
1F
100
AcDbEntity
  8
0
  6
CONTINUOUS
 62
     7
100
AcDbCircle
 10
383.6497209780829
 20
393.8041225197242
 30
0.0
 40
350.5824333977004
100
AcDbArc
 50
180.2632028213747
 51
184.6026676812847
  0
ARC
  5
161
330
1F
100
AcDbEntity
  8
0
  6
CONTINUOUS
 62
     7
100
AcDbCircle
 10
-6.977006150690176
 20
527.1882765323242
 30
0.0
 40
87.12304770235534
100
AcDbArc
 50
0.5782020763004322
 51
7.129412777085887
  0
ARC
  5
162
330
1F
100
AcDbEntity
  8
0
  6
CONTINUOUS
 62
     7
100
AcDbCircle
 10
-28.07385800467314
 20
528.1915397489691
 30
0.0
 40
78.16556378703274
100
AcDbArc
 50
1.040180451648236
 51
7.202111943461179
  0
ARC
  5
163
330
1F
100
AcDbEntity
  8
0
  6
CONTINUOUS
 62
     7
100
AcDbCircle
 10
601.4727327968926
 20
403.6582811338292
 30
0.0
 40
538.6155431051521
100
AcDbArc
 50
180.3037516782416
 51
184.0448880324419
  0
LINE
  5
164
330
1F
100
AcDbEntity
  8
0
  6
CONTINUOUS
 62
     7
100
AcDbLine
 10
101.3531519131956
 20
506.0641851214189
 30
0.0
 11
101.8477025331527
 21
506.0645029829213
 31
0.0
  0
ARC
  5
165
330
1F
100
AcDbEntity
  8
0
  6
CONTINUOUS
 62
     7
100
AcDbCircle
 10
415.8992892929541
 20
392.8468711487633
 30
0.0
 40
332.8128727845356
100
AcDbArc
 50
180.2346029391665
 51
184.6837038868579
  0
ARC
  5
166
330
1F
100
AcDbEntity
  8
0
  6
CONTINUOUS
 62
     7
100
AcDbCircle
 10
-98.81460880782706
 20
529.9727691604595
 30
0.0
 40
58.84059989486498
100
AcDbArc
 50
1.024976590401977
 51
7.815422007129668
  0
ARC
  5
167
330
1F
100
AcDbEntity
  8
0
  6
CONTINUOUS
 62
     7
100
AcDbCircle
 10
756.8002529362493
 20
412.8456444351285
 30
0.0
 40
734.1196759923791
100
AcDbArc
 50
180.327618172297
 51
183.6842870590822
  0
ARC
  5
168
330
1F
100
AcDbEntity
  8
0
  6
CONTINUOUS
 62
     7
100
AcDbCircle
 10
11309.64972691409
 20
649.1632712418698
 30
0.0
 40
11299.51252122075
100
AcDbArc
 50
180.9969521842887
 51
181.2705042595256
  0
ARC
  5
169
330
1F
100
AcDbEntity
  8
0
  6
CONTINUOUS
 62
     7
100
AcDbCircle
 10
-14600.86375946699
 20
145.5924390346857
 30
0.0
 40
14655.9744984831
100
AcDbArc
 50
0.9823225482347708
 51
1.501444614393834
  0
ARC
  5
16A
330
1F
100
AcDbEntity
  8
0
  6
CONTINUOUS
 62
     7
100
AcDbCircle
 10
-129.1522974668265
 20
438.2033803838895
 30
0.0
 40
1.500000000000001
100
AcDbArc
 50
180.0
 51
270.0
  0
LINE
  5
16B
330
1F
100
AcDbEntity
  8
0
  6
CONTINUOUS
 62
     7
100
AcDbLine
 10
147.3173963788434
 20
555.5033803838894
 30
0.0
 11
147.3151424794911
 21
555.5033803838894
 31
0.0
  0
ARC
  5
16C
330
1F
100
AcDbEntity
  8
0
  6
CONTINUOUS
 62
     7
100
AcDbCircle
 10
10877.4575601231
 20
641.1722387231207
 30
0.0
 40
10947.23069037963
100
AcDbArc
 50
181.0089081128463
 51
181.2662070657846
  0
ARC
  5
16D
330
1F
100
AcDbEntity
  8
0
  6
CONTINUOUS
 62
     7
100
AcDbCircle
 10
-11296.97751294
 20
218.8421212373401
 30
0.0
 40
11261.32204824603
100
AcDbArc
 50
0.9187012159750976
 51
1.588541000736794
  0
ARC
  5
16E
330
1F
100
AcDbEntity
  8
0
  6
CONTINUOUS
 62
     7
100
AcDbCircle
 10
851.8291458179981
 20
416.0134789121446
 30
0.0
 40
809.1987631614054
100
AcDbArc
 50
180.3681386795646
 51
183.566804675323
  0
ARC
  5
16F
330
1F
100
AcDbEntity
  8
0
  6
CONTINUOUS
 62
     7
100
AcDbCircle
 10
-18498.50330535298
 20
59.68635644724224
 30
0.0
 40
18534.55709838305
100
AcDbArc
 50
1.027933165434165
 51
1.449584633953566
  0
ARC
  5
170
330
1F
100
AcDbEntity
  8
0
  6
CONTINUOUS
 62
     7
100
AcDbCircle
 10
-11546.87681028015
 20
215.5132760926655
 30
0.0
 40
11501.2311903683
100
AcDbArc
 50
0.9254588299021437
 51
1.569409788044709
  0
ARC
  5
171
330
1F
100
AcDbEntity
  8
0
  6
CONTINUOUS
 62
     7
100
AcDbCircle
 10
-12400.94047887694
 20
197.4342100928067
 30
0.0
 40
12345.48345111437
100
AcDbArc
 50
0.9416701662749472
 51
1.543506826508127
  0
ARC
  5
172
330
1F
100
AcDbEntity
  8
0
  6
CONTINUOUS
 62
     7
100
AcDbCircle
 10
-2824.242854858921
 20
424.1453331515225
 30
0.0
 40
2796.220993796729
100
AcDbArc
 50
0.6185731277324306
 51
2.283730095884084
  0
ARC
  5
173
330
1F
100
AcDbEntity
  8
0
  6
CONTINUOUS
 62
     7
100
AcDbCircle
 10
-129.0287760922818
 20
528.861035652976
 30
0.0
 40
69.10124597455322
100
AcDbArc
 50
0.9215126020854438
 51
7.639680349913129
  0
LINE
  5
174
330
1F
100
AcDbEntity
  8
0
  6
CONTINUOUS
 62
     7
100
AcDbLine
 10
69.42953386343639
 20
538.1291652571787
 30
0.0
 11
69.36362913485567
 21
538.2033803838832
 31
0.0
  0
LINE
  5
175
330
1F
100
AcDbEntity
  8
0
  6
CONTINUOUS
 62
     7
100
AcDbLine
 10
99.8475809880403
 20
541.1672982864759
 30
0.0
 11
99.75612072301854
 21
540.8757084497454
 31
0.0
  0
ARC
  5
176
330
1F
100
AcDbEntity
  8
0
  6
CONTINUOUS
 62
     7
100
AcDbCircle
 10
556.1505221097804
 20
400.986303048938
 30
0.0
 40
483.244473953825
100
AcDbArc
 50
180.2599971470331
 51
184.1913183955446
  0
ARC
  5
177
330
1F
100
AcDbEntity
  8
0
  6
CONTINUOUS
 62
     7
100
AcDbCircle
 10
-8.274496357297073
 20
530.8046715506769
 30
0.0
 40
48.26500697533205
100
AcDbArc
 50
1.155039422707296
 51
8.719814004676708
  0
ARC
  5
178
330
1F
100
AcDbEntity
  8
0
  6
CONTINUOUS
 62
     7
100
AcDbCircle
 10
-51.78992762193162
 20
362.6278549836794
 30
0.0
 40
0.6424367178292298
100
AcDbArc
 50
318.657445356234
 51
2.379456606999156
  0
LINE
  5
179
330
1F
100
AcDbEntity
  8
0
  6
CONTINUOUS
 62
     7
100
AcDbLine
 10
-46.1476711215977
 20
540.75018464537
 30
0.0
 11
-46.3073481498133
 21
541.2033300427934
 31
0.0
  0
ARC
  5
17A
330
1F
100
AcDbEntity
  8
0
  6
CONTINUOUS
 62
     7
100
AcDbCircle
 10
-41.78664580452864
 20
362.6272707127301
 30
0.0
 40
0.6394267304076432
100
AcDbArc
 50
318.47842135067
 51
2.53285953039591
  0
ARC
  5
17B
330
1F
100
AcDbEntity
  8
0
  6
CONTINUOUS
 62
     7
100
AcDbCircle
 10
80.36482450400749
 20
540.7805898316988
 30
0.0
 40
0.633041849282011
100
AcDbArc
 50
138.273049876766
 51
182.5968333109594
  0
LINE
  5
17C
330
1F
100
AcDbEntity
  8
0
  6
CONTINUOUS
 62
     7
100
AcDbLine
 10
99.42373131004788
 20
538.1416895025287
 30
0.0
 11
99.3635479343521
 21
538.2033803838304
 31
0.0
  0
ARC
  5
17D
330
1F
100
AcDbEntity
  8
0
  6
CONTINUOUS
 62
     7
100
AcDbCircle
 10
-56.79078599119483
 20
540.7777477962306
 30
0.0
 40
0.6436552921203451
100
AcDbArc
 50
357.5584937265477
 51
41.37518645314122
  0
LINE
  5
17E
330
1F
100
AcDbEntity
  8
0
  6
CONTINUOUS
 62
     7
100
AcDbLine
 10
101.8477025331735
 20
495.3566989374211
 30
0.0
 11
101.5814596593359
 21
495.3562227952124
 31
0.0
  0
ARC
  5
17F
330
1F
100
AcDbEntity
  8
0
  6
CONTINUOUS
 62
     7
100
AcDbCircle
 10
-0.7626624783865151
 20
529.6944150696302
 30
0.0
 40
60.79548237432606
100
AcDbArc
 50
1.181269695031059
 51
7.912759203464735
  0
ARC
  5
180
330
1F
100
AcDbEntity
  8
0
  6
CONTINUOUS
 62
     7
100
AcDbCircle
 10
12.89321320270121
 20
540.6644593122932
 30
0.0
 40
0.9631174059039458
100
AcDbArc
 50
5.137219596012106
 51
33.95795494603367
  0
ARC
  5
181
330
1F
100
AcDbEntity
  8
0
  6
CONTINUOUS
 62
     7
100
AcDbCircle
 10
557.5961039147423
 20
400.0971106706267
 30
0.0
 40
464.6753514210225
100
AcDbArc
 50
180.2327149929707
 51
184.2486740669402
  0
ARC
  5
182
330
1F
100
AcDbEntity
  8
0
  6
CONTINUOUS
 62
     7
100
AcDbCircle
 10
31.93279312988727
 20
529.9517289221411
 30
0.0
 40
58.08863975881078
100
AcDbArc
 50
1.244427655968191
 51
8.037299704368486
  0
LINE
  5
183
330
1F
100
AcDbEntity
  8
0
  6
CONTINUOUS
 62
     7
100
AcDbLine
 10
99.75149215058951
 20
540.8530745301566
 30
0.0
 11
99.73324681387999
 21
540.7564676042512
 31
0.0
  0
ARC
  5
184
330
1F
100
AcDbEntity
  8
0
  6
CONTINUOUS
 62
     7
100
AcDbCircle
 10
-49.71637810163576
 20
534.4845530884462
 30
0.0
 40
19.50380962989331
100
AcDbArc
 50
3.188288705912422
 51
10.52016647330134
  0
ARC
  5
185
330
1F
100
AcDbEntity
  8
0
  6
CONTINUOUS
 62
     7
100
AcDbCircle
 10
-13760.86585775534
 20
165.5796665191945
 30
0.0
 40
13835.74253397419
100
AcDbArc
 50
0.9658171784220675
 51
1.505517515102078
  0
ARC
  5
186
330
1F
100
AcDbEntity
  8
0
  6
CONTINUOUS
 62
     7
100
AcDbCircle
 10
469.9918752037705
 20
403.09219955022
 30
0.0
 40
527.1234871547848
100
AcDbArc
 50
180.3006609610075
 51
184.0713101277142
  0
ARC
  5
187
330
1F
100
AcDbEntity
  8
0
  6
CONTINUOUS
 62
     7
100
AcDbCircle
 10
8.216849624136088
 20
529.0404537701662
 30
0.0
 40
61.88374090400836
100
AcDbArc
 50
0.0450312143657332
 51
8.445438066757053
  0
ARC
  5
188
330
1F
100
AcDbEntity
  8
0
  6
CONTINUOUS
 62
     7
100
AcDbCircle
 10
507.131089162674
 20
399.3122467352666
 30
0.0
 40
454.1809633965417
100
AcDbArc
 50
180.3101977932272
 51
184.2476375777322
  0
ARC
  5
189
330
1F
100
AcDbEntity
  8
0
  6
CONTINUOUS
 62
     7
100
AcDbCircle
 10
462.3302205377091
 20
401.7779680945312
 30
0.0
 40
499.4389505797562
100
AcDbArc
 50
180.2725168172308
 51
184.1459413204293
  0
ARC
  5
18A
330
1F
100
AcDbEntity
  8
0
  6
CONTINUOUS
 62
     7
100
AcDbCircle
 10
-19939.89031716426
 20
27.69222261213072
 30
0.0
 40
20026.28406775138
100
AcDbArc
 50
1.040876482807265
 51
1.431737082108455
  0
ARC
  5
18B
330
1F
100
AcDbEntity
  8
0
  6
CONTINUOUS
 62
     7
100
AcDbCircle
 10
75.36188814915495
 20
362.6240672549482
 30
0.0
 40
0.6295024612593305
100
AcDbArc
 50
177.4794199064862
 51
221.7506285992968
  0
ARC
  5
18C
330
1F
100
AcDbEntity
  8
0
  6
CONTINUOUS
 62
     7
100
AcDbCircle
 10
48.21573466669786
 20
362.6279681372215
 30
0.0
 40
0.6373613194101735
100
AcDbArc
 50
318.4138958485262
 51
2.530101157698255
  0
ARC
  5
18D
330
1F
100
AcDbEntity
  8
0
  6
CONTINUOUS
 62
     7
100
AcDbCircle
 10
-11392.4560314136
 20
215.5026152575074
 30
0.0
 40
11456.81939191032
100
AcDbArc
 50
0.9267304922573842
 51
1.577746719522242
  0
ARC
  5
18E
330
1F
100
AcDbEntity
  8
0
  6
CONTINUOUS
 62
     7
100
AcDbCircle
 10
511.4307566753761
 20
404.5365563926562
 30
0.0
 40
558.5861747363416
100
AcDbArc
 50
180.3343872821236
 51
183.9900674165003
  0
ARC
  5
18F
330
1F
100
AcDbEntity
  8
0
  6
CONTINUOUS
 62
     7
100
AcDbCircle
 10
-37.44193589013864
 20
530.0813643899157
 30
0.0
 40
57.46528249046695
100
AcDbArc
 50
0.9672957869977189
 51
7.899107479188237
  0
LINE
  5
190
330
1F
100
AcDbEntity
  8
0
  6
CONTINUOUS
 62
     7
100
AcDbLine
 10
29.43651489062567
 20
538.1122824927934
 30
0.0
 11
29.3635931194699
 21
538.2033803838244
 31
0.0
  0
ARC
  5
191
330
1F
100
AcDbEntity
  8
0
  6
CONTINUOUS
 62
     7
100
AcDbCircle
 10
-61.7891491956725
 20
362.6282991890545
 30
0.0
 40
0.6418679170315954
100
AcDbArc
 50
318.5804043377501
 51
2.440008934436435
  0
ARC
  5
192
330
1F
100
AcDbEntity
  8
0
  6
CONTINUOUS
 62
     7
100
AcDbCircle
 10
-66.79075610695644
 20
540.7774214858412
 30
0.0
 40
0.6436797519946174
100
AcDbArc
 50
357.556879239316
 51
41.38813041252803
  0
LINE
  5
193
330
1F
100
AcDbEntity
  8
0
  6
CONTINUOUS
 62
     7
100
AcDbLine
 10
-28.15229746682651
 20
454.3185045109997
 30
0.0
 11
-28.15229746682651
 21
449.0882562567797
 31
0.0
  0
LINE
  5
194
330
1F
100
AcDbEntity
  8
0
  6
CONTINUOUS
 62
     7
100
AcDbLine
 10
-95.15229746682651
 20
534.2033803838895
 30
0.0
 11
-95.65229746682654
 21
534.2033803838895
 31
0.0
  0
LINE
  5
195
330
1F
100
AcDbEntity
  8
0
  6
CONTINUOUS
 62
     7
100
AcDbLine
 10
-140.1914543119154
 20
343.2033824155401
 30
0.0
 11
-132.9763623516746
 21
347.2027731189194
 31
0.0
  0
LINE
  5
196
330
1F
100
AcDbEntity
  8
0
  6
CONTINUOUS
 62
     7
100
AcDbLine
 10
-46.30734814425644
 20
541.2033300427111
 30
0.0
 11
-50.10734814424611
 21
541.2033387717601
 31
0.0
  0
LINE
  5
197
330
1F
100
AcDbEntity
  8
0
  6
CONTINUOUS
 62
     7
100
AcDbLine
 10
-56.30778873416209
 20
541.2031955424621
 30
0.0
 11
-60.10778873415212
 21
541.203204271498
 31
0.0
  0
LINE
  5
198
330
1F
100
AcDbEntity
  8
0
  6
CONTINUOUS
 62
     7
100
AcDbLine
 10
93.6923701460781
 20
541.202078826475
 30
0.0
 11
89.89237014608814
 21
541.202087555402
 31
0.0
  0
LINE
  5
199
330
1F
100
AcDbEntity
  8
0
  6
CONTINUOUS
 62
     7
100
AcDbLine
 10
-94.15229746682648
 20
370.8823103591092
 30
0.0
 11
-68.15229746682652
 21
370.8823103591092
 31
0.0
  0
LINE
  5
19A
330
1F
100
AcDbEntity
  8
0
  6
CONTINUOUS
 62
     7
100
AcDbLine
 10
-95.15229746682651
 20
441.2033803838895
 30
0.0
 11
-95.65229746682641
 21
441.2033803838895
 31
0.0
  0
LINE
  5
19B
330
1F
100
AcDbEntity
  8
0
  6
CONTINUOUS
 62
     7
100
AcDbLine
 10
3.847702533173458
 20
356.2479224589835
 30
0.0
 11
-27.65229746682651
 21
356.2479224589835
 31
0.0
  0
LINE
  5
19C
330
1F
100
AcDbEntity
  8
0
  6
CONTINUOUS
 62
     7
100
AcDbLine
 10
-25.15229746682651
 20
359.3880117781051
 30
0.0
 11
-25.15229746682651
 21
359.3881284330605
 31
0.0
  0
LINE
  5
19D
330
1F
100
AcDbEntity
  8
0
  6
CONTINUOUS
 62
     7
100
AcDbLine
 10
-97.65229746682652
 20
548.2033803838895
 30
0.0
 11
-128.6522974668265
 21
548.2033803838895
 31
0.0
  0
LINE
  5
19E
330
1F
100
AcDbEntity
  8
0
  6
CONTINUOUS
 62
     7
100
AcDbLine
 10
14.89251954939919
 20
362.2044208998581
 30
0.0
 11
18.69251954938916
 21
362.2044296288096
 31
0.0
  0
ARC
  5
19F
330
1F
100
AcDbEntity
  8
0
  6
CONTINUOUS
 62
     7
100
AcDbCircle
 10
-260.1522974668265
 20
340.2033803838895
 30
0.0
 40
2.000000000000002
100
AcDbArc
 50
270.0
 51
0.0
  0
ARC
  5
1A0
330
1F
100
AcDbEntity
  8
0
  6
CONTINUOUS
 62
     7
100
AcDbCircle
 10
-97.65229746682652
 20
546.2033803838895
 30
0.0
 40
2.000000000000002
100
AcDbArc
 50
0.0
 51
90.0
  0
LINE
  5
1A1
330
1F
100
AcDbEntity
  8
0
  6
CONTINUOUS
 62
     7
100
AcDbLine
 10
119.8477025331735
 20
362.7033803838895
 30
0.0
 11
121.8477025331735
 21
360.7033803838895
 31
0.0
  0
ARC
  5
1A2
330
1F
100
AcDbEntity
  8
0
  6
CONTINUOUS
 62
     7
100
AcDbCircle
 10
-295.1522974668265
 20
464.7033803838895
 30
0.0
 40
2.000000000000002
100
AcDbArc
 50
89.99999999999841
 51
180.0
  0
LINE
  5
1A3
330
1F
100
AcDbEntity
  8
0
  6
CONTINUOUS
 62
     7
100
AcDbLine
 10
-131.1198724984224
 20
369.2033803838895
 30
0.0
 11
-130.6522974668264
 21
369.2033803838895
 31
0.0
  0
LINE
  5
1A4
330
1F
100
AcDbEntity
  8
0
  6
CONTINUOUS
 62
     7
100
AcDbLine
 10
-28.13394285399967
 20
541.6082513033246
 30
0.0
 11
-28.15229746682651
 21
541.3164963177977
 31
0.0
  0
LINE
  5
1A5
330
1F
100
AcDbEntity
  8
0
  6
CONTINUOUS
 62
     7
100
AcDbLine
 10
3.847702533173458
 20
496.9054086000421
 30
0.0
 11
-27.65229746682651
 21
496.9054086000421
 31
0.0
  0
ARC
  5
1A6
330
1F
100
AcDbEntity
  8
0
  6
CONTINUOUS
 62
     7
100
AcDbCircle
 10
33.22795082847738
 20
540.7844895321361
 30
0.0
 40
0.6243746189800541
100
AcDbArc
 50
357.3340639832952
 51
41.96924450430402
  0
LINE
  5
1A7
330
1F
100
AcDbEntity
  8
0
  6
CONTINUOUS
 62
     7
100
AcDbLine
 10
4.847702533173459
 20
396.8787613062062
 30
0.0
 11
4.847702533173459
 21
362.1530529529587
 31
0.0
  0
ARC
  5
1A8
330
1F
100
AcDbEntity
  8
0
  6
CONTINUOUS
 62
     7
100
AcDbCircle
 10
-130.6258640861188
 20
367.2653515686823
 30
0.0
 40
1.999999999999964
100
AcDbArc
 50
104.3002489917021
 51
105.129099993735
  0
LINE
  5
1A9
330
1F
100
AcDbEntity
  8
0
  6
CONTINUOUS
 62
     7
100
AcDbLine
 10
4.847702533173459
 20
541.2537078148202
 30
0.0
 11
4.847702533173459
 21
506.5279994615728
 31
0.0
  0
ARC
  5
1AA
330
1F
100
AcDbEntity
  8
0
  6
CONTINUOUS
 62
     7
100
AcDbCircle
 10
-27.66218789890734
 20
531.6301930052783
 30
0.0
 40
1.2818630219104
100
AcDbArc
 50
89.55792028569792
 51
104.757647525251
  0
LINE
  5
1AB
330
1F
100
AcDbEntity
  8
0
  6
CONTINUOUS
 62
     7
100
AcDbLine
 10
-25.15229746682651
 20
454.8868784279136
 30
0.0
 11
-25.15229746682651
 21
454.8948516893665
 31
0.0
  0
LINE
  5
1AC
330
1F
100
AcDbEntity
  8
0
  6
CONTINUOUS
 62
     7
100
AcDbLine
 10
3.847702533173458
 20
532.9120178709658
 30
0.0
 11
-27.65229746682651
 21
532.9120178709658
 31
0.0
  0
LINE
  5
1AD
330
1F
100
AcDbEntity
  8
0
  6
CONTINUOUS
 62
     7
100
AcDbLine
 10
3.847702533173458
 20
406.5013521677369
 30
0.0
 11
-27.65229746682651
 21
406.5013521677369
 31
0.0
  0
LINE
  5
1AE
330
1F
100
AcDbEntity
  8
0
  6
CONTINUOUS
 62
     7
100
AcDbLine
 10
-130.6522974668264
 20
534.2033803838895
 30
0.0
 11
-131.1198724984223
 21
534.2033803838895
 31
0.0
  0
ARC
  5
1AF
330
1F
100
AcDbEntity
  8
0
  6
CONTINUOUS
 62
     7
100
AcDbCircle
 10
38.22122493397018
 20
362.625765323189
 30
0.0
 40
0.631715940139103
100
AcDbArc
 50
318.2125244846662
 51
2.637720755423857
  0
LINE
  5
1B0
330
1F
100
AcDbEntity
  8
0
  6
CONTINUOUS
 62
     7
100
AcDbLine
 10
-28.13394501921085
 20
505.1255005541583
 30
0.0
 11
-28.15142211900687
 21
504.9894622171115
 31
0.0
  0
LINE
  5
1B1
330
1F
100
AcDbEntity
  8
0
  6
CONTINUOUS
 62
     7
100
AcDbLine
 10
-95.65229746682654
 20
369.2033803838895
 30
0.0
 11
-95.15229746682648
 21
369.2033803838895
 31
0.0
  0
LINE
  5
1B2
330
1F
100
AcDbEntity
  8
0
  6
CONTINUOUS
 62
     7
100
AcDbLine
 10
4.847702533173459
 20
448.9990312252762
 30
0.0
 11
4.847702533173459
 21
401.5628314503306
 31
0.0
  0
LINE
  5
1B3
330
1F
100
AcDbEntity
  8
0
  6
CONTINUOUS
 62
     7
100
AcDbLine
 10
-95.15229746682651
 20
459.2033803838895
 30
0.0
 11
-95.65229746682641
 21
459.2033803838895
 31
0.0
  0
LINE
  5
1B4
330
1F
100
AcDbEntity
  8
0
  6
CONTINUOUS
 62
     7
100
AcDbLine
 10
3.847702533173458
 20
370.4947428968132
 30
0.0
 11
-27.65229746682651
 21
370.4947428968132
 31
0.0
  0
LINE
  5
1B5
330
1F
100
AcDbEntity
  8
0
  6
CONTINUOUS
 62
     7
100
AcDbLine
 10
-25.15229746682651
 20
544.0186323260735
 30
0.0
 11
-25.15229746682651
 21
544.0187489896738
 31
0.0
  0
LINE
  5
1B6
330
1F
100
AcDbEntity
  8
0
  6
CONTINUOUS
 62
     7
100
AcDbLine
 10
-94.15229746682648
 20
532.5244504086697
 30
0.0
 11
-68.15229746682652
 21
532.5244504086697
 31
0.0
  0
LINE
  5
1B7
330
1F
100
AcDbEntity
  8
0
  6
CONTINUOUS
 62
     7
100
AcDbLine
 10
-35.10760984948827
 20
362.2034002167223
 30
0.0
 11
-31.30760984949829
 21
362.2034089457734
 31
0.0
  0
ARC
  5
1B8
330
1F
100
AcDbEntity
  8
0
  6
CONTINUOUS
 62
     7
100
AcDbCircle
 10
-130.6258640861188
 20
536.1414091990966
 30
0.0
 40
1.999999999999965
100
AcDbArc
 50
254.8624888272752
 51
255.6995276593189
  0
LINE
  5
1B9
330
1F
100
AcDbEntity
  8
0
  6
CONTINUOUS
 62
     7
100
AcDbLine
 10
-258.1522974668265
 20
349.7033803838895
 30
0.0
 11
-257.1522974668265
 21
349.7033803838895
 31
0.0
  0
LINE
  5
1BA
330
1F
100
AcDbEntity
  8
0
  6
CONTINUOUS
 62
     7
100
AcDbLine
 10
94.89221020997527
 20
362.2045762126207
 30
0.0
 11
98.6922102099653
 21
362.2045849415567
 31
0.0
  0
LINE
  5
1BB
330
1F
100
AcDbEntity
  8
0
  6
CONTINUOUS
 62
     7
100
AcDbLine
 10
23.69255022701987
 20
541.2022218850811
 30
0.0
 11
19.89255022702993
 21
541.202230614022
 31
0.0
  0
LINE
  5
1BC
330
1F
100
AcDbEntity
  8
0
  6
CONTINUOUS
 62
     7
100
AcDbLine
 10
4.847702533173459
 20
556.6685483951317
 30
0.0
 11
4.847702533173459
 21
543.9580569734336
 31
0.0
  0
LINE
  5
1BD
330
1F
100
AcDbEntity
  8
0
  6
CONTINUOUS
 62
     7
100
AcDbLine
 10
-28.15229746682651
 20
362.0902644499812
 30
0.0
 11
-28.12094620260233
 21
361.7093731660188
 31
0.0
  0
LINE
  5
1BE
330
1F
100
AcDbEntity
  8
0
  6
CONTINUOUS
 62
     7
100
AcDbLine
 10
-95.15229746682651
 20
536.4852945923626
 30
0.0
 11
-95.15229746682651
 21
545.2033803838896
 31
0.0
  0
LINE
  5
1BF
330
1F
100
AcDbEntity
  8
0
  6
CONTINUOUS
 62
     7
100
AcDbLine
 10
-95.15229746682651
 20
462.2033803838895
 30
0.0
 11
-95.65229746682651
 21
462.2033803838895
 31
0.0
  0
LINE
  5
1C0
330
1F
100
AcDbEntity
  8
0
  6
CONTINUOUS
 62
     7
100
AcDbLine
 10
4.847702533173459
 20
501.8439293174484
 30
0.0
 11
4.847702533173459
 21
454.4077295425028
 31
0.0
  0
LINE
  5
1C1
330
1F
100
AcDbEntity
  8
0
  6
CONTINUOUS
 62
     7
100
AcDbLine
 10
-60.26736459838084
 20
540.7521816356402
 30
0.0
 11
-60.71914086602689
 21
538.2033499767774
 31
0.0
  0
LINE
  5
1C2
330
1F
100
AcDbEntity
  8
0
  6
CONTINUOUS
 62
     7
100
AcDbLine
 10
-40.26740814856136
 20
540.7515198057527
 30
0.0
 11
-40.71907165576091
 21
538.2033499151354
 31
0.0
  0
LINE
  5
1C3
330
1F
100
AcDbEntity
  8
0
  6
CONTINUOUS
 62
     7
100
AcDbLine
 10
19.73218019247058
 20
540.7492310042451
 30
0.0
 11
19.28091039856405
 21
538.2033498566075
 31
0.0
  0
LINE
  5
1C4
330
1F
100
AcDbEntity
  8
0
  6
CONTINUOUS
 62
     7
100
AcDbLine
 10
-294.1522974668265
 20
338.2033803838895
 30
0.0
 11
-260.1522974668265
 21
338.2033803838895
 31
0.0
  0
LINE
  5
1C5
330
1F
100
AcDbEntity
  8
0
  6
CONTINUOUS
 62
     7
100
AcDbLine
 10
3.847702533173458
 20
547.1588383087957
 30
0.0
 11
-27.65229746682651
 21
547.1588383087957
 31
0.0
  0
LINE
  5
1C6
330
1F
100
AcDbEntity
  8
0
  6
CONTINUOUS
 62
     7
100
AcDbLine
 10
4.847702533173459
 20
359.4487037943453
 30
0.0
 11
4.847702533173459
 21
346.7382123726472
 31
0.0
  0
LINE
  5
1C7
330
1F
100
AcDbEntity
  8
0
  6
CONTINUOUS
 62
     7
100
AcDbLine
 10
-132.8541662973277
 20
354.2033803838895
 30
0.0
 11
-131.6522974668265
 21
354.2033803838895
 31
0.0
  0
LINE
  5
1C8
330
1F
100
AcDbEntity
  8
0
  6
CONTINUOUS
 62
     7
100
AcDbLine
 10
-28.15229746682651
 20
449.0882562567793
 30
0.0
 11
-28.13996120791087
 21
449.0801778257164
 31
0.0
  0
LINE
  5
1C9
330
1F
100
AcDbEntity
  8
0
  6
CONTINUOUS
 62
     7
100
AcDbLine
 10
-66.30783662617945
 20
541.2029945092036
 30
0.0
 11
-68.15229746682652
 21
541.2029987461322
 31
0.0
  0
LINE
  5
1CA
330
1F
100
AcDbEntity
  8
0
  6
CONTINUOUS
 62
     7
100
AcDbLine
 10
-260.2131318847523
 20
466.7033803838895
 30
0.0
 11
-260.1522974668265
 21
466.7040748982737
 31
0.0
  0
LINE
  5
1CB
330
1F
100
AcDbEntity
  8
0
  6
CONTINUOUS
 62
     7
100
AcDbLine
 10
-257.1522974668265
 20
555.7033803838896
 30
0.0
 11
-258.1522974668265
 21
555.7033803838896
 31
0.0
  0
LINE
  5
1CC
330
1F
100
AcDbEntity
  8
0
  6
CONTINUOUS
 62
     7
100
AcDbLine
 10
-131.6522974668265
 20
549.2033803838895
 30
0.0
 11
-132.8541662973277
 21
549.2033803838895
 31
0.0
  0
LINE
  5
1CD
330
1F
100
AcDbEntity
  8
0
  6
CONTINUOUS
 62
     7
100
AcDbLine
 10
-95.15229746682651
 20
444.2033803838895
 30
0.0
 11
-95.65229746682651
 21
444.2033803838895
 31
0.0
  0
LINE
  5
1CE
330
1F
100
AcDbEntity
  8
0
  6
CONTINUOUS
 62
     7
100
AcDbLine
 10
-28.15142211900687
 20
504.9894622171115
 30
0.0
 11
-28.15229746682651
 21
504.951379610004
 31
0.0
  0
LINE
  5
1CF
330
1F
100
AcDbEntity
  8
0
  6
CONTINUOUS
 62
     7
100
AcDbLine
 10
-25.15229746682651
 20
448.5119090784125
 30
0.0
 11
-25.15229746682651
 21
448.5198822692478
 31
0.0
  0
LINE
  5
1D0
330
1F
100
AcDbEntity
  8
0
  6
CONTINUOUS
 62
     7
100
AcDbLine
 10
-28.15229746682651
 20
398.455381157775
 30
0.0
 11
-28.12101220140983
 21
398.2282878125057
 31
0.0
  0
LINE
  5
1D1
330
1F
100
AcDbEntity
  8
0
  6
CONTINUOUS
 62
     7
100
AcDbLine
 10
59.73216405162633
 20
540.7500510116316
 30
0.0
 11
59.280752255442
 21
538.2033500500467
 31
0.0
  0
LINE
  5
1D2
330
1F
100
AcDbEntity
  8
0
  6
CONTINUOUS
 62
     7
100
AcDbLine
 10
64.89233082140402
 20
362.2049600599497
 30
0.0
 11
68.69233082139397
 21
362.2049687888488
 31
0.0
  0
LINE
  5
1D3
330
1F
100
AcDbEntity
  8
0
  6
CONTINUOUS
 62
     7
100
AcDbLine
 10
-30.77869598742197
 20
365.2033803838895
 30
0.0
 11
-28.15229746682651
 21
365.2033803838895
 31
0.0
  0
LINE
  5
1D4
330
1F
100
AcDbEntity
  8
0
  6
CONTINUOUS
 62
     7
100
AcDbLine
 10
-60.63659061699708
 20
538.2033803838895
 30
0.0
 11
-65.69627546577397
 21
538.2033803838895
 31
0.0
  0
LINE
  5
1D5
330
1F
100
AcDbEntity
  8
0
  6
CONTINUOUS
 62
     7
100
AcDbLine
 10
-30.6366027757041
 20
538.2033803838895
 30
0.0
 11
-35.69622878903658
 21
538.2033803838895
 31
0.0
  0
LINE
  5
1D6
330
1F
100
AcDbEntity
  8
0
  6
CONTINUOUS
 62
     7
100
AcDbLine
 10
-132.9763623516747
 20
556.2039876488597
 30
0.0
 11
-140.1914543119154
 21
560.2033783522389
 31
0.0
  0
LINE
  5
1D7
330
1F
100
AcDbEntity
  8
0
  6
CONTINUOUS
 62
     7
100
AcDbLine
 10
39.73289485574105
 20
540.753682909004
 30
0.0
 11
39.28083599143818
 21
538.2033503273732
 31
0.0
  0
LINE
  5
1D8
330
1F
100
AcDbEntity
  8
0
  6
CONTINUOUS
 62
     7
100
AcDbLine
 10
84.89255965524679
 20
362.204759973414
 30
0.0
 11
88.69255965523675
 21
362.2047687023325
 31
0.0
  0
LINE
  5
1D9
330
1F
100
AcDbEntity
  8
0
  6
CONTINUOUS
 62
     7
100
AcDbLine
 10
69.73242952878118
 20
540.7517500165553
 30
0.0
 11
69.28071940964678
 21
538.2033502293715
 31
0.0
  0
LINE
  5
1DA
330
1F
100
AcDbEntity
  8
0
  6
CONTINUOUS
 62
     7
100
AcDbLine
 10
89.73235170575295
 20
540.7514950088103
 30
0.0
 11
89.2806945407424
 21
538.203350172596
 31
0.0
  0
LINE
  5
1DB
330
1F
100
AcDbEntity
  8
0
  6
CONTINUOUS
 62
     7
100
AcDbLine
 10
59.22106540557586
 20
365.2033803838895
 30
0.0
 11
64.28073855207259
 21
365.2033803838895
 31
0.0
  0
LINE
  5
1DC
330
1F
100
AcDbEntity
  8
0
  6
CONTINUOUS
 62
     7
100
AcDbLine
 10
94.19428769390423
 20
365.6908450062979
 30
0.0
 11
94.73219005224587
 21
362.6562009866455
 31
0.0
  0
LINE
  5
1DD
330
1F
100
AcDbEntity
  8
0
  6
CONTINUOUS
 62
     7
100
AcDbLine
 10
29.22111763599919
 20
365.2033803838895
 30
0.0
 11
34.28085489457403
 21
365.2033803838895
 31
0.0
  0
LINE
  5
1DE
330
1F
100
AcDbEntity
  8
0
  6
CONTINUOUS
 62
     7
100
AcDbLine
 10
29.73215370754388
 20
540.7492813477664
 30
0.0
 11
29.28087992899123
 21
538.2033793934677
 31
0.0
  0
LINE
  5
1DF
330
1F
100
AcDbEntity
  8
0
  6
CONTINUOUS
 62
     7
100
AcDbLine
 10
13.69206872983844
 20
541.2024416561637
 30
0.0
 11
11.84770253317349
 21
541.2024458928487
 31
0.0
  0
LINE
  5
1E0
330
1F
100
AcDbEntity
  8
0
  6
CONTINUOUS
 62
     7
100
AcDbLine
 10
-286.6522974668266
 20
466.7033803838895
 30
0.0
 11
-286.7397861303525
 21
467.7033803838895
 31
0.0
  0
LINE
  5
1E1
330
1F
100
AcDbEntity
  8
0
  6
CONTINUOUS
 62
     7
100
AcDbLine
 10
33.6921758022666
 20
541.2020285710062
 30
0.0
 11
29.89217580227668
 21
541.2020372999282
 31
0.0
  0
LINE
  5
1E2
330
1F
100
AcDbEntity
  8
0
  6
CONTINUOUS
 62
     7
100
AcDbLine
 10
49.73230994592183
 20
540.7506374048018
 30
0.0
 11
49.28079216051173
 21
538.20335003667
 31
0.0
  0
LINE
  5
1E3
330
1F
100
AcDbEntity
  8
0
  6
CONTINUOUS
 62
     7
100
AcDbLine
 10
-36.30773161045786
 20
541.2033746223398
 30
0.0
 11
-40.10773161044798
 21
541.2033833513931
 31
0.0
  0
LINE
  5
1E4
330
1F
100
AcDbEntity
  8
0
  6
CONTINUOUS
 62
     7
100
AcDbLine
 10
-295.5648088033007
 20
467.7033803838895
 30
0.0
 11
-295.6522974668266
 21
466.7033803838895
 31
0.0
  0
LINE
  5
1E5
330
1F
100
AcDbEntity
  8
0
  6
CONTINUOUS
 62
     7
100
AcDbLine
 10
-55.10760301047677
 20
362.2034786008129
 30
0.0
 11
-51.30760301048676
 21
362.2034873298563
 31
0.0
  0
LINE
  5
1E6
330
1F
100
AcDbEntity
  8
0
  6
CONTINUOUS
 62
     7
100
AcDbLine
 10
121.8477025331735
 20
560.3322124510444
 30
0.0
 11
115.052169579862
 21
561.7022040007323
 31
0.0
  0
LINE
  5
1E7
330
1F
100
AcDbEntity
  8
0
  6
CONTINUOUS
 62
     7
100
AcDbLine
 10
79.73244518689748
 20
540.7519782648379
 30
0.0
 11
79.28069813271688
 21
538.203350224858
 31
0.0
  0
LINE
  5
1E8
330
1F
100
AcDbEntity
  8
0
  6
CONTINUOUS
 62
     7
100
AcDbLine
 10
-40.63662156368972
 20
538.2033803838895
 30
0.0
 11
-45.69625435749228
 21
538.2033803838895
 31
0.0
  0
LINE
  5
1E9
330
1F
100
AcDbEntity
  8
0
  6
CONTINUOUS
 62
     7
100
AcDbLine
 10
24.39017615051971
 20
537.7171662709944
 30
0.0
 11
23.85226068139495
 21
540.7519698594234
 31
0.0
  0
LINE
  5
1EA
330
1F
100
AcDbEntity
  8
0
  6
CONTINUOUS
 62
     7
100
AcDbLine
 10
19.22114685350776
 20
365.2033803838895
 30
0.0
 11
24.28089332283514
 21
365.2033803838895
 31
0.0
  0
LINE
  5
1EB
330
1F
100
AcDbEntity
  8
0
  6
CONTINUOUS
 62
     7
100
AcDbLine
 10
94.39018734185468
 20
537.7160973620743
 30
0.0
 11
93.85222285010032
 21
540.7510652189331
 31
0.0
  0
LINE
  5
1EC
330
1F
100
AcDbEntity
  8
0
  6
CONTINUOUS
 62
     7
100
AcDbLine
 10
19.36355189689273
 20
538.2033803838895
 30
0.0
 11
14.30396147913723
 21
538.2033803838895
 31
0.0
  0
LINE
  5
1ED
330
1F
100
AcDbEntity
  8
0
  6
CONTINUOUS
 62
     7
100
AcDbLine
 10
-50.26745504952657
 20
540.7514461658603
 30
0.0
 11
-50.71910307531429
 21
538.2033499111635
 31
0.0
  0
LINE
  5
1EE
330
1F
100
AcDbEntity
  8
0
  6
CONTINUOUS
 62
     7
100
AcDbLine
 10
78.85257028782556
 20
362.6573096626262
 30
0.0
 11
79.3038618737766
 21
365.2033832771099
 31
0.0
  0
LINE
  5
1EF
330
1F
100
AcDbEntity
  8
0
  6
CONTINUOUS
 62
     7
100
AcDbLine
 10
-28.15229746682657
 20
541.20330734439
 30
0.0
 11
-30.10749166315701
 21
541.2033118357008
 31
0.0
  0
LINE
  5
1F0
330
1F
100
AcDbEntity
  8
0
  6
CONTINUOUS
 62
     7
100
AcDbLine
 10
83.69236941596434
 20
541.2019220312666
 30
0.0
 11
79.89236941597436
 21
541.2019307601782
 31
0.0
  0
LINE
  5
1F1
330
1F
100
AcDbEntity
  8
0
  6
CONTINUOUS
 62
     7
100
AcDbLine
 10
-40.77868270368648
 20
365.2033803838895
 30
0.0
 11
-35.71905899491232
 21
365.2033803838895
 31
0.0
  0
LINE
  5
1F2
330
1F
100
AcDbEntity
  8
0
  6
CONTINUOUS
 62
     7
100
AcDbLine
 10
73.69230169101692
 20
541.2018203064024
 30
0.0
 11
69.89230169102694
 21
541.201829035304
 31
0.0
  0
LINE
  5
1F3
330
1F
100
AcDbEntity
  8
0
  6
CONTINUOUS
 62
     7
100
AcDbLine
 10
24.89244958444099
 20
362.2046310734422
 30
0.0
 11
28.69244958443093
 21
362.2046398023732
 31
0.0
  0
LINE
  5
1F4
330
1F
100
AcDbEntity
  8
0
  6
CONTINUOUS
 62
     7
100
AcDbLine
 10
99.7332681239729
 20
540.7565873045778
 30
0.0
 11
99.28071130837372
 21
538.2033505410271
 31
0.0
  0
LINE
  5
1F5
330
1F
100
AcDbEntity
  8
0
  6
CONTINUOUS
 62
     7
100
AcDbLine
 10
79.22107865603262
 20
365.2033803838895
 30
0.0
 11
84.28069377393213
 21
365.2033803838895
 31
0.0
  0
LINE
  5
1F6
330
1F
100
AcDbEntity
  8
0
  6
CONTINUOUS
 62
     7
100
AcDbLine
 10
64.3903111860778
 20
537.7160867624897
 30
0.0
 11
63.85238474824538
 21
540.7508603608464
 31
0.0
  0
LINE
  5
1F7
330
1F
100
AcDbEntity
  8
0
  6
CONTINUOUS
 62
     7
100
AcDbLine
 10
69.22105643287624
 20
365.2033803838895
 30
0.0
 11
74.28070840659939
 21
365.2033803838895
 31
0.0
  0
LINE
  5
1F8
330
1F
100
AcDbEntity
  8
0
  6
CONTINUOUS
 62
     7
100
AcDbLine
 10
24.19419729348981
 20
365.6924258843686
 30
0.0
 11
24.73214208898594
 21
362.6576497229257
 31
0.0
  0
LINE
  5
1F9
330
1F
100
AcDbEntity
  8
0
  6
CONTINUOUS
 62
     7
100
AcDbLine
 10
121.8477025331735
 20
360.7033803838895
 30
0.0
 11
125.0313524234199
 21
360.7033803838895
 31
0.0
  0
LINE
  5
1FA
330
1F
100
AcDbEntity
  8
0
  6
CONTINUOUS
 62
     7
100
AcDbLine
 10
39.36361508968969
 20
538.2033803838895
 30
0.0
 11
34.30399692247462
 21
538.2033803838895
 31
0.0
  0
LINE
  5
1FB
330
1F
100
AcDbEntity
  8
0
  6
CONTINUOUS
 62
     7
100
AcDbLine
 10
-51.1480859226435
 20
362.6542957728643
 30
0.0
 11
-50.69626374786073
 21
365.2034107360298
 31
0.0
  0
LINE
  5
1FC
330
1F
100
AcDbEntity
  8
0
  6
CONTINUOUS
 62
     7
100
AcDbLine
 10
44.89245485879689
 20
362.2049141271303
 30
0.0
 11
48.69245485878685
 21
362.2049228560337
 31
0.0
  0
LINE
  5
1FD
330
1F
100
AcDbEntity
  8
0
  6
CONTINUOUS
 62
     7
100
AcDbLine
 10
39.22108352562417
 20
365.2033803838895
 30
0.0
 11
44.28081317795926
 21
365.2033803838895
 31
0.0
  0
ARC
  5
1FE
330
1F
100
AcDbEntity
  8
0
  6
CONTINUOUS
 62
     7
100
AcDbCircle
 10
-131.6522974668265
 20
354.7033803838895
 30
0.0
 40
0.4999999999999449
100
AcDbArc
 50
270.0
 51
0.0
  0
LINE
  5
1FF
330
1F
100
AcDbEntity
  8
0
  6
CONTINUOUS
 62
     7
100
AcDbLine
 10
-35.60994654864821
 20
537.7166421514154
 30
0.0
 11
-36.1478910846075
 21
540.7515846795794
 31
0.0
  0
LINE
  5
200
330
1F
100
AcDbEntity
  8
0
  6
CONTINUOUS
 62
     7
100
AcDbLine
 10
139.8477025331735
 20
346.7033803838895
 30
0.0
 11
145.8477025331735
 21
346.7033803838895
 31
0.0
  0
LINE
  5
201
330
1F
100
AcDbEntity
  8
0
  6
CONTINUOUS
 62
     7
100
AcDbLine
 10
-65.10782216816396
 20
362.2036509476012
 30
0.0
 11
-61.3078221681739
 21
362.2036596766278
 31
0.0
  0
LINE
  5
202
330
1F
100
AcDbEntity
  8
0
  6
CONTINUOUS
 62
     7
100
AcDbLine
 10
-262.6522974668264
 20
466.7033803838895
 30
0.0
 11
-262.7397861303523
 21
467.7033803838895
 31
0.0
  0
LINE
  5
203
330
1F
100
AcDbEntity
  8
0
  6
CONTINUOUS
 62
     7
100
AcDbLine
 10
43.69244089830111
 20
541.2018882706188
 30
0.0
 11
39.89244089831112
 21
541.2018969995272
 31
0.0
  0
LINE
  5
204
330
1F
100
AcDbEntity
  8
0
  6
CONTINUOUS
 62
     7
100
AcDbLine
 10
34.89224604662972
 20
362.2048003601773
 30
0.0
 11
38.69224604661971
 21
362.2048090890919
 31
0.0
  0
LINE
  5
205
330
1F
100
AcDbEntity
  8
0
  6
CONTINUOUS
 62
     7
100
AcDbLine
 10
125.8353208263384
 20
343.878459268613
 30
0.0
 11
139.8477025331735
 21
346.7033803838895
 31
0.0
  0
LINE
  5
206
330
1F
100
AcDbEntity
  8
0
  6
CONTINUOUS
 62
     7
100
AcDbLine
 10
63.69239971765887
 20
541.2017794541737
 30
0.0
 11
59.89239971766891
 21
541.2017881830714
 31
0.0
  0
LINE
  5
207
330
1F
100
AcDbEntity
  8
0
  6
CONTINUOUS
 62
     7
100
AcDbLine
 10
53.69237136231697
 20
541.2018026086672
 30
0.0
 11
49.89237136232705
 21
541.2018113375672
 31
0.0
  0
ARC
  5
208
330
1F
100
AcDbEntity
  8
0
  6
CONTINUOUS
 62
     7
100
AcDbCircle
 10
-131.6522974668265
 20
548.7033803838896
 30
0.0
 40
0.5000000000000004
100
AcDbArc
 50
0.0
 51
90.0
  0
LINE
  5
209
330
1F
100
AcDbEntity
  8
0
  6
CONTINUOUS
 62
     7
100
AcDbLine
 10
-30.26748745651259
 20
540.7509281003485
 30
0.0
 11
-30.71904867475195
 21
538.2033498796533
 31
0.0
  0
LINE
  5
20A
330
1F
100
AcDbEntity
  8
0
  6
CONTINUOUS
 62
     7
100
AcDbLine
 10
74.89224779415413
 20
362.2048879547838
 30
0.0
 11
78.6922477941441
 21
362.2048966836898
 31
0.0
  0
LINE
  5
20B
330
1F
100
AcDbEntity
  8
0
  6
CONTINUOUS
 62
     7
100
AcDbLine
 10
-45.10790310215359
 20
362.203384679334
 30
0.0
 11
-41.30790310216354
 21
362.2033934083867
 31
0.0
  0
LINE
  5
20C
330
1F
100
AcDbEntity
  8
0
  6
CONTINUOUS
 62
     7
100
AcDbLine
 10
54.89225835130691
 20
362.2049692198655
 30
0.0
 11
58.69225835129688
 21
362.2049779487635
 31
0.0
  0
ARC
  5
20D
330
1F
100
AcDbEntity
  8
0
  6
CONTINUOUS
 62
     7
100
AcDbCircle
 10
-128.6522974668265
 20
546.2033803838895
 30
0.0
 40
2.000000000000002
100
AcDbArc
 50
90.0
 51
180.0
  0
LINE
  5
20E
330
1F
100
AcDbEntity
  8
0
  6
CONTINUOUS
 62
     7
100
AcDbLine
 10
89.36358169136646
 20
538.2033803838895
 30
0.0
 11
84.30384585533359
 21
538.2033803838895
 31
0.0
  0
ARC
  5
20F
330
1F
100
AcDbEntity
  8
0
  6
CONTINUOUS
 62
     7
100
AcDbCircle
 10
-294.1522974668265
 20
341.2033803838895
 30
0.0
 40
3.000000000000003
100
AcDbArc
 50
179.9999999999996
 51
270.0
  0
LINE
  5
210
330
1F
100
AcDbEntity
  8
0
  6
CONTINUOUS
 62
     7
100
AcDbLine
 10
-271.5648088033005
 20
467.7033803838895
 30
0.0
 11
-271.6522974668264
 21
466.7033803838895
 31
0.0
  0
LINE
  5
211
330
1F
100
AcDbEntity
  8
0
  6
CONTINUOUS
 62
     7
100
AcDbLine
 10
-50.77870006917326
 20
365.2033803838895
 30
0.0
 11
-45.71908632785812
 21
365.2033803838895
 31
0.0
  0
LINE
  5
212
330
1F
100
AcDbEntity
  8
0
  6
CONTINUOUS
 62
     7
100
AcDbLine
 10
84.39052868041125
 20
537.7143961173763
 30
0.0
 11
83.85260765907769
 21
540.74912009032
 31
0.0
  0
LINE
  5
213
330
1F
100
AcDbEntity
  8
0
  6
CONTINUOUS
 62
     7
100
AcDbLine
 10
79.36360303372142
 20
538.2033803838895
 30
0.0
 11
74.30388780324917
 21
538.2033803838895
 31
0.0
  0
LINE
  5
214
330
1F
100
AcDbEntity
  8
0
  6
CONTINUOUS
 62
     7
100
AcDbLine
 10
-65.60975220104942
 20
537.7152907279088
 30
0.0
 11
-66.14769192880881
 21
540.7501550312851
 31
0.0
  0
LINE
  5
215
330
1F
100
AcDbEntity
  8
0
  6
CONTINUOUS
 62
     7
100
AcDbLine
 10
74.19502858984318
 20
365.6867028222209
 30
0.0
 11
74.73300640074525
 21
362.6516861783503
 31
0.0
  0
LINE
  5
216
330
1F
100
AcDbEntity
  8
0
  6
CONTINUOUS
 62
     7
100
AcDbLine
 10
44.3893178948118
 20
537.7220057515918
 30
0.0
 11
43.85140182452399
 21
540.7567614941961
 31
0.0
  0
LINE
  5
217
330
1F
100
AcDbEntity
  8
0
  6
CONTINUOUS
 62
     7
100
AcDbLine
 10
14.39034939908734
 20
537.7160399284613
 30
0.0
 11
13.85246115894626
 21
540.750702134504
 31
0.0
  0
LINE
  5
218
330
1F
100
AcDbEntity
  8
0
  6
CONTINUOUS
 62
     7
100
AcDbLine
 10
-31.14791541301926
 20
362.6549424485202
 30
0.0
 11
-30.69621292842312
 21
365.2034108298
 31
0.0
  0
LINE
  5
219
330
1F
100
AcDbEntity
  8
0
  6
CONTINUOUS
 62
     7
100
AcDbLine
 10
-65.80528772515387
 20
365.6892320191739
 30
0.0
 11
-65.26734229246462
 21
362.6543332631788
 31
0.0
  0
LINE
  5
21A
330
1F
100
AcDbEntity
  8
0
  6
CONTINUOUS
 62
     7
100
AcDbLine
 10
-50.63661929088789
 20
538.2033803838895
 30
0.0
 11
-55.69627019309512
 21
538.2033803838895
 31
0.0
  0
LINE
  5
21B
330
1F
100
AcDbEntity
  8
0
  6
CONTINUOUS
 62
     7
100
AcDbLine
 10
49.3636190891247
 20
538.2033803838895
 30
0.0
 11
44.30398585821526
 21
538.2033803838895
 31
0.0
  0
LINE
  5
21C
330
1F
100
AcDbEntity
  8
0
  6
CONTINUOUS
 62
     7
100
AcDbLine
 10
48.85245765698658
 20
362.6560080303081
 30
0.0
 11
49.30397314621698
 21
365.2033815720275
 31
0.0
  0
LINE
  5
21D
330
1F
100
AcDbEntity
  8
0
  6
CONTINUOUS
 62
     7
100
AcDbLine
 10
89.2210983389062
 20
365.2033803838895
 30
0.0
 11
94.28070038809638
 21
365.2033803838895
 31
0.0
  0
LINE
  5
21E
330
1F
100
AcDbEntity
  8
0
  6
CONTINUOUS
 62
     7
100
AcDbLine
 10
49.22107069512363
 20
365.2033803838895
 30
0.0
 11
54.28077161086422
 21
365.2033803838895
 31
0.0
  0
LINE
  5
21F
330
1F
100
AcDbEntity
  8
0
  6
CONTINUOUS
 62
     7
100
AcDbLine
 10
88.85257688609438
 20
362.6575825055431
 30
0.0
 11
89.30382559757199
 21
365.2034108825274
 31
0.0
  0
LINE
  5
220
330
1F
100
AcDbEntity
  8
0
  6
CONTINUOUS
 62
     7
100
AcDbLine
 10
54.19417312405514
 20
365.6918785148414
 30
0.0
 11
54.73209855415481
 21
362.6571947198666
 31
0.0
  0
LINE
  5
221
330
1F
100
AcDbEntity
  8
0
  6
CONTINUOUS
 62
     7
100
AcDbLine
 10
-45.80512817733121
 20
365.6887503746531
 30
0.0
 11
-45.26715329373362
 21
362.6537133525337
 31
0.0
  0
LINE
  5
222
330
1F
100
AcDbEntity
  8
0
  6
CONTINUOUS
 62
     7
100
AcDbLine
 10
-55.80499649078183
 20
365.6878138218783
 30
0.0
 11
-55.26705998802661
 21
362.6529773658095
 31
0.0
  0
LINE
  5
223
330
1F
100
AcDbEntity
  8
0
  6
CONTINUOUS
 62
     7
100
AcDbLine
 10
11.84770253317349
 20
365.2033803838895
 30
0.0
 11
14.28092586320059
 21
365.2033803838895
 31
0.0
  0
LINE
  5
224
330
1F
100
AcDbEntity
  8
0
  6
CONTINUOUS
 62
     7
100
AcDbLine
 10
54.39046444951684
 20
537.7154199638552
 30
0.0
 11
53.85256212335877
 21
540.7500747026752
 31
0.0
  0
LINE
  5
225
330
1F
100
AcDbEntity
  8
0
  6
CONTINUOUS
 62
     7
100
AcDbLine
 10
44.19431406133629
 20
365.6913162966297
 30
0.0
 11
44.7322607511007
 21
362.6565231773868
 31
0.0
  0
LINE
  5
226
330
1F
100
AcDbEntity
  8
0
  6
CONTINUOUS
 62
     7
100
AcDbLine
 10
99.363546712623
 20
538.2033803838895
 30
0.0
 11
94.3038060837088
 21
538.2033803838895
 31
0.0
  0
LINE
  5
227
330
1F
100
AcDbEntity
  8
0
  6
CONTINUOUS
 62
     7
100
AcDbLine
 10
84.19437569597704
 20
365.6903073056279
 30
0.0
 11
84.73230136268884
 21
362.6555575351502
 31
0.0
  0
LINE
  5
228
330
1F
100
AcDbEntity
  8
0
  6
CONTINUOUS
 62
     7
100
AcDbLine
 10
-55.60981561146566
 20
537.7156755621868
 30
0.0
 11
-56.14774844270951
 21
540.750517263042
 31
0.0
  0
LINE
  5
229
330
1F
100
AcDbEntity
  8
0
  6
CONTINUOUS
 62
     7
100
AcDbLine
 10
74.39037341286148
 20
537.7155073430417
 30
0.0
 11
73.8524848800112
 21
540.7500551926114
 31
0.0
  0
LINE
  5
22A
330
1F
100
AcDbEntity
  8
0
  6
CONTINUOUS
 62
     7
100
AcDbLine
 10
-45.60977011484818
 20
537.7155055391376
 30
0.0
 11
-46.14769548879591
 21
540.7503222760555
 31
0.0
  0
LINE
  5
22B
330
1F
100
AcDbEntity
  8
0
  6
CONTINUOUS
 62
     7
100
AcDbLine
 10
99.2211279129751
 20
365.2033803838895
 30
0.0
 11
99.84770253317352
 21
365.2033803838895
 31
0.0
  0
MTEXT
  5
22C
330
1F
100
AcDbEntity
  8
0
 62
     7
100
AcDbMText
 10
165.2110166312366
 20
319.871601850694
 30
0.0
 40
3.0
 41
0.0
 71
     1
 72
     1
  1
{\fＭＳ ゴシック;FEKS-150P}
  0
ARC
  5
22D
330
1F
100
AcDbEntity
  8
0
  6
CONTINUOUS
 62
     7
100
AcDbCircle
 10
365.0
 20
451.7033803838895
 30
0.0
 40
95.49999999999997
100
AcDbArc
 50
297.8860525253869
 51
309.1139474746131
  0
ARC
  5
22E
330
1F
100
AcDbEntity
  8
0
  6
CONTINUOUS
 62
     7
100
AcDbCircle
 10
365.0
 20
451.7033803838895
 30
0.0
 40
113.5
100
AcDbArc
 50
190.3595411734037
 51
352.1855802186081
  0
ARC
  5
22F
330
1F
100
AcDbEntity
  8
0
  6
CONTINUOUS
 62
     7
100
AcDbCircle
 10
365.0
 20
451.7033803838895
 30
0.0
 40
109.75
100
AcDbArc
 50
15.00000000000002
 51
50.1271665240106
  0
ARC
  5
230
330
1F
100
AcDbEntity
  8
0
  6
CONTINUOUS
 62
     7
100
AcDbCircle
 10
279.263687359755
 20
497.0717029763567
 30
0.0
 40
1.500000000000035
100
AcDbArc
 50
242.9999999999996
 51
332.1139474746099
  0
ARC
  5
231
330
1F
100
AcDbEntity
  8
0
  6
CONTINUOUS
 62
     7
100
AcDbCircle
 10
426.1938760182412
 20
376.4417730540953
 30
0.0
 40
1.50000000000005
100
AcDbArc
 50
40.00000000000023
 51
129.113947474615
  0
ARC
  5
232
330
1F
100
AcDbEntity
  8
0
  6
CONTINUOUS
 62
     7
100
AcDbCircle
 10
474.1230654323812
 20
456.9682726563162
 30
0.0
 40
0.5000000000000145
100
AcDbArc
 50
302.6487429751697
 51
2.76222416262101
  0
LINE
  5
233
330
1F
100
AcDbEntity
  8
0
  6
CONTINUOUS
 62
     7
100
AcDbLine
 10
486.3721354522793
 20
435.2418819157728
 30
0.0
 11
486.5000000000001
 21
436.7033803838896
 31
0.0
  0
ARC
  5
234
330
1F
100
AcDbEntity
  8
0
  6
CONTINUOUS
 62
     7
100
AcDbCircle
 10
474.1230654323812
 20
446.4384881114628
 30
0.0
 40
0.4999999999999836
100
AcDbArc
 50
357.237775837379
 51
57.35125702483027
  0
ARC
  5
235
330
1F
100
AcDbEntity
  8
0
  6
CONTINUOUS
 62
     7
100
AcDbCircle
 10
410.3683225924672
 20
537.4396930241345
 30
0.0
 40
1.50000000000001
100
AcDbArc
 50
152.9999999999996
 51
242.1139474746097
  0
ARC
  5
236
330
1F
100
AcDbEntity
  8
0
  6
CONTINUOUS
 62
     7
100
AcDbCircle
 10
365.0
 20
451.7033803838895
 30
0.0
 40
113.5
100
AcDbArc
 50
10.35954117340373
 51
172.185580218608
  0
LINE
  5
237
330
1F
100
AcDbEntity
  8
0
  6
CONTINUOUS
 62
     7
100
AcDbLine
 10
255.4547058732001
 20
445.0033031699389
 30
0.0
 11
256.4122233748888
 21
445.0618674491822
 31
0.0
  0
ARC
  5
238
330
1F
100
AcDbEntity
  8
0
  6
CONTINUOUS
 62
     7
100
AcDbCircle
 10
303.8061239817588
 20
526.9649877136837
 30
0.0
 40
1.50000000000005
100
AcDbArc
 50
220.0000000000002
 51
309.113947474615
  0
LINE
  5
239
330
1F
100
AcDbEntity
  8
0
  6
CONTINUOUS
 62
     7
100
AcDbLine
 10
243.6278645477207
 20
468.1648788520063
 30
0.0
 11
243.5
 21
466.7033803838895
 31
0.0
  0
ARC
  5
23A
330
1F
100
AcDbEntity
  8
0
  6
CONTINUOUS
 62
     7
100
AcDbCircle
 10
486.0
 20
469.7033803838895
 30
0.0
 40
2.000000000000002
100
AcDbArc
 50
0.000000000023059
 51
90.00000000000001
  0
ARC
  5
23B
330
1F
100
AcDbEntity
  8
0
  6
CONTINUOUS
 62
     7
100
AcDbCircle
 10
365.0
 20
451.7033803838895
 30
0.0
 40
109.5
100
AcDbArc
 50
295.0000000000001
 51
345.0
  0
ARC
  5
23C
330
1F
100
AcDbEntity
  8
0
  6
CONTINUOUS
 62
     7
100
AcDbCircle
 10
-25.44000997375905
 20
503.5165996020978
 30
0.0
 40
3.262966468622067
100
AcDbArc
 50
84.94136742075764
 51
141.6119601357767
  0
LINE
  5
23D
330
1F
100
AcDbEntity
  8
0
  6
CONTINUOUS
 62
     7
100
AcDbLine
 10
258.9896405647747
 20
480.1087705838912
 30
0.0
 11
259.572304846268
 21
479.9526461602066
 31
0.0
  0
LINE
  5
23E
330
1F
100
AcDbEntity
  8
0
  6
CONTINUOUS
 62
     7
100
AcDbLine
 10
256.2809685948187
 20
458.3529212048532
 30
0.0
 11
255.4547058732001
 21
458.4034575978401
 31
0.0
  0
ARC
  5
23F
330
1F
100
AcDbEntity
  8
0
  6
CONTINUOUS
 62
     7
100
AcDbCircle
 10
482.0000000000001
 20
445.4033803838896
 30
0.0
 40
11.99999999999999
100
AcDbArc
 50
281.6657140877253
 51
285.4939675005224
  0
ARC
  5
240
330
1F
100
AcDbEntity
  8
0
  6
CONTINUOUS
 62
     7
100
AcDbCircle
 10
450.7363126402449
 20
406.3350577914223
 30
0.0
 40
1.499999999999986
100
AcDbArc
 50
62.99999999999962
 51
152.1139474746097
  0
ARC
  5
241
330
1F
100
AcDbEntity
  8
0
  6
CONTINUOUS
 62
     7
100
AcDbCircle
 10
244.0
 20
464.7033803838895
 30
0.0
 40
2.000000000000002
100
AcDbArc
 50
90.0
 51
180.0
  0
ARC
  5
242
330
1F
100
AcDbEntity
  8
0
  6
CONTINUOUS
 62
     7
100
AcDbCircle
 10
319.6316774075328
 20
365.9670677436446
 30
0.0
 40
1.500000000000035
100
AcDbArc
 50
332.9999999999997
 51
62.11394747460969
  0
ARC
  5
243
330
1F
100
AcDbEntity
  8
0
  6
CONTINUOUS
 62
     7
100
AcDbCircle
 10
-25.58348382269329
 20
399.4024714605312
 30
0.0
 40
2.796015144141202
100
AcDbArc
 50
204.8300041582486
 51
278.8712484557208
  0
ARC
  5
244
330
1F
100
AcDbEntity
  8
0
  6
CONTINUOUS
 62
     7
100
AcDbCircle
 10
289.7383926702058
 20
512.8972564021307
 30
0.0
 40
1.500000000000042
100
AcDbArc
 50
320.8860525253855
 51
50.00000000000011
  0
LINE
  5
245
330
1F
100
AcDbEntity
  8
0
  6
CONTINUOUS
 62
     7
100
AcDbLine
 10
-25.15229746682651
 20
359.3880117781051
 30
0.0
 11
4.847702533173459
 21
359.3880117781051
 31
0.0
  0
LINE
  5
246
330
1F
100
AcDbEntity
  8
0
  6
CONTINUOUS
 62
     7
100
AcDbLine
 10
252.4798293587392
 20
466.9339318684804
 30
0.0
 11
252.3721354522793
 21
468.1648788520063
 31
0.0
  0
ARC
  5
247
330
1F
100
AcDbEntity
  8
0
  6
CONTINUOUS
 62
     7
100
AcDbCircle
 10
-26.87271466029247
 20
504.9444072587684
 30
0.0
 40
1.274165402172324
100
AcDbArc
 50
151.9868360133158
 51
171.8292335565765
  0
LINE
  5
248
330
1F
100
AcDbEntity
  8
0
  6
CONTINUOUS
 62
     7
100
AcDbLine
 10
260.1144670753463
 20
423.5993865390206
 30
0.0
 11
258.9896405647747
 21
423.2979901838878
 31
0.0
  0
LINE
  5
249
330
1F
100
AcDbEntity
  8
0
  6
CONTINUOUS
 62
     7
100
AcDbLine
 10
-68.15229746682652
 20
546.2033803838895
 30
0.0
 11
-94.15229746682648
 21
546.2033803838895
 31
0.0
  0
LINE
  5
24A
330
1F
100
AcDbEntity
  8
0
  6
CONTINUOUS
 62
     7
100
AcDbLine
 10
480.7
 20
433.4844878178833
 30
0.0
 11
481.5000000000001
 21
433.4844878178833
 31
0.0
  0
ARC
  5
24B
330
1F
100
AcDbEntity
  8
0
  6
CONTINUOUS
 62
     7
100
AcDbCircle
 10
250.7782239353325
 20
468.02542966361
 30
0.0
 40
1.599999999999974
100
AcDbArc
 50
5.000000000000138
 51
74.5060324994776
  0
LINE
  5
24C
330
1F
100
AcDbEntity
  8
0
  6
CONTINUOUS
 62
     7
100
AcDbLine
 10
-92.15229746682651
 20
364.2838527073379
 30
0.0
 11
-68.15229746682652
 21
364.2838527073379
 31
0.0
  0
ARC
  5
24D
330
1F
100
AcDbEntity
  8
0
  6
CONTINUOUS
 62
     7
100
AcDbCircle
 10
365.0
 20
451.7033803838895
 30
0.0
 40
108.5
100
AcDbArc
 50
202.1042372011745
 51
267.8872344266121
  0
ARC
  5
24E
330
1F
100
AcDbEntity
  8
0
  6
CONTINUOUS
 62
     7
100
AcDbCircle
 10
365.0
 20
451.7033803838895
 30
0.0
 40
95.5
100
AcDbArc
 50
230.8860525253872
 51
242.113947474613
  0
ARC
  5
24F
330
1F
100
AcDbEntity
  8
0
  6
CONTINUOUS
 62
     7
100
AcDbCircle
 10
289.7383926702058
 20
390.5095043656484
 30
0.0
 40
1.499999999999929
100
AcDbArc
 50
310.0000000000002
 51
39.11394747461497
  0
ARC
  5
250
330
1F
100
AcDbEntity
  8
0
  6
CONTINUOUS
 62
     7
100
AcDbCircle
 10
365.0
 20
451.7033803838895
 30
0.0
 40
108.5
100
AcDbArc
 50
272.1127655733879
 51
338.8913879514124
  0
ARC
  5
251
330
1F
100
AcDbEntity
  8
0
  6
CONTINUOUS
 62
     7
100
AcDbCircle
 10
484.7782239353325
 20
435.3813311041691
 30
0.0
 40
1.600000000000035
100
AcDbArc
 50
285.4939675005224
 51
354.9999999999999
  0
ARC
  5
252
330
1F
100
AcDbEntity
  8
0
  6
CONTINUOUS
 62
     7
100
AcDbCircle
 10
248.0
 20
458.0033803838895
 30
0.0
 40
11.98957880828182
100
AcDbArc
 50
96.22467549480078
 51
101.4219971763072
  0
ARC
  5
253
330
1F
100
AcDbEntity
  8
0
  6
CONTINUOUS
 62
     7
100
AcDbCircle
 10
255.8769345676188
 20
456.9682726563162
 30
0.0
 40
0.5000000000000006
100
AcDbArc
 50
177.237775837379
 51
237.3512570248339
  0
ARC
  5
254
330
1F
100
AcDbEntity
  8
0
  6
CONTINUOUS
 62
     7
100
AcDbCircle
 10
248.0
 20
458.0033803838895
 30
0.0
 40
12.0
100
AcDbArc
 50
101.6657140877254
 51
105.4939675005225
  0
ARC
  5
255
330
1F
100
AcDbEntity
  8
0
  6
CONTINUOUS
 62
     7
100
AcDbCircle
 10
365.0
 20
451.7033803838895
 30
0.0
 40
95.5
100
AcDbArc
 50
50.88605252538696
 51
62.1139474746131
  0
ARC
  5
256
330
1F
100
AcDbEntity
  8
0
  6
CONTINUOUS
 62
     7
100
AcDbCircle
 10
248.0
 20
458.0033803838895
 30
0.0
 40
12.00000000000003
100
AcDbArc
 50
74.50603249947763
 51
78.33428591227464
  0
ARC
  5
257
330
1F
100
AcDbEntity
  8
0
  6
CONTINUOUS
 62
     7
100
AcDbCircle
 10
365.0
 20
451.7033803838895
 30
0.0
 40
95.49999999999997
100
AcDbArc
 50
27.88605252538693
 51
39.11394747461306
  0
LINE
  5
258
330
1F
100
AcDbEntity
  8
0
  6
CONTINUOUS
 62
     7
100
AcDbLine
 10
477.5201706412608
 20
436.4728288992986
 30
0.0
 11
477.6278645477208
 21
435.2418819157728
 31
0.0
  0
ARC
  5
259
330
1F
100
AcDbEntity
  8
0
  6
CONTINUOUS
 62
     7
100
AcDbCircle
 10
-94.15229746682648
 20
358.2033803838896
 30
0.0
 40
1.000000000000001
100
AcDbArc
 50
180.0
 51
270.0
  0
ARC
  5
25A
330
1F
100
AcDbEntity
  8
0
  6
CONTINUOUS
 62
     7
100
AcDbCircle
 10
-25.15229746682651
 20
553.7033803838895
 30
0.0
 40
3.000000000000003
100
AcDbArc
 50
90.0
 51
179.9999999999996
  0
ARC
  5
25B
330
1F
100
AcDbEntity
  8
0
  6
CONTINUOUS
 62
     7
100
AcDbCircle
 10
255.8769345676188
 20
446.4384881114628
 30
0.0
 40
0.5000000000000145
100
AcDbArc
 50
122.6487429751661
 51
182.762224162621
  0
ARC
  5
25C
330
1F
100
AcDbEntity
  8
0
  6
CONTINUOUS
 62
     7
100
AcDbCircle
 10
479.2217760646676
 20
435.3813311041691
 30
0.0
 40
1.599999999999974
100
AcDbArc
 50
185.0000000000001
 51
254.5060324994776
  0
ARC
  5
25D
330
1F
100
AcDbEntity
  8
0
  6
CONTINUOUS
 62
     7
100
AcDbCircle
 10
303.8061239817589
 20
376.4417730540953
 30
0.0
 40
1.499999999999971
100
AcDbArc
 50
50.88605252538554
 51
140.0000000000001
  0
ARC
  5
25E
330
1F
100
AcDbEntity
  8
0
  6
CONTINUOUS
 62
     7
100
AcDbCircle
 10
-25.26593297997672
 20
362.3017041686462
 30
0.0
 40
2.915790904698398
100
AcDbArc
 50
191.7109496806524
 51
272.2335225029296
  0
LINE
  5
25F
330
1F
100
AcDbEntity
  8
0
  6
CONTINUOUS
 62
     7
100
AcDbLine
 10
366.5
 20
555.5033803838894
 30
0.0
 11
363.5
 21
555.5033803838895
 31
0.0
  0
ARC
  5
260
330
1F
100
AcDbEntity
  8
0
  6
CONTINUOUS
 62
     7
100
AcDbCircle
 10
440.2616073297942
 20
390.5095043656484
 30
0.0
 40
1.500000000000006
100
AcDbArc
 50
140.8860525253856
 51
230.0000000000001
  0
LINE
  5
261
330
1F
100
AcDbEntity
  8
0
  6
CONTINUOUS
 62
     7
100
AcDbLine
 10
-68.15229746682652
 20
365.2033803838895
 30
0.0
 11
-65.71916127627533
 21
365.2033803838895
 31
0.0
  0
ARC
  5
262
330
1F
100
AcDbEntity
  8
0
  6
CONTINUOUS
 62
     7
100
AcDbCircle
 10
319.6316774075327
 20
537.4396930241345
 30
0.0
 40
1.50000000000001
100
AcDbArc
 50
297.8860525253905
 51
27.00000000000023
  0
ARC
  5
263
330
1F
100
AcDbEntity
  8
0
  6
CONTINUOUS
 62
     7
100
AcDbCircle
 10
252.8583485051161
 20
431.2033803838895
 30
0.0
 40
0.4999999999999852
100
AcDbArc
 50
10.35954117340343
 51
89.52486693445269
  0
ARC
  5
264
330
1F
100
AcDbEntity
  8
0
  6
CONTINUOUS
 62
     7
100
AcDbCircle
 10
365.0
 20
451.7033803838895
 30
0.0
 40
95.49999999999997
100
AcDbArc
 50
207.8860525253869
 51
219.113947474613
  0
ARC
  5
265
330
1F
100
AcDbEntity
  8
0
  6
CONTINUOUS
 62
     7
100
AcDbCircle
 10
410.3683225924672
 20
365.9670677436446
 30
0.0
 40
1.500000000000035
100
AcDbArc
 50
117.8860525253904
 51
207.0000000000002
  0
LINE
  5
266
330
1F
100
AcDbEntity
  8
0
  6
CONTINUOUS
 62
     7
100
AcDbLine
 10
470.4259335014842
 20
479.9521741269095
 30
0.0
 11
471.0103594352253
 21
480.1087705838912
 31
0.0
  0
ARC
  5
267
330
1F
100
AcDbEntity
  8
0
  6
CONTINUOUS
 62
     7
100
AcDbCircle
 10
482.0000000000001
 20
445.4033803838896
 30
0.0
 40
12.00000000000001
100
AcDbArc
 50
254.5060324994776
 51
258.3342859122746
  0
LINE
  5
268
330
1F
100
AcDbEntity
  8
0
  6
CONTINUOUS
 62
     7
100
AcDbLine
 10
-25.15229746682651
 20
448.5119090784125
 30
0.0
 11
4.847702533173459
 21
448.5119090784125
 31
0.0
  0
CIRCLE
  5
269
330
1F
100
AcDbEntity
  8
0
  6
CONTINUOUS
 62
     7
100
AcDbCircle
 10
365.0
 20
451.7033803838895
 30
0.0
 40
80.49999999999996
  0
ARC
  5
26A
330
1F
100
AcDbEntity
  8
0
  6
CONTINUOUS
 62
     7
100
AcDbCircle
 10
365.0
 20
451.7033803838895
 30
0.0
 40
95.50000000000001
100
AcDbArc
 50
117.8860525253869
 51
129.113947474613
  0
ARC
  5
26B
330
1F
100
AcDbEntity
  8
0
  6
CONTINUOUS
 62
     7
100
AcDbCircle
 10
245.2217760646675
 20
468.02542966361
 30
0.0
 40
1.599999999999989
100
AcDbArc
 50
105.4939675005224
 51
175.0
  0
ARC
  5
26C
330
1F
100
AcDbEntity
  8
0
  6
CONTINUOUS
 62
     7
100
AcDbCircle
 10
486.0
 20
438.7033803838896
 30
0.0
 40
2.000000000000002
100
AcDbArc
 50
270.0
 51
0.0000000000000568
  0
ARC
  5
26D
330
1F
100
AcDbEntity
  8
0
  6
CONTINUOUS
 62
     7
100
AcDbCircle
 10
279.263687359755
 20
406.3350577914222
 30
0.0
 40
1.500000000000035
100
AcDbArc
 50
27.88605252539037
 51
117.0000000000002
  0
LINE
  5
26E
330
1F
100
AcDbEntity
  8
0
  6
CONTINUOUS
 62
     7
100
AcDbLine
 10
481.5000000000001
 20
433.4844878178832
 30
0.0
 11
481.5000000000001
 21
435.7033803838896
 31
0.0
  0
LINE
  5
26F
330
1F
100
AcDbEntity
  8
0
  6
CONTINUOUS
 62
     7
100
AcDbLine
 10
488.0
 20
469.7033803838904
 30
0.0
 11
488.0
 21
438.7033803838896
 31
0.0
  0
LINE
  5
270
330
1F
100
AcDbEntity
  8
0
  6
CONTINUOUS
 62
     7
100
AcDbLine
 10
412.6690024726524
 20
545.2590654236682
 30
0.0
 11
409.0318128061846
 21
538.1206787737437
 31
0.0
  0
LINE
  5
271
330
1F
100
AcDbEntity
  8
0
  6
CONTINUOUS
 62
     7
100
AcDbLine
 10
-25.15229746682651
 20
346.7033803838895
 30
0.0
 11
11.84770253317349
 21
346.7033803838895
 31
0.0
  0
LINE
  5
272
330
1F
100
AcDbEntity
  8
0
  6
CONTINUOUS
 62
     7
100
AcDbLine
 10
116.0984043242862
 20
541.2033803838895
 30
0.0
 11
99.84770253317352
 21
541.2033803838895
 31
0.0
  0
ARC
  5
273
330
1F
100
AcDbEntity
  8
0
  6
CONTINUOUS
 62
     7
100
AcDbCircle
 10
365.0
 20
451.7033803838895
 30
0.0
 40
109.75
100
AcDbArc
 50
295.0000000000001
 51
345.0
  0
LINE
  5
274
330
1F
100
AcDbEntity
  8
0
  6
CONTINUOUS
 62
     7
100
AcDbLine
 10
284.5653334725073
 20
384.2106813668029
 30
0.0
 11
290.7025740847356
 21
389.36043770097
 31
0.0
  0
LINE
  5
275
330
1F
100
AcDbEntity
  8
0
  6
CONTINUOUS
 62
     7
100
AcDbLine
 10
-95.14731160800599
 20
536.6116719786085
 30
0.0
 11
-95.15229746682651
 21
536.4578445509801
 31
0.0
  0
ARC
  5
276
330
1F
100
AcDbEntity
  8
0
  6
CONTINUOUS
 62
     7
100
AcDbCircle
 10
252.0586435356827
 20
467.2033803838895
 30
0.0
 40
0.4999999999999971
100
AcDbArc
 50
273.0202544575585
 51
352.1855802186083
  0
LINE
  5
277
330
1F
100
AcDbEntity
  8
0
  6
CONTINUOUS
 62
     7
100
AcDbLine
 10
259.8057102601977
 20
482.9959339092654
 30
0.0
 11
260.0833219251983
 21
482.921548087819
 31
0.0
  0
LINE
  5
278
330
1F
100
AcDbEntity
  8
0
  6
CONTINUOUS
 62
     7
100
AcDbLine
 10
-28.15229746682644
 20
398.4553811577753
 30
0.0
 11
-28.15229746682729
 21
449.0701915202825
 31
0.0
  0
LINE
  5
279
330
1F
100
AcDbEntity
  8
0
  6
CONTINUOUS
 62
     7
100
AcDbLine
 10
409.0318128061846
 20
365.2860819940352
 30
0.0
 11
412.6690024726524
 21
358.1476953441109
 31
0.0
  0
ARC
  5
27A
330
1F
100
AcDbEntity
  8
0
  6
CONTINUOUS
 62
     7
100
AcDbCircle
 10
365.0
 20
451.7033803838895
 30
0.0
 40
95.49999999999994
100
AcDbArc
 50
140.8860525253871
 51
152.1139474746132
  0
LINE
  5
27B
330
1F
100
AcDbEntity
  8
0
  6
CONTINUOUS
 62
     7
100
AcDbLine
 10
451.4172983898542
 20
407.6715675777048
 30
0.0
 11
458.5556850397786
 21
404.0343779112371
 31
0.0
  0
LINE
  5
27C
330
1F
100
AcDbEntity
  8
0
  6
CONTINUOUS
 62
     7
100
AcDbLine
 10
363.5
 20
555.5033803838895
 30
0.0
 11
363.5
 21
560.3218555907995
 31
0.0
  0
ARC
  5
27D
330
1F
100
AcDbEntity
  8
0
  6
CONTINUOUS
 62
     7
100
AcDbCircle
 10
440.2616073297941
 20
512.8972564021307
 30
0.0
 40
1.499999999999971
100
AcDbArc
 50
130.0000000000002
 51
219.113947474615
  0
LINE
  5
27E
330
1F
100
AcDbEntity
  8
0
  6
CONTINUOUS
 62
     7
100
AcDbLine
 10
-28.15229746682651
 20
398.4479656245565
 30
0.0
 11
-28.15229746682651
 21
349.7033803838895
 31
0.0
  0
LINE
  5
27F
330
1F
100
AcDbEntity
  8
0
  6
CONTINUOUS
 62
     7
100
AcDbLine
 10
242.0
 20
433.7033803838887
 30
0.0
 11
242.0
 21
464.7033803838895
 31
0.0
  0
LINE
  5
280
330
1F
100
AcDbEntity
  8
0
  6
CONTINUOUS
 62
     7
100
AcDbLine
 10
11.84770253317349
 20
556.7033803838896
 30
0.0
 11
-25.15229746682651
 21
556.7033803838896
 31
0.0
  0
LINE
  5
281
330
1F
100
AcDbEntity
  8
0
  6
CONTINUOUS
 62
     7
100
AcDbLine
 10
-257.1522974668265
 20
343.2033803838895
 30
0.0
 11
-140.1902158847755
 21
343.2033803838895
 31
0.0
  0
LINE
  5
282
330
1F
100
AcDbEntity
  8
0
  6
CONTINUOUS
 62
     7
100
AcDbLine
 10
259.8057102601977
 20
420.4108268585136
 30
0.0
 11
260.0575109339981
 21
420.4782966457121
 31
0.0
  0
LINE
  5
283
330
1F
100
AcDbEntity
  8
0
  6
CONTINUOUS
 62
     7
100
AcDbLine
 10
297.5073009829133
 20
532.1380469113822
 30
0.0
 11
302.6570573170804
 21
526.0008062991539
 31
0.0
  0
LINE
  5
284
330
1F
100
AcDbEntity
  8
0
  6
CONTINUOUS
 62
     7
100
AcDbLine
 10
320.9681871938153
 20
365.2860819940353
 30
0.0
 11
317.3309975273476
 21
358.1476953441109
 31
0.0
  0
LINE
  5
285
330
1F
100
AcDbEntity
  8
0
  6
CONTINUOUS
 62
     7
100
AcDbLine
 10
-140.1902158847756
 20
560.2033803838895
 30
0.0
 11
-257.1522974668265
 21
560.2033803838895
 31
0.0
  0
LINE
  5
286
330
1F
100
AcDbEntity
  8
0
  6
CONTINUOUS
 62
     7
100
AcDbLine
 10
-131.1522974668265
 20
548.7033803838895
 30
0.0
 11
-131.1522974668265
 21
530.4985546016794
 31
0.0
  0
LINE
  5
287
330
1F
100
AcDbEntity
  8
0
  6
CONTINUOUS
 62
     7
100
AcDbLine
 10
-131.1522974668265
 20
354.7033803838896
 30
0.0
 11
-131.1522974668265
 21
372.9082061661001
 31
0.0
  0
ARC
  5
288
330
1F
100
AcDbEntity
  8
0
  6
CONTINUOUS
 62
     7
100
AcDbCircle
 10
365.0
 20
451.7033803838895
 30
0.0
 40
95.49999999999994
100
AcDbArc
 50
320.886052525387
 51
332.113947474613
  0
LINE
  5
289
330
1F
100
AcDbEntity
  8
0
  6
CONTINUOUS
 62
     7
100
AcDbLine
 10
410.8540813988658
 20
353.3689854904133
 30
0.0
 11
411.3823542260418
 21
352.2361007566171
 31
0.0
  0
LINE
  5
28A
330
1F
100
AcDbEntity
  8
0
  6
CONTINUOUS
 62
     7
100
AcDbLine
 10
-132.9763630075859
 20
556.2040252259621
 30
0.0
 11
-131.1522974668605
 21
451.7033803858399
 31
0.0
  0
LINE
  5
28B
330
1F
100
AcDbEntity
  8
0
  6
CONTINUOUS
 62
     7
100
AcDbLine
 10
278.5827016101456
 20
495.735193190074
 30
0.0
 11
271.4443149602213
 21
499.3723828565419
 31
0.0
  0
LINE
  5
28C
330
1F
100
AcDbEntity
  8
0
  6
CONTINUOUS
 62
     7
100
AcDbLine
 10
432.4926990170866
 20
371.2687138563968
 30
0.0
 11
427.3429426829197
 21
377.4059544686252
 31
0.0
  0
LINE
  5
28D
330
1F
100
AcDbEntity
  8
0
  6
CONTINUOUS
 62
     7
100
AcDbLine
 10
488.0
 20
451.7033803838895
 30
0.0
 11
473.8764955069935
 21
451.7033803838895
 31
0.0
  0
LINE
  5
28E
330
1F
100
AcDbEntity
  8
0
  6
CONTINUOUS
 62
     7
100
AcDbLine
 10
366.5
 20
560.3218555907995
 30
0.0
 11
366.5
 21
555.5033803838894
 31
0.0
  0
ARC
  5
28F
330
1F
100
AcDbEntity
  8
0
  6
CONTINUOUS
 62
     7
100
AcDbCircle
 10
477.9413564643173
 20
436.2033803838896
 30
0.0
 40
0.5
100
AcDbArc
 50
93.02025445755851
 51
172.1855802186082
  0
LINE
  5
290
330
1F
100
AcDbEntity
  8
0
  6
CONTINUOUS
 62
     7
100
AcDbLine
 10
-295.6522974668266
 20
466.7033803838895
 30
0.0
 11
-260.2131318847523
 21
466.7033803838895
 31
0.0
  0
LINE
  5
291
330
1F
100
AcDbEntity
  8
0
  6
CONTINUOUS
 62
     7
100
AcDbLine
 10
-297.1522974668266
 20
341.2033803838895
 30
0.0
 11
-297.1522974668266
 21
562.2033803838895
 31
0.0
  0
LINE
  5
292
330
1F
100
AcDbEntity
  8
0
  6
CONTINUOUS
 62
     7
100
AcDbLine
 10
297.5073009829134
 20
371.2687138563968
 30
0.0
 11
302.6570573170804
 21
377.4059544686251
 31
0.0
  0
LINE
  5
293
330
1F
100
AcDbEntity
  8
0
  6
CONTINUOUS
 62
     7
100
AcDbLine
 10
-130.6522974668265
 20
451.7033803838895
 30
0.0
 11
-95.65229746682651
 21
451.7033803838895
 31
0.0
  0
LINE
  5
294
330
1F
100
AcDbEntity
  8
0
  6
CONTINUOUS
 62
     7
100
AcDbLine
 10
-28.15229746682651
 20
454.3411324290183
 30
0.0
 11
-28.15229746682651
 21
504.951379610004
 31
0.0
  0
LINE
  5
295
330
1F
100
AcDbEntity
  8
0
  6
CONTINUOUS
 62
     7
100
AcDbLine
 10
252.8624947757835
 20
431.7033803838895
 30
0.0
 11
244.0
 21
431.7033803838895
 31
0.0
  0
LINE
  5
296
330
1F
100
AcDbEntity
  8
0
  6
CONTINUOUS
 62
     7
100
AcDbLine
 10
-131.1522974668265
 20
451.7033803838895
 30
0.0
 11
-130.7525872027335
 21
451.7033803838895
 31
0.0
  0
LINE
  5
297
330
1F
100
AcDbEntity
  8
0
  6
CENTER
 62
     1
100
AcDbLine
 10
160.0
 20
451.7033803838895
 30
0.0
 11
-297.1522974668266
 21
451.7033803838895
 31
0.0
  0
LINE
  5
299
330
1F
100
AcDbEntity
  8
0
  6
CONTINUOUS
 62
     7
100
AcDbLine
 10
482.5000000000001
 20
435.7033803838896
 30
0.0
 11
482.5000000000001
 21
433.4844878178833
 31
0.0
  0
ARC
  5
29A
330
1F
100
AcDbEntity
  8
0
  6
CONTINUOUS
 62
     7
100
AcDbCircle
 10
365.0
 20
451.7033803838895
 30
0.0
 40
109.75
100
AcDbArc
 50
129.5885162138389
 51
165.0
  0
ARC
  5
29B
330
1F
100
AcDbEntity
  8
0
  6
CONTINUOUS
 62
     7
100
AcDbCircle
 10
365.0
 20
451.7033803838895
 30
0.0
 40
109.75
100
AcDbArc
 50
195.0
 51
245.0
  0
LINE
  5
29C
330
1F
100
AcDbEntity
  8
0
  6
CONTINUOUS
 62
     7
100
AcDbLine
 10
9.847702533173463
 20
556.7033803838896
 30
0.0
 11
9.847702533173463
 21
346.7033803838895
 31
0.0
  0
LINE
  5
29D
330
1F
100
AcDbEntity
  8
0
  6
CONTINUOUS
 62
     7
100
AcDbLine
 10
432.4926990170865
 20
532.1380469113822
 30
0.0
 11
427.3429426829196
 21
526.0008062991539
 31
0.0
  0
ARC
  5
29E
330
1F
100
AcDbEntity
  8
0
  6
CONTINUOUS
 62
     7
100
AcDbCircle
 10
450.7363126402449
 20
497.0717029763568
 30
0.0
 40
1.50000000000001
100
AcDbArc
 50
207.8860525253903
 51
297.0000000000002
  0
LINE
  5
29F
330
1F
100
AcDbEntity
  8
0
  6
CONTINUOUS
 62
     7
100
AcDbLine
 10
-28.15229746682651
 20
553.7033803838896
 30
0.0
 11
-28.15229746682651
 21
504.9605875180513
 31
0.0
  0
LINE
  5
2A0
330
1F
100
AcDbEntity
  8
0
  6
CONTINUOUS
 62
     7
100
AcDbLine
 10
470.1942897398023
 20
420.4108268585136
 30
0.0
 11
469.9166780748017
 21
420.4852126799601
 31
0.0
  0
LINE
  5
2A1
330
1F
100
AcDbEntity
  8
0
  6
CONTINUOUS
 62
     7
100
AcDbLine
 10
242.0
 20
451.7033803838895
 30
0.0
 11
256.1222305956403
 21
451.7033803838895
 31
0.0
  0
LINE
  5
2A2
330
1F
100
AcDbEntity
  8
0
  6
CONTINUOUS
 62
     7
100
AcDbLine
 10
-97.18384050575443
 20
436.7033803838895
 30
0.0
 11
-129.1522974668265
 21
436.7033803838895
 31
0.0
  0
LINE
  5
2A3
330
1F
100
AcDbEntity
  8
0
  6
CONTINUOUS
 62
     7
100
AcDbLine
 10
-258.1522974668265
 20
451.7033803838895
 30
0.0
 11
-297.1522974668265
 21
451.7033803838895
 31
0.0
  0
ARC
  5
2A4
330
1F
100
AcDbEntity
  8
0
  6
CONTINUOUS
 62
     7
100
AcDbCircle
 10
477.1416514948839
 20
472.2033803838895
 30
0.0
 40
0.4999999999999852
100
AcDbArc
 50
190.3595411734034
 51
269.5248669344527
  0
LINE
  5
2A5
330
1F
100
AcDbEntity
  8
0
  6
CENTER
 62
     1
100
AcDbLine
 10
258.0
 20
451.7033803838895
 30
0.0
 11
471.9999999999999
 21
451.7033803838895
 31
0.0
  0
LINE
  5
2A6
330
1F
100
AcDbEntity
  8
0
  6
CONTINUOUS
 62
     7
100
AcDbLine
 10
278.5827016101457
 20
407.6715675777048
 30
0.0
 11
271.4443149602213
 21
404.0343779112371
 31
0.0
  0
ARC
  5
2A7
330
1F
100
AcDbEntity
  8
0
  6
CONTINUOUS
 62
     7
100
AcDbCircle
 10
426.1938760182411
 20
526.9649877136837
 30
0.0
 40
1.500000000000014
100
AcDbArc
 50
230.8860525253856
 51
320.0000000000001
  0
LINE
  5
2A8
330
1F
100
AcDbEntity
  8
0
  6
CONTINUOUS
 62
     7
100
AcDbLine
 10
474.5452941267999
 20
458.4034575978401
 30
0.0
 11
473.7188453136657
 21
458.3529098230085
 31
0.0
  0
LINE
  5
2A9
330
1F
100
AcDbEntity
  8
0
  6
CONTINUOUS
 62
     7
100
AcDbLine
 10
477.1375052242165
 20
471.7033803838895
 30
0.0
 11
486.0
 21
471.7033803838895
 31
0.0
  0
LINE
  5
2AA
330
1F
100
AcDbEntity
  8
0
  6
CENTER
 62
     1
100
AcDbLine
 10
365.0
 20
344.7033803838895
 30
0.0
 11
365.0
 21
558.7033803838896
 31
0.0
  0
ARC
  5
2AB
330
1F
100
AcDbEntity
  8
0
  6
CONTINUOUS
 62
     7
100
AcDbCircle
 10
244.0
 20
433.7033803838895
 30
0.0
 40
2.000000000000002
100
AcDbArc
 50
180.0000000000231
 51
270.0
  0
LINE
  5
2AC
330
1F
100
AcDbEntity
  8
0
  6
CONTINUOUS
 62
     7
100
AcDbLine
 10
451.4172983898542
 20
495.7351931900741
 30
0.0
 11
458.5556850397786
 21
499.3723828565419
 31
0.0
  0
LINE
  5
2AD
330
1F
100
AcDbEntity
  8
0
  6
CONTINUOUS
 62
     7
100
AcDbLine
 10
-258.1522974668265
 20
563.2033803838895
 30
0.0
 11
-258.1522974668265
 21
340.2033803838897
 31
0.0
  0
LINE
  5
2AE
330
1F
100
AcDbEntity
  8
0
  6
CONTINUOUS
 62
     7
100
AcDbLine
 10
-68.07597434630814
 20
448.4149504109446
 30
0.0
 11
-68.15229090595534
 21
452.5678426482432
 31
0.0
  0
LINE
  5
2AF
330
1F
100
AcDbEntity
  8
0
  6
CONTINUOUS
 62
     7
100
AcDbLine
 10
413.9705827427084
 20
353.7842315402233
 30
0.0
 11
414.0839460376234
 21
353.541123169746
 31
0.0
  0
ARC
  5
2B0
330
1F
100
AcDbEntity
  8
0
  6
CONTINUOUS
 62
     7
100
AcDbCircle
 10
365.0
 20
451.7033803838895
 30
0.0
 40
109.75
100
AcDbArc
 50
176.5
 51
183.5
  0
ARC
  5
2B1
330
1F
100
AcDbEntity
  8
0
  6
CONTINUOUS
 62
     7
100
AcDbCircle
 10
-114.6522974668265
 20
458.0033803838895
 30
0.0
 40
11.98957880828182
100
AcDbArc
 50
96.22467549480064
 51
105.3132903196987
  0
LINE
  5
2B2
330
1F
100
AcDbEntity
  8
0
  6
CONTINUOUS
 62
     7
100
AcDbLine
 10
-119.0648088033006
 20
467.7033803838895
 30
0.0
 11
-119.0363887403417
 21
467.7033803838895
 31
0.0
  0
LINE
  5
2B3
330
1F
100
AcDbEntity
  8
0
  6
CONTINUOUS
 62
     7
100
AcDbLine
 10
104.8477025331735
 20
541.2033803838893
 30
0.0
 11
104.8477025331735
 21
362.2033803838896
 31
0.0
  0
LINE
  5
2B4
330
1F
100
AcDbEntity
  8
0
  6
CONTINUOUS
 62
     7
100
AcDbLine
 10
243.5
 20
466.7033803838895
 30
0.0
 11
252.0849880234172
 21
466.7033803838895
 31
0.0
  0
LINE
  5
2B5
330
1F
100
AcDbEntity
  8
0
  6
CONTINUOUS
 62
     7
100
AcDbLine
 10
-130.6522974668265
 20
357.2033803838896
 30
0.0
 11
-130.6522974668265
 21
546.2033803838896
 31
0.0
  0
LINE
  5
2B6
330
1F
100
AcDbEntity
  8
0
  6
CONTINUOUS
 62
     7
100
AcDbLine
 10
-115.1522974668265
 20
469.9222729498958
 30
0.0
 11
-115.9522974668265
 21
469.9222729498958
 31
0.0
  0
LINE
  5
2B7
330
1F
100
AcDbEntity
  8
0
  6
CONTINUOUS
 62
     7
100
AcDbLine
 10
284.5653334725073
 20
519.1960794009761
 30
0.0
 11
290.7025740847356
 21
514.0463230668091
 31
0.0
  0
LINE
  5
2B8
330
1F
100
AcDbEntity
  8
0
  6
CONTINUOUS
 62
     7
100
AcDbLine
 10
139.8477025331735
 20
556.6926655514721
 30
0.0
 11
139.8477025331735
 21
346.7033803838896
 31
0.0
  0
LINE
  5
2B9
330
1F
100
AcDbEntity
  8
0
  6
CONTINUOUS
 62
     7
100
AcDbLine
 10
-260.1618361034849
 20
431.7033803838895
 30
0.0
 11
-295.1522974668265
 21
431.7033803838895
 31
0.0
  0
LINE
  5
2BA
330
1F
100
AcDbEntity
  8
0
  6
CONTINUOUS
 62
     7
100
AcDbLine
 10
-131.2221177265394
 20
447.7033803838895
 30
0.0
 11
-253.1522974668268
 21
447.7033803838895
 31
0.0
  0
CIRCLE
  5
2BB
330
1F
100
AcDbEntity
  8
0
  6
CONTINUOUS
 62
     7
100
AcDbCircle
 10
365.0
 20
451.7033803838895
 30
0.0
 40
73.00000000000001
  0
LINE
  5
2BC
330
1F
100
AcDbEntity
  8
0
  6
CONTINUOUS
 62
     7
100
AcDbLine
 10
-119.0363887403417
 20
467.7033803838895
 30
0.0
 11
-118.9957486767605
 21
468.1648788520063
 31
0.0
  0
LINE
  5
2BD
330
1F
100
AcDbEntity
  8
0
  6
CONTINUOUS
 62
     7
100
AcDbLine
 10
99.84770253317352
 20
362.2033803838896
 30
0.0
 11
119.8477025331735
 21
362.2033803838896
 31
0.0
  0
LINE
  5
2BE
330
1F
100
AcDbEntity
  8
0
  6
CONTINUOUS
 62
     7
100
AcDbLine
 10
-113.3522974668265
 20
469.9222729498958
 30
0.0
 11
-114.1522974668265
 21
469.9222729498958
 31
0.0
  0
LINE
  5
2BF
330
1F
100
AcDbEntity
  8
0
  6
CONTINUOUS
 62
     7
100
AcDbLine
 10
-28.15227260914766
 20
452.5675977289845
 30
0.0
 11
-28.18481847157106
 21
454.3331337220744
 31
0.0
  0
LINE
  5
2C0
330
1F
100
AcDbEntity
  8
0
  6
CONTINUOUS
 62
     7
100
AcDbLine
 10
-110.3088462568891
 20
468.1648788520061
 30
0.0
 11
-110.2682061933113
 21
467.7033803838895
 31
0.0
  0
LINE
  5
2C1
330
1F
100
AcDbEntity
  8
0
  6
CONTINUOUS
 62
     7
100
AcDbLine
 10
-97.18384050575443
 20
466.7033803838895
 30
0.0
 11
-129.1522974668265
 21
466.7033803838895
 31
0.0
  0
LINE
  5
2C2
330
1F
100
AcDbEntity
  8
0
  6
CONTINUOUS
 62
     7
100
AcDbLine
 10
316.0374615905545
 20
353.8014826685695
 30
0.0
 11
315.9160539623766
 21
353.541123169746
 31
0.0
  0
LINE
  5
2C3
330
1F
100
AcDbEntity
  8
0
  6
CONTINUOUS
 62
     7
100
AcDbLine
 10
-68.15229746682652
 20
546.2033803838895
 30
0.0
 11
-68.15229746682652
 21
357.2033803838896
 31
0.0
  0
ARC
  5
2C4
330
1F
100
AcDbEntity
  8
0
  6
CONTINUOUS
 62
     7
100
AcDbCircle
 10
-117.4005539130754
 20
468.0211770514774
 30
0.0
 40
1.601654314002789
100
AcDbArc
 50
105.1338890763711
 51
174.8524514898301
  0
ARC
  5
2C5
330
1F
100
AcDbEntity
  8
0
  6
CONTINUOUS
 62
     7
100
AcDbCircle
 10
-111.9040091871351
 20
468.0212037693705
 30
0.0
 40
1.601620211973304
100
AcDbArc
 50
5.146698742664569
 51
74.86696069128897
  0
LINE
  5
2C6
330
1F
100
AcDbEntity
  8
0
  6
CONTINUOUS
 62
     7
100
AcDbLine
 10
-257.1522974668265
 20
560.2033803838895
 30
0.0
 11
-257.1522974668265
 21
550.5922068507862
 31
0.0
  0
LINE
  5
2C7
330
1F
100
AcDbEntity
  8
0
  6
CONTINUOUS
 62
     7
100
AcDbLine
 10
-110.2682061933113
 20
467.7033803838895
 30
0.0
 11
-110.2397861303525
 21
467.7033803838895
 31
0.0
  0
LINE
  5
2C8
330
1F
100
AcDbEntity
  8
0
  6
CONTINUOUS
 62
     7
100
AcDbLine
 10
-115.1522974668265
 20
469.755508187408
 30
0.0
 11
-115.1522974668265
 21
469.9222729498958
 31
0.0
  0
LINE
  5
2C9
330
1F
100
AcDbEntity
  8
0
  6
CONTINUOUS
 62
     7
100
AcDbLine
 10
470.1942897398023
 20
482.9959339092654
 30
0.0
 11
469.942489066002
 21
482.9284641220669
 31
0.0
  0
LINE
  5
2CA
330
1F
100
AcDbEntity
  8
0
  6
CONTINUOUS
 62
     7
100
AcDbLine
 10
-131.2221177263819
 20
455.7033803838895
 30
0.0
 11
-253.1522974668268
 21
455.7033803838895
 31
0.0
  0
LINE
  5
2CB
330
1F
100
AcDbEntity
  8
0
  6
CONTINUOUS
 62
     7
100
AcDbLine
 10
445.4346665274927
 20
384.2106813668029
 30
0.0
 11
439.2974259152645
 21
389.36043770097
 31
0.0
  0
LINE
  5
2CC
330
1F
100
AcDbEntity
  8
0
  6
CONTINUOUS
 62
     7
100
AcDbLine
 10
317.3309975273476
 20
545.2590654236681
 30
0.0
 11
320.9681871938153
 21
538.1206787737437
 31
0.0
  0
ARC
  5
2CD
330
1F
100
AcDbEntity
  8
0
  6
CONTINUOUS
 62
     7
100
AcDbCircle
 10
-97.15229746682652
 20
438.2033803838895
 30
0.0
 40
1.499999999999988
100
AcDbArc
 50
292.110810336801
 51
0.0
  0
ARC
  5
2CE
330
1F
100
AcDbEntity
  8
0
  6
CONTINUOUS
 62
     7
100
AcDbCircle
 10
365.0
 20
451.7033803838895
 30
0.0
 40
105.0
100
AcDbArc
 50
90.81853897897315
 51
89.1814610210269
  0
LINE
  5
2CF
330
1F
100
AcDbEntity
  8
0
  6
CONTINUOUS
 62
     7
100
AcDbLine
 10
-114.1522974668265
 20
469.9222729498958
 30
0.0
 11
-114.1522974668265
 21
469.7555081874079
 31
0.0
  0
LINE
  5
2D0
330
1F
100
AcDbEntity
  8
0
  6
CONTINUOUS
 62
     7
100
AcDbLine
 10
147.3477025331707
 20
555.2033803838895
 30
0.0
 11
147.3477025331738
 21
348.2033803838894
 31
0.0
  0
ARC
  5
2D1
330
1F
100
AcDbEntity
  8
0
  6
CONTINUOUS
 62
     7
100
AcDbCircle
 10
365.0
 20
451.7033803838895
 30
0.0
 40
109.75
100
AcDbArc
 50
356.5
 51
3.500000000000057
  0
LINE
  5
2D2
330
1F
100
AcDbEntity
  8
0
  6
CONTINUOUS
 62
     7
100
AcDbLine
 10
486.5000000000001
 20
436.7033803838896
 30
0.0
 11
477.9150119765828
 21
436.7033803838896
 31
0.0
  0
ARC
  5
2D3
330
1F
100
AcDbEntity
  8
0
  6
CONTINUOUS
 62
     7
100
AcDbCircle
 10
365.0
 20
451.7033803838895
 30
0.0
 40
109.5
100
AcDbArc
 50
356.5
 51
3.500000000000057
  0
LINE
  5
2D4
330
1F
100
AcDbEntity
  8
0
  6
CONTINUOUS
 62
     7
100
AcDbLine
 10
445.4346665274927
 20
519.1960794009761
 30
0.0
 11
439.2974259152644
 21
514.0463230668091
 31
0.0
  0
LINE
  5
2D5
330
1F
100
AcDbEntity
  8
0
  6
CONTINUOUS
 62
     7
100
AcDbLine
 10
-131.1522974667926
 20
451.7033803858324
 30
0.0
 11
-132.9763630075853
 21
347.2027355418169
 31
0.0
  0
LINE
  5
2D6
330
1F
100
AcDbEntity
  8
0
  6
CONTINUOUS
 62
     7
100
AcDbLine
 10
247.5
 20
467.7033803838895
 30
0.0
 11
247.5
 21
469.9222729498958
 31
0.0
  0
LINE
  5
2D7
330
1F
100
AcDbEntity
  8
0
  6
CONTINUOUS
 62
     7
100
AcDbLine
 10
-95.15229746682651
 20
358.2033803838896
 30
0.0
 11
-95.15229746682651
 21
536.4578445509801
 31
0.0
  0
LINE
  5
2D8
330
1F
100
AcDbEntity
  8
0
  6
CONTINUOUS
 62
     7
100
AcDbLine
 10
248.5
 20
469.9222729498958
 30
0.0
 11
248.5
 21
467.7033803838895
 31
0.0
  0
LINE
  5
2D9
330
1F
100
AcDbEntity
  8
0
  6
CONTINUOUS
 62
     7
100
AcDbLine
 10
-68.15229746682652
 20
449.7033803838895
 30
0.0
 11
-94.65229746682651
 21
449.7033803838895
 31
0.0
  0
LINE
  5
2DA
330
1F
100
AcDbEntity
  8
0
  6
CONTINUOUS
 62
     7
100
AcDbLine
 10
101.8477025331735
 20
483.78379931364
 30
0.0
 11
101.8477025430448
 21
481.7071903478982
 31
0.0
  0
ARC
  5
2DB
330
1F
100
AcDbEntity
  8
0
  6
CONTINUOUS
 62
     7
100
AcDbCircle
 10
365.0
 20
451.7033803838895
 30
0.0
 40
109.5
100
AcDbArc
 50
176.4999999999998
 51
183.5
  0
LINE
  5
2DC
330
1F
100
AcDbEntity
  8
0
  6
CONTINUOUS
 62
     7
100
AcDbLine
 10
-94.65229746682651
 20
453.7033803838895
 30
0.0
 11
-68.15229746682652
 21
453.7033803838895
 31
0.0
  0
LINE
  5
2DD
330
1F
100
AcDbEntity
  8
0
  6
CONTINUOUS
 62
     7
100
AcDbLine
 10
-114.1522974668265
 20
469.7555081874079
 30
0.0
 11
-115.1522974668265
 21
469.7555081874079
 31
0.0
  0
LINE
  5
2DE
330
1F
100
AcDbEntity
  8
0
  6
CONTINUOUS
 62
     7
100
AcDbLine
 10
-257.1522974668265
 20
343.2033803838895
 30
0.0
 11
-257.1522974668265
 21
352.8145539169928
 31
0.0
  0
LINE
  5
2DF
330
1F
100
AcDbEntity
  8
0
  6
CONTINUOUS
 62
     7
100
AcDbLine
 10
-95.65229746682651
 20
546.2033803838895
 30
0.0
 11
-95.65229746682651
 21
357.2033803838894
 31
0.0
  0
LINE
  5
2E0
330
1F
100
AcDbEntity
  8
0
  6
CONTINUOUS
 62
     7
100
AcDbLine
 10
101.8481561408503
 20
481.707198988125
 30
0.0
 11
101.8086020295276
 21
483.7837704671107
 31
0.0
  0
LWPOLYLINE
  5
2E1
330
1F
100
AcDbEntity
  8
0
  6
CONTINUOUS
 62
     7
100
AcDbPolyline
 90
      113
 70
     0
 43
0.0
 10
44.73221890849507
 20
362.6567590454694
 10
44.68900660478311
 20
362.9331906800644
 10
44.64579430107116
 20
363.2752204607124
 10
44.60258199735921
 20
363.682782310778
 10
44.55936969364726
 20
364.1555076462377
 10
44.51615738993532
 20
364.6928573578746
 10
44.47294508622337
 20
365.2942904213003
 10
44.42973278251143
 20
365.9592658121265
 10
44.38652047879949
 20
366.6872425059651
 10
44.34330817508756
 20
367.4776794784275
 10
44.30009587137562
 20
368.3300357051255
 10
44.25688356766367
 20
369.2437701616707
 10
44.21367126395173
 20
370.2183418236747
 10
44.17045896023978
 20
371.2532092613611
 10
44.12724665652784
 20
372.3477080888564
 10
44.08403435281589
 20
373.5008786984239
 10
44.04082204910393
 20
374.7117180847542
 10
43.99760974539197
 20
375.9792232425373
 10
43.95439744168002
 20
377.3023911664637
 10
43.91118513796808
 20
378.6802188512238
 10
43.86797283425611
 20
380.1117032915077
 10
43.82476053054418
 20
381.5958414820061
 10
43.78154822683224
 20
383.1316304174089
 10
43.7383359231203
 20
384.7180670924067
 10
43.69512361940836
 20
386.3541325661835
 10
43.65191131569645
 20
388.0385965385459
 10
43.60869901198454
 20
389.7700788309238
 10
43.56548670827262
 20
391.5471960826924
 10
43.52227440456071
 20
393.3685649332273
 10
43.47906210084879
 20
395.2328020219036
 10
43.43584979713688
 20
397.1385239880969
 10
43.39263749342498
 20
399.0843474711825
 10
43.34942518971306
 20
401.0688891105358
 10
43.30621288600113
 20
403.0907655455322
 10
43.2630005822892
 20
405.1485933848573
 10
43.21978827857726
 20
407.2409318391709
 10
43.17657597486531
 20
409.366163595911
 10
43.13336367115336
 20
411.5226375184524
 10
43.0901513674414
 20
413.7087024701695
 10
43.04693906372943
 20
415.922707314437
 10
43.00372676001746
 20
418.1630009146294
 10
42.96051445630548
 20
420.4279321341212
 10
42.9173021525935
 20
422.7158498362871
 10
42.87408984888152
 20
425.0251028845015
 10
42.83087754516953
 20
427.3540401421389
 10
42.78766524145754
 20
429.7010068651214
 10
42.74445293774555
 20
432.064280674688
 10
42.70124063403355
 20
434.4420791180674
 10
42.65802833032156
 20
436.8326176538347
 10
42.61481602660957
 20
439.2341117405647
 10
42.57160372289758
 20
441.6447768368323
 10
42.5283914191856
 20
444.0628284012125
 10
42.48517911547363
 20
446.4864818922804
 10
42.44196681176165
 20
448.9139527686107
 10
42.39875450804969
 20
451.3434564887784
 10
42.35554220433774
 20
453.7732085113586
 10
42.31232990062579
 20
456.2014262806257
 10
42.26911759691386
 20
458.6263351227906
 10
42.22590529320193
 20
461.0461623194504
 10
42.18269298949
 20
463.4591351522016
 10
42.13948068577808
 20
465.8634809026409
 10
42.09626838206616
 20
468.2574268523651
 10
42.05305607835425
 20
470.6392002829709
 10
42.00984377464233
 20
473.0070284760548
 10
41.96663147093041
 20
475.3591387132136
 10
41.92341916721848
 20
477.6937582760441
 10
41.88020686350655
 20
480.0091169735858
 10
41.83699455979463
 20
482.3035154189516
 10
41.79378225608269
 20
484.5753328794924
 10
41.75056995237073
 20
486.8229527254783
 10
41.70735764865879
 20
489.0447583271796
 10
41.66414534494683
 20
491.2391330548662
 10
41.62093304123488
 20
493.4044602788083
 10
41.57772073752291
 20
495.5391233692758
 10
41.53450843381096
 20
497.6415056965392
 10
41.49129613009899
 20
499.7099906308683
 10
41.44808382638703
 20
501.7429615425332
 10
41.40487152267507
 20
503.7388387529963
 10
41.3616592189631
 20
505.6962324459476
 10
41.31844691525113
 20
507.6138136157761
 10
41.27523461153918
 20
509.4902532844199
 10
41.2320223078272
 20
511.3242224738167
 10
41.18881000411525
 20
513.1143922059049
 10
41.14559770040329
 20
514.8594335026222
 10
41.10238539669134
 20
516.5580173859069
 10
41.05917309297939
 20
518.2088148776966
 10
41.01596078926745
 20
519.8104969999293
 10
40.97274848555551
 20
521.3617382258755
 10
40.92953618184357
 20
522.8613703439012
 10
40.88632387813164
 20
524.3084439993565
 10
40.84311157441972
 20
525.7020260194525
 10
40.79989927070778
 20
527.0411832313999
 10
40.75668696699586
 20
528.3249824624102
 10
40.71347466328394
 20
529.5524905396937
 10
40.670262359572
 20
530.722774290462
 10
40.62705005586005
 20
531.8349005419257
 10
40.58383775214811
 20
532.8879361212959
 10
40.54062544843616
 20
533.8809478557835
 10
40.49741314472421
 20
534.8130477181082
 10
40.45420084101222
 20
535.683649866921
 10
40.41098853730026
 20
536.4922924988489
 10
40.36777623358827
 20
537.2385141889398
 10
40.32456392987629
 20
537.9218535122415
 10
40.2813516261643
 20
538.5418490438018
 10
40.23813932245233
 20
539.0980393586686
 10
40.19492701874033
 20
539.5899630318895
 10
40.15171471502836
 20
540.0171586385126
 10
40.1085024113164
 20
540.3791647535857
 10
40.06529010760443
 20
540.6755219864017
 10
40.02207780389248
 20
540.905944312085
 10
39.97886550018053
 20
541.0704490067499
 10
39.93565319646861
 20
541.1690839445195
 10
39.89244089275659
 20
541.2018969995167
  0
LWPOLYLINE
  5
2E2
330
1F
100
AcDbEntity
  8
0
  6
CONTINUOUS
 62
     7
100
AcDbPolyline
 90
        3
 70
     0
 43
0.0
 10
49.47498580075668
 20
537.9911410972758
 10
49.40821780505969
 20
538.1693800983554
 10
49.3636290680146
 20
538.2033803838073
  0
LWPOLYLINE
  5
2E3
330
1F
100
AcDbEntity
  8
0
  6
CONTINUOUS
 62
     7
100
AcDbPolyline
 90
        3
 70
     0
 43
0.0
 10
79.47243719234397
 20
538.0011941139212
 10
79.40602147560548
 20
538.1727071225739
 10
79.3636111699613
 20
538.2033803838304
  0
LWPOLYLINE
  5
2E4
330
1F
100
AcDbEntity
  8
0
  6
CONTINUOUS
 62
     7
100
AcDbPolyline
 90
      113
 70
     0
 43
0.0
 10
34.73219225928877
 20
362.6571493871314
 10
34.68897782658731
 20
362.9336225520128
 10
34.64576339388585
 20
363.2756046613861
 10
34.60254896118437
 20
363.6830343937759
 10
34.5593345284829
 20
364.1557108075361
 10
34.5161200957814
 20
364.6931129621883
 10
34.4729056630799
 20
365.2946752725617
 10
34.42969123037839
 20
365.9598321534855
 10
34.38647679767688
 20
366.6880180197889
 10
34.34326236497537
 20
367.478667286301
 10
34.30004793227387
 20
368.331214367851
 10
34.25683349957237
 20
369.2450936792679
 10
34.21361906687088
 20
370.2197396353811
 10
34.1704046341694
 20
371.2545866510197
 10
34.12719020146793
 20
372.3490483243284
 10
34.08397576876646
 20
373.502279195872
 10
34.04076133606501
 20
374.7132581959908
 10
33.99754690336357
 20
375.9809609226745
 10
33.95433247066214
 20
377.3043629739124
 10
33.9111180379607
 20
378.6824399476945
 10
33.86790360525927
 20
380.1141674420104
 10
33.82468917255781
 20
381.5985210548495
 10
33.78147473985636
 20
383.1344763842016
 10
33.73826030715492
 20
384.7210090280563
 10
33.69504587445345
 20
386.3570945103649
 10
33.65183144175197
 20
388.0416240469842
 10
33.60861700905048
 20
389.7732425317542
 10
33.56540257634898
 20
391.550550112717
 10
33.52218814364748
 20
393.372146937915
 10
33.47897371094595
 20
395.2366331553898
 10
33.43575927824443
 20
397.1426089131838
 10
33.39254484554289
 20
399.0886743593389
 10
33.34933041284135
 20
401.0734296418973
 10
33.30611598013981
 20
403.095474908901
 10
33.26290154743826
 20
405.1534103083921
 10
33.21968711473671
 20
407.2458281918717
 10
33.17647268203516
 20
409.3711855225882
 10
33.13325824933361
 20
411.527824546728
 10
33.09004381663205
 20
413.7140838837819
 10
33.04682938393051
 20
415.9283021532399
 10
33.00361495122897
 20
418.1688179745925
 10
32.96040051852743
 20
420.4339699673299
 10
32.9171860858259
 20
422.7220967509425
 10
32.87397165312438
 20
425.0315369449208
 10
32.83075722042288
 20
427.360629168755
 10
32.78754278772139
 20
429.7077120417374
 10
32.74432835501991
 20
432.0711017686504
 10
32.70111392231845
 20
434.4490303941534
 10
32.65789948961699
 20
436.8397102140442
 10
32.61468505691555
 20
439.2413535241205
 10
32.57147062421411
 20
441.65217262018
 10
32.52825619151268
 20
444.0703797980203
 10
32.48504175881126
 20
446.4941873534392
 10
32.44182732610983
 20
448.9218075822342
 10
32.39861289340841
 20
451.3514527802033
 10
32.35539846070697
 20
453.7813352431439
 10
32.31218402800554
 20
456.2096676173387
 10
32.2689695953041
 20
458.634671474358
 10
32.22575516260265
 20
461.0545778192896
 10
32.1825407299012
 20
463.4676181094504
 10
32.13932629719974
 20
465.8720238021565
 10
32.09611186449828
 20
468.2660263547244
 10
32.05289743179681
 20
470.6478572244708
 10
32.00968299909535
 20
473.0157478687121
 10
31.96646856639388
 20
475.3679297447646
 10
31.9232541336924
 20
477.7026343099451
 10
31.88003970099092
 20
480.0180930215697
 10
31.83682526828946
 20
482.3125596578751
 10
31.79361083558798
 20
484.5843960841264
 10
31.7503964028865
 20
486.8319968380074
 10
31.70718197018503
 20
489.0537564641808
 10
31.66396753748354
 20
491.248069507309
 10
31.62075310478206
 20
493.4133305120548
 10
31.57753867208056
 20
495.5479340230801
 10
31.53432423937907
 20
497.6502745850482
 10
31.49110980667757
 20
499.7187467426214
 10
31.44789537397606
 20
501.751745040462
 10
31.40468094127455
 20
503.7476670201104
 10
31.36146650857304
 20
505.7050308850112
 10
31.31825207587152
 20
507.6225140316733
 10
31.27503764316999
 20
509.4988047457164
 10
31.23182321046847
 20
511.33259131276
 10
31.18860877776694
 20
513.1225620184232
 10
31.14539434506542
 20
514.867405148326
 10
31.1021799123639
 20
516.5658089880876
 10
31.05896547966239
 20
518.2164618233277
 10
31.01575104696088
 20
519.8180519396653
 10
30.97253661425939
 20
521.3692676227206
 10
30.9293221815579
 20
522.8688384079219
 10
30.88610774885642
 20
524.315752677382
 10
30.84289331615496
 20
525.7090989889949
 10
30.7996788834535
 20
527.0479661180058
 10
30.75646445075204
 20
528.3314428396601
 10
30.7132500180506
 20
529.5586179292031
 10
30.67003558534915
 20
530.7285801618804
 10
30.62682115264771
 20
531.8404183129369
 10
30.58360671994627
 20
532.8932211576184
 10
30.54039228724482
 20
533.88607747117
 10
30.49717785454338
 20
534.8180783729774
 10
30.45396342184193
 20
535.6884832225828
 10
30.41074898914049
 20
536.4968293913173
 10
30.36753455643904
 20
537.2426803004626
 10
30.32432012373757
 20
537.9255993712997
 10
30.28110569103611
 20
538.54515002511
 10
30.23789125833464
 20
539.1008956831754
 10
30.19467682563316
 20
539.5923997667768
 10
30.15146239293167
 20
540.0192256971958
 10
30.10824796023016
 20
540.3809368957136
 10
30.06503352752866
 20
540.6770967836121
 10
30.02181909482713
 20
540.9073071664417
 10
29.9786046621256
 20
541.0714855193664
 10
29.93539022942405
 20
541.169704364989
 10
29.89217579672182
 20
541.2020372998529
  0
LWPOLYLINE
  5
2E5
330
1F
100
AcDbEntity
  8
0
  6
CONTINUOUS
 62
     7
100
AcDbPolyline
 90
      113
 70
     0
 43
0.0
 10
24.73210235864565
 20
362.6578739250142
 10
24.6888920717066
 20
362.9344797382797
 10
24.64568178476756
 20
363.2764998196514
 10
24.60247149782849
 20
363.6838477451155
 10
24.55926121088942
 20
364.1564124113011
 10
24.51605092395033
 20
364.6937941525339
 10
24.47284063701124
 20
365.2954063403549
 10
24.42963035007215
 20
365.9606591944107
 10
24.38642006313306
 20
366.6889629343482
 10
24.34320977619397
 20
367.4797277798143
 10
24.29999948925489
 20
368.3323639504558
 10
24.25678920231582
 20
369.2462816659195
 10
24.21357891537676
 20
370.2208911458522
 10
24.17036862843771
 20
371.2556026099008
 10
24.12715834149869
 20
372.3498261408108
 10
24.08394805455969
 20
373.5028652492425
 10
24.0407377676207
 20
374.713726209937
 10
23.99752748068172
 20
375.9813638831348
 10
23.95431719374276
 20
377.3047331290766
 10
23.91110690680382
 20
378.6827888080031
 10
23.86789661986487
 20
380.1144857801547
 10
23.82468633292593
 20
381.5987789057721
 10
23.78147604598698
 20
383.1346230450959
 10
23.73826575904804
 20
384.7209730583668
 10
23.69505547210909
 20
386.3567838058253
 10
23.65184518517013
 20
388.0409982059974
 10
23.60863489823116
 20
389.7723642554707
 10
23.56542461129218
 20
391.5494711349968
 10
23.52221432435319
 20
393.3709033999613
 10
23.47900403741419
 20
395.23524560575
 10
23.43579375047517
 20
397.1410823077486
 10
23.39258346353615
 20
399.0869980613429
 10
23.34937317659711
 20
401.0715774219184
 10
23.30616288965807
 20
403.0934049448612
 10
23.262952602719
 20
405.1510651855568
 10
23.21974231577994
 20
407.2431426975609
 10
23.17653202884086
 20
409.3681748938532
 10
23.13332174190177
 20
411.5245294189106
 10
23.09011145496267
 20
413.7105357136061
 10
23.04690116802357
 20
415.9245232188135
 10
23.00369088108447
 20
418.1648213754053
 10
22.96048059414538
 20
420.429759624255
 10
22.91727030720629
 20
422.7176674062358
 10
22.8740600202672
 20
425.0268741622205
 10
22.83084973332813
 20
427.3557093330827
 10
22.78763944638909
 20
429.7025023596954
 10
22.74442915945005
 20
432.0655803219257
 10
22.70121887251103
 20
434.4432138208161
 10
22.65800858557203
 20
436.8336157427592
 10
22.61479829863304
 20
439.2349963659402
 10
22.57158801169406
 20
441.6455659685438
 10
22.52837772475509
 20
444.0635348287553
 10
22.48516743781612
 20
446.4871132247594
 10
22.44195715087716
 20
448.9145114347414
 10
22.39874686393819
 20
451.3439397368861
 10
22.35553657699921
 20
453.7736084093785
 10
22.31232629006023
 20
456.2017277304036
 10
22.26911600312123
 20
458.6265117434213
 10
22.22590571618224
 20
461.0461920808957
 10
22.18269542924322
 20
463.4590055071226
 10
22.1394851423042
 20
465.8631887870057
 10
22.09627485536518
 20
468.2569786854487
 10
22.05306456842616
 20
470.6386119673552
 10
22.00985428148712
 20
473.0063253976289
 10
21.96664399454808
 20
475.3583557411734
 10
21.92343370760904
 20
477.6929397628924
 10
21.88022342067
 20
480.0083142276895
 10
21.83701313373096
 20
482.302717782682
 10
21.79380284679192
 20
484.5744601227188
 10
21.75059255985288
 20
486.8219420262427
 10
21.70738227291385
 20
489.0435702387667
 10
21.66417198597482
 20
491.2377515058031
 10
21.62096169903579
 20
493.402892572865
 10
21.57775141209675
 20
495.5374001854645
 10
21.53454112515772
 20
497.6396810891149
 10
21.49133083821869
 20
499.7081420293287
 10
21.44812055127967
 20
501.7411897516184
 10
21.40491026434065
 20
503.7372310014969
 10
21.36169997740162
 20
505.6947044751665
 10
21.3184896904626
 20
507.6122432929139
 10
21.27527940352357
 20
509.4885537093771
 10
21.23206911658455
 20
511.3223421113703
 10
21.18885882964554
 20
513.1123148857091
 10
21.14564854270651
 20
514.857178419208
 10
21.10243825576748
 20
516.5556390986818
 10
21.05922796882846
 20
518.2064033109453
 10
21.01601768188942
 20
519.8081774428136
 10
20.97280739495039
 20
521.3596678811015
 10
20.92959710801134
 20
522.859583189605
 10
20.8863868210723
 20
524.3067778524369
 10
20.84317653413325
 20
525.7003417969307
 10
20.7999662471942
 20
527.0393863267786
 10
20.75675596025514
 20
528.3230227456726
 10
20.71354567331608
 20
529.5503623573043
 10
20.67033538637703
 20
530.7205164653658
 10
20.62712509943798
 20
531.8325963735492
 10
20.58391481249893
 20
532.8857133855463
 10
20.54070452555988
 20
533.8789788050492
 10
20.49749423862085
 20
534.8115039357499
 10
20.45428395168181
 20
535.6824371043906
 10
20.41107366474278
 20
536.4912233534536
 10
20.36786337780376
 20
537.2374503203874
 10
20.32465309086474
 20
537.920706548783
 10
20.28144280392573
 20
538.5405805822313
 10
20.23823251698671
 20
539.0966609643235
 10
20.19502223004771
 20
539.5885362386507
 10
20.1518119431087
 20
540.0157949488039
 10
20.10860165616969
 20
540.3780256383737
 10
20.06539136923068
 20
540.6748168509517
 10
20.02218108229167
 20
540.9057581881923
 10
19.97897079535266
 20
541.0705940548162
 10
19.93576050841365
 20
541.169385107343
 10
19.89255022147454
 20
541.2022306140099
  0
LWPOLYLINE
  5
2E6
330
1F
100
AcDbEntity
  8
0
  6
CONTINUOUS
 62
     7
100
AcDbPolyline
 90
       65
 70
     0
 43
0.0
 10
-28.15229746682662
 20
481.7370452789211
 10
-28.18284737631795
 20
483.3498411620155
 10
-28.21339728580928
 20
484.9509527500754
 10
-28.24394719530059
 20
486.5397672992933
 10
-28.27449710479192
 20
488.1156735223327
 10
-28.30504701428324
 20
489.6780944638784
 10
-28.33559692377455
 20
491.2264879700069
 10
-28.36614683326588
 20
492.7603134371449
 10
-28.3966967427572
 20
494.2790302617192
 10
-28.42724665224852
 20
495.7820978401562
 10
-28.45779656173984
 20
497.2689755688825
 10
-28.48834647123117
 20
498.7391228443249
 10
-28.5188963807225
 20
500.19199906291
 10
-28.54944629021382
 20
501.6270636210643
 10
-28.57999619970514
 20
503.0437759152148
 10
-28.61054610919646
 20
504.4415953417874
 10
-28.64109601868778
 20
505.8199812972095
 10
-28.67164592817911
 20
507.1783931779075
 10
-28.70219583767043
 20
508.5162903803076
 10
-28.73274574716175
 20
509.8331361189591
 10
-28.76329565665307
 20
511.128454989166
 10
-28.79384556614438
 20
512.4018211100346
 10
-28.8243954756357
 20
513.6528100131015
 10
-28.85494538512702
 20
514.8809972299036
 10
-28.88549529461833
 20
516.0859582919774
 10
-28.91604520410964
 20
517.2672687308595
 10
-28.94659511360094
 20
518.4245040780867
 10
-28.97714502309224
 20
519.5572398651956
 10
-29.00769493258354
 20
520.665051623723
 10
-29.03824484207485
 20
521.7475148852056
 10
-29.06879475156614
 20
522.8042051811799
 10
-29.09934466105742
 20
523.8346980431827
 10
-29.1298945705487
 20
524.8385690027507
 10
-29.16044448003999
 20
525.8153935914206
 10
-29.19099438953126
 20
526.7647548750816
 10
-29.22154429902253
 20
527.6863226291596
 10
-29.2520942085138
 20
528.5798221569321
 10
-29.28264411800506
 20
529.4449796687271
 10
-29.31319402749632
 20
530.2815213748728
 10
-29.34374393698758
 20
531.0891734856971
 10
-29.37429384647885
 20
531.8676622115279
 10
-29.40484375597012
 20
532.6167137626934
 10
-29.43539366546139
 20
533.3360543495212
 10
-29.46594357495266
 20
534.0254101823398
 10
-29.49649348444394
 20
534.6845074714766
 10
-29.52704339393523
 20
535.3130724272602
 10
-29.55759330342652
 20
535.9108312600181
 10
-29.58814321291783
 20
536.4775101800784
 10
-29.61869312240914
 20
537.0128353977693
 10
-29.64924303190046
 20
537.5165456170012
 10
-29.67979294139181
 20
537.988485860388
 10
-29.71034285088315
 20
538.4285548835293
 10
-29.7408927603745
 20
538.8366518568305
 10
-29.77144266986587
 20
539.2126759506968
 10
-29.80199257935723
 20
539.5565263355331
 10
-29.8325424888486
 20
539.8681021817449
 10
-29.86309239833997
 20
540.1473026597371
 10
-29.89364230783135
 20
540.3940269399147
 10
-29.92419221732273
 20
540.608174192683
 10
-29.9547421268141
 20
540.7896435884471
 10
-29.98529203630548
 20
540.9383342976121
 10
-30.01584194579685
 20
541.0541454905831
 10
-30.04639185528822
 20
541.1369763377652
 10
-30.07694176477958
 20
541.1867260095638
 10
-30.1074916742709
 20
541.2033118357035
  0
LWPOLYLINE
  5
2E7
330
1F
100
AcDbEntity
  8
0
  6
CONTINUOUS
 62
     7
100
AcDbPolyline
 90
        9
 70
     0
 43
0.0
 10
-260.1522974668265
 20
431.7033631920335
 10
-259.7621168227942
 20
431.7417913098802
 10
-259.3869306020963
 20
431.8555988924024
 10
-259.0411570007873
 20
432.0404123780278
 10
-258.7380839044534
 20
432.2891294881482
 10
-258.4893582422214
 20
432.5921921637041
 10
-258.3045384018039
 20
432.9379538760331
 10
-258.19072690602
 20
433.3131271964361
 10
-258.1522974668265
 20
433.7032944246095
  0
LWPOLYLINE
  5
2E8
330
1F
100
AcDbEntity
  8
0
  6
CONTINUOUS
 62
     7
100
AcDbPolyline
 90
        9
 70
     0
 43
0.0
 10
145.8477025331735
 20
371.2687138563968
 10
146.1403380161977
 20
371.2907928501566
 10
146.4217276817212
 20
371.3561813480878
 10
146.6810578827029
 20
371.4623665068853
 10
146.9083627049533
 20
371.6052676904457
 10
147.0949069516273
 20
371.7793932864248
 10
147.2335218319404
 20
371.9780517458198
 10
147.3188804537783
 20
372.1936087354451
 10
147.3477025331735
 20
372.4177805210753
  0
LWPOLYLINE
  5
2E9
330
1F
100
AcDbEntity
  8
0
  6
CONTINUOUS
 62
     7
100
AcDbPolyline
 90
      113
 70
     0
 43
0.0
 10
74.73299473815563
 20
362.6517516609052
 10
74.68977426457015
 20
362.9274124846238
 10
74.64655379098464
 20
363.2688900164019
 10
74.60333331739915
 20
363.675748675451
 10
74.56011284381363
 20
364.1475212488535
 10
74.5168923702281
 20
364.6837405236918
 10
74.4736718966426
 20
365.2839392870486
 10
74.43045142305708
 20
365.9476503260061
 10
74.38723094947156
 20
366.6744064276468
 10
74.34401047588605
 20
367.4637403790534
 10
74.30079000230054
 20
368.3151849673081
 10
74.25756952871505
 20
369.2282729794935
 10
74.21434905512957
 20
370.2025054229323
 10
74.17112858154411
 20
371.237096863399
 10
74.12790810795867
 20
372.331110102164
 10
74.08468763437322
 20
373.4836065528152
 10
74.0414671607878
 20
374.6936476289405
 10
73.99824668720238
 20
375.9602947441278
 10
73.95502621361693
 20
377.2826093119649
 10
73.91180574003148
 20
378.6596527460395
 10
73.86858526644605
 20
380.0904864599398
 10
73.8253647928606
 20
381.5741718672535
 10
73.7821443192751
 20
383.1097698650277
 10
73.73892384568964
 20
384.6962300252795
 10
73.69570337210413
 20
386.3322526401947
 10
73.65248289851861
 20
388.0165041329968
 10
73.60926242493309
 20
389.7476509269091
 10
73.56604195134759
 20
391.5243594451549
 10
73.52282147776207
 20
393.3452961109575
 10
73.47960100417653
 20
395.2091273475402
 10
73.43638053059102
 20
397.1145195781265
 10
73.3931600570055
 20
399.0601392259396
 10
73.34993958342
 20
401.0446527142028
 10
73.30671910983449
 20
403.0667128734736
 10
73.26349863624903
 20
405.1248093569183
 10
73.22027816266356
 20
407.21732403753
 10
73.1770576890781
 20
409.342636876021
 10
73.13383721549263
 20
411.4991278331033
 10
73.09061674190717
 20
413.6851768694891
 10
73.04739626832175
 20
415.8991639458902
 10
73.0041757947363
 20
418.1394690230189
 10
72.96095532115086
 20
420.4044720615871
 10
72.9177348475654
 20
422.692553022307
 10
72.87451437397996
 20
425.0020918246207
 10
72.8312939003945
 20
427.331432638123
 10
72.78807342680904
 20
429.6788185437127
 10
72.74485295322357
 20
432.0424748800581
 10
72.70163247963809
 20
434.4206269858281
 10
72.65841200605264
 20
436.8115001996912
 10
72.61519153246716
 20
439.2133198603158
 10
72.57197105888169
 20
441.6243113063707
 10
72.52875058529621
 20
444.0426998765245
 10
72.48553011171073
 20
446.4667109094457
 10
72.44230963812524
 20
448.8945697438028
 10
72.39908916453975
 20
451.3245013932107
 10
72.35586869095427
 20
453.7547255163425
 10
72.31264821736876
 20
456.1834573830267
 10
72.26942774378327
 20
458.6089121336574
 10
72.22620727019776
 20
461.0293049086289
 10
72.18298679661227
 20
463.4428508483355
 10
72.13976632302678
 20
465.8477650931715
 10
72.09654584944128
 20
468.242262783531
 10
72.05332537585578
 20
470.6245590598086
 10
72.01010490227029
 20
472.9928690623983
 10
71.9668844286848
 20
475.345407932683
 10
71.92366395509929
 20
477.6804157847774
 10
71.88044348151381
 20
479.9962226046179
 10
71.83722300792833
 20
482.2911785880398
 10
71.79400253434282
 20
484.5636339308781
 10
71.75078206075733
 20
486.8119388289682
 10
71.70756158717184
 20
489.0344434781452
 10
71.66434111358633
 20
491.2294980742443
 10
71.62112064000087
 20
493.395452813101
 10
71.57790016641536
 20
495.5306578905502
 10
71.5346796928299
 20
497.6334635024273
 10
71.4914592192444
 20
499.7022252696885
 10
71.44823874565891
 20
501.7354269207182
 10
71.40501827207342
 20
503.731682168897
 10
71.36179779848794
 20
505.6896105282654
 10
71.31857732490245
 20
507.6078315128635
 10
71.27535685131697
 20
509.4849646367318
 10
71.23213637773148
 20
511.3196294139105
 10
71.18891590414599
 20
513.1104453584401
 10
71.14569543056052
 20
514.8560319843608
 10
71.10247495697506
 20
516.555008805713
 10
71.0592544833896
 20
518.205995336537
 10
71.01603400980413
 20
519.8076662452687
 10
70.9728135362187
 20
521.3589498388831
 10
70.92959306263323
 20
522.8588472886267
 10
70.8863725890478
 20
524.3063597721165
 10
70.84315211546233
 20
525.7004884669687
 10
70.79993164187688
 20
527.0402345507999
 10
70.75671116829145
 20
528.3245992012263
 10
70.71349069470598
 20
529.5525835958642
 10
70.6702702211205
 20
530.72318891233
 10
70.62704974753503
 20
531.8354163282403
 10
70.58382927394953
 20
532.8882724450568
 10
70.54060880036403
 20
533.8809597083016
 10
70.49738832677852
 20
534.8129266148267
 10
70.454167853193
 20
535.6836372910204
 10
70.41094737960749
 20
536.4925558632706
 10
70.36772690602196
 20
537.2391464579653
 10
70.32450643243642
 20
537.9228732014922
 10
70.28128595885089
 20
538.5432002202397
 10
70.23806548526537
 20
539.0995916405955
 10
70.19484501167985
 20
539.5915115889476
 10
70.15162453809434
 20
540.0184241916842
 10
70.1084040645088
 20
540.3798495255338
 10
70.06518359092331
 20
540.675637587063
 10
70.02196311733782
 20
540.9057588836972
 10
69.97874264375233
 20
541.070184100543
 10
69.93552217016685
 20
541.1688839227073
 10
69.89230169658144
 20
541.2018290352966
  0
LWPOLYLINE
  5
2EA
330
1F
100
AcDbEntity
  8
0
  6
CONTINUOUS
 62
     7
100
AcDbPolyline
 90
       45
 70
     0
 43
0.0
 10
131.6522974668265
 20
372.8174715838567
 10
131.6346999896858
 20
372.8293126699381
 10
131.616879581524
 20
372.8408288854203
 10
131.5988051508232
 20
372.8520253114632
 10
131.5805424427687
 20
372.8628465868749
 10
131.5618322303461
 20
372.8734225916218
 10
131.5429784213511
 20
372.8835581631431
 10
131.5239443321283
 20
372.8932590489538
 10
131.5048334432625
 20
372.902459581684
 10
131.4863300754526
 20
372.9108488230021
 10
131.4678349913657
 20
372.9187187034711
 10
131.4493136110254
 20
372.9260755981922
 10
131.4308944296918
 20
372.9328617359712
 10
131.4121855690316
 20
372.9392001937333
 10
131.3936971968655
 20
372.9448984432001
 10
131.3844992424433
 20
372.9475175910071
 10
131.3753933073153
 20
372.9499654972396
 10
131.3663621189182
 20
372.9522473998872
 10
131.357439330701
 20
372.9543557004113
 10
131.3431057922718
 20
372.9574278716263
 10
131.3290898555451
 20
372.9600404749007
 10
131.3153731269399
 20
372.9622010384396
 10
131.3020451552865
 20
372.9639004315127
 10
131.2888789136076
 20
372.9651633606402
 10
131.2761840521405
 20
372.9659565185854
 10
131.2639426558059
 20
372.9662884493908
 10
131.2522370509239
 20
372.9661648814049
 10
131.2421114138583
 20
372.9656688245905
 10
131.232468079175
 20
372.9648174894013
 10
131.2232301886295
 20
372.9636068046404
 10
131.2145295908673
 20
372.9620579615014
 10
131.2063276839577
 20
372.9601710379874
 10
131.1986895565902
 20
372.9579684211075
 10
131.1915427661494
 20
372.9554320505441
 10
131.1849776546443
 20
372.9525955331765
 10
131.1788353259753
 20
372.9493754270399
 10
131.173323595242
 20
372.9458636775427
 10
131.1684339130345
 20
372.942061416112
 10
131.1641878289029
 20
372.9379915569298
 10
131.1605387934269
 20
372.9335994080018
 10
131.1575571229233
 20
372.9289563853441
 10
131.1552375753448
 20
372.924059785784
 10
131.153589075091
 20
372.9189337640224
 10
131.1526198465282
 20
372.9136713671128
 10
131.1522974668265
 20
372.9082061661001
210
0.0
220
0.0
230
-1.0
  0
LWPOLYLINE
  5
2EB
330
1F
100
AcDbEntity
  8
0
  6
CONTINUOUS
 62
     7
100
AcDbPolyline
 90
       43
 70
     0
 43
0.0
 10
131.1522974668265
 20
530.4985546016794
 10
131.1526657706791
 20
530.4927207849681
 10
131.1537774881236
 20
530.4871034630094
 10
131.1556491091185
 20
530.4816998123111
 10
131.1582871727596
 20
530.4765419907327
 10
131.1617629415256
 20
530.4715664590616
 10
131.166046138168
 20
530.4668789075209
 10
131.1711622164621
 20
530.4624832595418
 10
131.1771016540865
 20
530.4584172228119
 10
131.1836095525329
 20
530.4548296033839
 10
131.1908851080543
 20
530.4515890112641
 10
131.1989587055621
 20
530.4487064348347
 10
131.2078004141321
 20
530.4462169614528
 10
131.2176127079975
 20
530.4441045435337
 10
131.2282096278787
 20
530.4424499551073
 10
131.2396313261179
 20
530.4412736918205
 10
131.2518147684233
 20
530.4406090459426
 10
131.2632230184313
 20
530.4404669827068
 10
131.2751918308446
 20
530.4407609466252
 10
131.2877512012016
 20
530.4415095378283
 10
131.3008314593318
 20
530.4427261371331
 10
131.3146981821091
 20
530.4444639683037
 10
131.3290505450983
 20
530.4467135296659
 10
131.3439207675374
 20
530.4494969153232
 10
131.3592111482608
 20
530.4528119616301
 10
131.3731174066447
 20
530.4562063866838
 10
131.3872940697285
 20
530.46002356843
 10
131.401873734139
 20
530.4643119493231
 10
131.4166451525985
 20
530.4690199031622
 10
131.431678226078
 20
530.4741769946813
 10
131.4468439958872
 20
530.4797443540128
 10
131.4623039098167
 20
530.485789720339
 10
131.4778639652579
 20
530.4922451331131
 10
131.493527918559
 20
530.4991144035724
 10
131.5092354976005
 20
530.5063723671803
 10
131.5250049938028
 20
530.5140282132127
 10
131.5407668550496
 20
530.5220480112955
 10
131.5567094757521
 20
530.5305324499915
 10
131.572598214408
 20
530.5393606600245
 10
131.5884506558951
 20
530.5485395464606
 10
131.6042096069286
 20
530.558032443965
 10
131.6284032464875
 20
530.5733245428519
 10
131.6522974668265
 20
530.5892891839223
210
0.0
220
0.0
230
-1.0
  0
LWPOLYLINE
  5
2EC
330
1F
100
AcDbEntity
  8
0
  6
CONTINUOUS
 62
     7
100
AcDbPolyline
 90
        3
 70
     0
 43
0.0
 10
19.1351184213672
 20
365.3294456682813
 10
19.20358379885904
 20
365.2086292901451
 10
19.22114235373287
 20
365.2033803840029
  0
LWPOLYLINE
  5
2ED
330
1F
100
AcDbEntity
  8
0
  6
CONTINUOUS
 62
     7
100
AcDbPolyline
 90
      113
 70
     0
 43
0.0
 10
-98.69221021552107
 20
362.2045849415777
 10
-98.64899632178886
 20
362.2373603414359
 10
-98.60578242805659
 20
362.3360750802128
 10
-98.56256853432461
 20
362.5008227416137
 10
-98.51935464059326
 20
362.7316735117093
 10
-98.47614074686264
 20
363.0284086645574
 10
-98.4329268531326
 20
363.3906147200803
 10
-98.38971295940307
 20
363.8178745551934
 10
-98.34649906567401
 20
364.3097710468124
 10
-98.30328517194523
 20
364.8658870718525
 10
-98.26007127821674
 20
365.4858055072295
 10
-98.21685738448838
 20
366.1691092298588
 10
-98.17364349076007
 20
366.915381116656
 10
-98.13042959703174
 20
367.7242040445365
 10
-98.08721570330326
 20
368.595160791033
 10
-98.04400180957462
 20
369.5277265207314
 10
-98.00078791584582
 20
370.5210637939418
 10
-97.95757402211682
 20
371.5742787266999
 10
-97.91436012838773
 20
372.6864774350414
 10
-97.87114623465851
 20
373.8567660350018
 10
-97.82793234092924
 20
375.0842506426171
 10
-97.78471844719988
 20
376.3680373739226
 10
-97.7415045534705
 20
377.7072323449542
 10
-97.69829065974113
 20
379.1009416717477
 10
-97.65507676601177
 20
380.5482714703386
 10
-97.61186287228244
 20
382.0483156938564
 10
-97.56864897855318
 20
383.5999587074141
 10
-97.52543508482398
 20
385.2019081432925
 10
-97.48222119109481
 20
386.8528661018456
 10
-97.43900729736568
 20
388.5515346834272
 10
-97.39579340363655
 20
390.296615988391
 10
-97.35257950990744
 20
392.0868121170909
 10
-97.30936561617838
 20
393.9208251698806
 10
-97.2661517224493
 20
395.7973572471141
 10
-97.22293782872022
 20
397.7151104491451
 10
-97.17972393499112
 20
399.6727868757367
 10
-97.13651004126204
 20
401.6690354146709
 10
-97.09329614753293
 20
403.7023061797917
 10
-97.05008225380381
 20
405.7710028801829
 10
-97.00686836007466
 20
407.8735292249281
 10
-96.96365446634552
 20
410.0082889231111
 10
-96.92044057261636
 20
412.1736856838156
 10
-96.87722667888721
 20
414.3681232161255
 10
-96.83401278515807
 20
416.5900052291245
 10
-96.7907988914289
 20
418.8377354318962
 10
-96.74758499769976
 20
421.1097175335246
 10
-96.70437110397059
 20
423.4043521307248
 10
-96.66115721024143
 20
425.7199611729067
 10
-96.6179433165123
 20
428.0547838259742
 10
-96.57472942278314
 20
430.407055315542
 10
-96.53151552905398
 20
432.7750108672243
 10
-96.48830163532483
 20
435.1568857066358
 10
-96.44508774159569
 20
437.5509150593908
 10
-96.40187384786654
 20
439.9553341511039
 10
-96.35865995413741
 20
442.3683782073896
 10
-96.31544606040828
 20
444.7882824538621
 10
-96.27223216667915
 20
447.213282116136
 10
-96.22901827295001
 20
449.6416090009529
 10
-96.18580437922087
 20
452.0714784317823
 10
-96.14259048549171
 20
454.5011007709215
 10
-96.09937659176258
 20
456.9286863796755
 10
-96.05616269803345
 20
459.3524456193481
 10
-96.01294880430432
 20
461.7705888512443
 10
-95.96973491057518
 20
464.1813264366682
 10
-95.92652101684605
 20
466.5828687369246
 10
-95.88330712311692
 20
468.9734261133179
 10
-95.84009322938778
 20
471.3512089271525
 10
-95.79687933565864
 20
473.7144287843693
 10
-95.75366544192948
 20
476.0613470090181
 10
-95.71045154820034
 20
478.3902902925773
 10
-95.6672376544712
 20
480.6995897746837
 10
-95.62402376074203
 20
482.9875765949743
 10
-95.5808098670129
 20
485.2525818930864
 10
-95.53759597328371
 20
487.4929368086566
 10
-95.49438207955458
 20
489.7069724813223
 10
-95.45116818582542
 20
491.8930200507203
 10
-95.40795429209625
 20
494.0494106564876
 10
-95.3647403983671
 20
496.1744754382613
 10
-95.32152650463793
 20
498.2665720748167
 10
-95.27831261090878
 20
500.3242241667583
 10
-95.23509871717962
 20
502.3460193096931
 10
-95.19188482345047
 20
504.3305452351681
 10
-95.14867092972132
 20
506.2763896747302
 10
-95.10545703599216
 20
508.1821403599258
 10
-95.062243142263
 20
510.0463850223023
 10
-95.01902924853385
 20
511.8677113934059
 10
-94.97581535480471
 20
513.6447072047837
 10
-94.93260146107556
 20
515.3759601879823
 10
-94.88938756734642
 20
517.0600599282236
 10
-94.8461736736173
 20
518.6957279597126
 10
-94.80295977988817
 20
520.281903240756
 10
-94.75974588615908
 20
521.8175450266737
 10
-94.71653199242996
 20
523.301612572785
 10
-94.67331809870083
 20
524.7330651344095
 10
-94.6301042049717
 20
526.1108619668669
 10
-94.58689031124256
 20
527.4339623254765
 10
-94.54367641751345
 20
528.7013254655585
 10
-94.50046252378428
 20
529.9119106424318
 10
-94.45724863005515
 20
531.0646771114165
 10
-94.41403473632602
 20
532.158618576778
 10
-94.37082084259687
 20
533.1930111897825
 10
-94.32760694886771
 20
534.1672694774098
 10
-94.28439305513855
 20
535.0808089156277
 10
-94.24117916140938
 20
535.9330449804038
 10
-94.1979652676802
 20
536.7233931477058
 10
-94.15475137395106
 20
537.4512688935015
 10
-94.11153748022187
 20
538.1160876937583
 10
-94.06832358649271
 20
538.7172650244443
 10
-94.02510969276355
 20
539.2542163615267
 10
-93.9818957990344
 20
539.7263581447725
 10
-93.93868190530522
 20
540.133257527131
 10
-93.89546801157609
 20
540.4747947773383
 10
-93.8522541178469
 20
540.750889161179
210
0.0
220
0.0
230
-1.0
  0
LWPOLYLINE
  5
2EE
330
1F
100
AcDbEntity
  8
0
  6
CONTINUOUS
 62
     7
100
AcDbPolyline
 90
       25
 70
     0
 43
0.0
 10
99.75612072301854
 20
540.8757084497454
 10
99.75592786617423
 20
540.8747805284653
 10
99.75573500930021
 20
540.8738512887726
 10
99.75554215239652
 20
540.8729207307034
 10
99.75534929546313
 20
540.8719888542938
 10
99.75515643850008
 20
540.8710556595801
 10
99.75496358150743
 20
540.8701211465979
 10
99.75477072448514
 20
540.8691853153836
 10
99.75457786743324
 20
540.8682481659731
 10
99.75438501035175
 20
540.8673096984026
 10
99.7541921532407
 20
540.8663699127079
 10
99.75399929610008
 20
540.8654288089253
 10
99.75380643892993
 20
540.8644863870909
 10
99.75361358173022
 20
540.8635426472406
 10
99.75342072450103
 20
540.8625975894105
 10
99.75322786724233
 20
540.8616512136367
 10
99.75303500995415
 20
540.8607035199553
 10
99.7528421526365
 20
540.8597545084023
 10
99.75264929528942
 20
540.8588041790138
 10
99.75245643791293
 20
540.857852531826
 10
99.752263580507
 20
540.8568995668745
 10
99.75207072307168
 20
540.855945284196
 10
99.751877865607
 20
540.8549896838261
 10
99.75168500811293
 20
540.854032765801
 10
99.7514921505895
 20
540.8530745301566
  0
LWPOLYLINE
  5
2EF
330
1F
100
AcDbEntity
  8
0
  6
CONTINUOUS
 62
     7
100
AcDbPolyline
 90
      113
 70
     0
 43
0.0
 10
-38.69224603550791
 20
362.2048090892026
 10
-38.64902642527712
 20
362.2381348888263
 10
-38.60580681504634
 20
362.3372103363746
 10
-38.56258720481554
 20
362.5019746695917
 10
-38.51936759458474
 20
362.7323671262222
 10
-38.47614798435393
 20
363.0283269440106
 10
-38.43292837412313
 20
363.3897933607014
 10
-38.38970876389229
 20
363.8166958622546
 10
-38.34648915366146
 20
364.3087259079622
 10
-38.30326954343061
 20
364.8653290398299
 10
-38.26004993319975
 20
365.4859394694287
 10
-38.21683032296889
 20
366.1699914083302
 10
-38.17361071273803
 20
366.9169190681056
 10
-38.13039110250717
 20
367.7261566603264
 10
-38.0871714922763
 20
368.5971383965638
 10
-38.04395188204546
 20
369.5292984883895
 10
-38.00073227181462
 20
370.5220711473748
 10
-37.95751266158378
 20
371.5748905850909
 10
-37.91429305135296
 20
372.6871261630072
 10
-37.87107344112216
 20
373.8578425366204
 10
-37.82785383089136
 20
375.0860149475337
 10
-37.78463422066057
 20
376.3706186255915
 10
-37.74141461042978
 20
377.7106288006377
 10
-37.69819500019899
 20
379.1050207025166
 10
-37.65497538996821
 20
380.5527695610719
 10
-37.61175577973741
 20
382.052850606148
 10
-37.56853616950661
 20
383.6042390675888
 10
-37.5253165592758
 20
385.2059101752385
 10
-37.48209694904498
 20
386.85683498941
 10
-37.43887733881414
 20
388.5558274997355
 10
-37.3956577285833
 20
390.3015005129435
 10
-37.35243811835245
 20
392.092453674003
 10
-37.30921850812158
 20
393.9272866278826
 10
-37.26599889789071
 20
395.8045990195512
 10
-37.22277928765983
 20
397.7229904939774
 10
-37.17955967742894
 20
399.6810606961302
 10
-37.13634006719805
 20
401.6774092709783
 10
-37.09312045696714
 20
403.7106358634904
 10
-37.04990084673625
 20
405.7793401186354
 10
-37.00668123650533
 20
407.8820935294335
 10
-36.96346162627443
 20
410.017297665028
 10
-36.92024201604352
 20
412.1832906568219
 10
-36.87702240581262
 20
414.3784105272454
 10
-36.83380279558172
 20
416.6009952987284
 10
-36.79058318535083
 20
418.8493829937011
 10
-36.74736357511993
 20
421.1219116345929
 10
-36.70414396488906
 20
423.4169192438342
 10
-36.66092435465819
 20
425.7327438438548
 10
-36.61770474442734
 20
428.0677234570848
 10
-36.57448513419651
 20
430.4201953947287
 10
-36.53126552396568
 20
432.7884510160885
 10
-36.48804591373488
 20
435.170708503121
 10
-36.44482630350407
 20
437.5651795091659
 10
-36.40160669327329
 20
439.9700756875628
 10
-36.35838708304251
 20
442.3836086916511
 10
-36.31516747281172
 20
444.8039901747707
 10
-36.27194786258095
 20
447.2294317902609
 10
-36.22872825235017
 20
449.6581451914616
 10
-36.18550864211939
 20
452.088342031712
 10
-36.14228903188861
 20
454.5182339643518
 10
-36.09906942165783
 20
456.9460341714026
 10
-36.05584981142703
 20
459.3699678032571
 10
-36.01263020119623
 20
461.7882656486332
 10
-35.96941059096542
 20
464.1991585292758
 10
-35.92619098073462
 20
466.6008772669293
 10
-35.8829713705038
 20
468.9916526833381
 10
-35.83975176027298
 20
471.3697156002469
 10
-35.79653215004217
 20
473.7332968394005
 10
-35.75331253981134
 20
476.0806272225429
 10
-35.71009292958051
 20
478.4099375714191
 10
-35.66687331934968
 20
480.7194590888018
 10
-35.62365370911886
 20
483.0074734330574
 10
-35.58043409888801
 20
485.2723626869283
 10
-35.53721448865718
 20
487.5125208181151
 10
-35.49399487842634
 20
489.726341794318
 10
-35.45077526819551
 20
491.9122195832376
 10
-35.40755565796466
 20
494.068548152574
 10
-35.36433604773381
 20
496.1937214700272
 10
-35.32111643750297
 20
498.2861335032979
 10
-35.27789682727212
 20
500.3441782200865
 10
-35.23467721704125
 20
502.3662495880931
 10
-35.19145760681039
 20
504.3507583747293
 10
-35.14823799657952
 20
506.2962887686468
 10
-35.10501838634864
 20
508.2015272620301
 10
-35.06179877611777
 20
510.0651616691001
 10
-35.01857916588691
 20
511.8858798040769
 10
-34.97535955565603
 20
513.6623694811817
 10
-34.93213994542516
 20
515.3933185146352
 10
-34.88892033519429
 20
517.0774147186579
 10
-34.84570072496344
 20
518.7133459074709
 10
-34.80248111473259
 20
520.2997998952947
 10
-34.75926150450174
 20
521.8354647645115
 10
-34.71604189427091
 20
523.3191314672545
 10
-34.67282228404008
 20
524.7498487268382
 10
-34.62960267380926
 20
526.126704991036
 10
-34.58638306357845
 20
527.4487887076205
 10
-34.54316345334765
 20
528.7151883243646
 10
-34.49994384311684
 20
529.9249922890417
 10
-34.45672423288605
 20
531.0772890494245
 10
-34.41350462265524
 20
532.1711670532859
 10
-34.37028501242445
 20
533.205714748399
 10
-34.32706540219365
 20
534.180020582537
 10
-34.28384579196285
 20
535.0931916713674
 10
-34.24062618173205
 20
535.9445955916244
 10
-34.19740657150125
 20
536.7337911923896
 10
-34.15418696127043
 20
537.4603417380486
 10
-34.11096735103963
 20
538.1238104929866
 10
-34.06774774080881
 20
538.7237607215895
 10
-34.02452813057798
 20
539.2597556882423
 10
-33.98130852034714
 20
539.7313586573307
 10
-33.9380889101163
 20
540.13813289324
 10
-33.89486929988544
 20
540.4796416603558
 10
-33.8516496896542
 20
540.7554482616197
210
0.0
220
0.0
230
-1.0
  0
LWPOLYLINE
  5
2F0
330
1F
100
AcDbEntity
  8
0
  6
CONTINUOUS
 62
     7
100
AcDbPolyline
 90
       33
 70
     0
 43
0.0
 10
-60.10778873415639
 20
541.203204271498
 10
-60.11277604110232
 20
541.2027763592532
 10
-60.11776334804824
 20
541.2014662930178
 10
-60.12275065499417
 20
541.1992737516191
 10
-60.12773796194009
 20
541.1961984138849
 10
-60.13272526888602
 20
541.1922399586423
 10
-60.13771257583196
 20
541.1873980647191
 10
-60.14269988277787
 20
541.1816724109424
 10
-60.1476871897238
 20
541.1750626761399
 10
-60.15267449666973
 20
541.1675685584596
 10
-60.15766180361565
 20
541.1591901472252
 10
-60.16264911056158
 20
541.1499278954831
 10
-60.16763641750751
 20
541.1397822701003
 10
-60.17262372445343
 20
541.1287537379442
 10
-60.17761103139937
 20
541.1168427658815
 10
-60.18259833834529
 20
541.1040498207798
 10
-60.18758564529121
 20
541.0903753695059
 10
-60.19257295223714
 20
541.075819878927
 10
-60.19756025918306
 20
541.06038381591
 10
-60.20254756612898
 20
541.0440676473225
 10
-60.20753487307491
 20
541.0268718400313
 10
-60.21252218002083
 20
541.0087968609035
 10
-60.21750948696676
 20
540.9898431768063
 10
-60.22249679391268
 20
540.9700112546068
 10
-60.22748410085861
 20
540.9493015611722
 10
-60.23247140780454
 20
540.9277145633698
 10
-60.23745871475047
 20
540.9052507280662
 10
-60.2424460216964
 20
540.8819105221287
 10
-60.24743332864232
 20
540.8576944124247
 10
-60.25242063558824
 20
540.8326028658212
 10
-60.25740794253417
 20
540.806636349185
 10
-60.26239524948009
 20
540.7797953293837
 10
-60.26738255642577
 20
540.7520802732855
  0
LWPOLYLINE
  5
2F1
330
1F
100
AcDbEntity
  8
0
  6
CONTINUOUS
 62
     7
100
AcDbPolyline
 90
      113
 70
     0
 43
0.0
 10
-48.69245485878648
 20
362.2049228560337
 10
-48.64923151947656
 20
362.2378205345123
 10
-48.60600818016663
 20
362.3364797563361
 10
-48.56278484085671
 20
362.500865480331
 10
-48.51956150154678
 20
362.7309426653234
 10
-48.47633816223686
 20
363.0266762701398
 10
-48.43311482292695
 20
363.3880312535155
 10
-48.38989148361705
 20
363.8148855561321
 10
-48.34666814430714
 20
364.3067795729615
 10
-48.30344480499725
 20
364.8631718650606
 10
-48.26022146568737
 20
365.4835209934859
 10
-48.21699812637747
 20
366.1672855192942
 10
-48.17377478706759
 20
366.9139240035422
 10
-48.13055144775769
 20
367.7228950072866
 10
-48.08732810844781
 20
368.593657091584
 10
-48.04410476913791
 20
369.5256688174911
 10
-48.00088142982803
 20
370.5183887460648
 10
-47.95765809051812
 20
371.5712674341748
 10
-47.91443475120823
 20
372.6835426465345
 10
-47.87121141189832
 20
373.8542220760186
 10
-47.82798807258842
 20
375.0823019487739
 10
-47.78476473327851
 20
376.3667784909472
 10
-47.74154139396862
 20
377.7066479286851
 10
-47.69831805465871
 20
379.1009064881342
 10
-47.65509471534881
 20
380.5485503954414
 10
-47.61187137603892
 20
382.0485758767534
 10
-47.56864803672902
 20
383.5999791582167
 10
-47.52542469741914
 20
385.2017564659781
 10
-47.48220135810926
 20
386.852853010072
 10
-47.43897801879938
 20
388.5519620399671
 10
-47.39575467948951
 20
390.2976991568863
 10
-47.35253134017964
 20
392.0886799402178
 10
-47.30930800086978
 20
393.9235199693496
 10
-47.2660846615599
 20
395.8008348236696
 10
-47.22286132225004
 20
397.7192400825658
 10
-47.17963798294016
 20
399.6773513254261
 10
-47.13641464363029
 20
401.6737841316385
 10
-47.09319130432042
 20
403.7071540805911
 10
-47.04996796501053
 20
405.7760741071464
 10
-47.00674462570063
 20
407.8790478369394
 10
-46.96352128639073
 20
410.0144330178769
 10
-46.92029794708083
 20
412.1805772481648
 10
-46.87707460777092
 20
414.3758281260094
 10
-46.83385126846098
 20
416.598533249617
 10
-46.79062792915106
 20
418.847040217194
 10
-46.74740458984115
 20
421.1196966269463
 10
-46.70418125053121
 20
423.4148500770805
 10
-46.66095791122127
 20
425.7308481658025
 10
-46.61773457191133
 20
428.0660384913189
 10
-46.5745112326014
 20
430.418755006025
 10
-46.53128789329146
 20
432.7872454504172
 10
-46.48806455398152
 20
435.1697239913793
 10
-46.44484121467158
 20
437.5644047200973
 10
-46.40161787536163
 20
439.9695017277579
 10
-46.3583945360517
 20
442.3832291055476
 10
-46.31517119674177
 20
444.8038009446526
 10
-46.27194785743183
 20
447.2294313362596
 10
-46.22872451812191
 20
449.6583343715548
 10
-46.185501178812
 20
452.0887241417248
 10
-46.14227783950209
 20
454.518814796388
 10
-46.0990545001922
 20
456.9468246790478
 10
-46.05583116088231
 20
459.3709790635777
 10
-46.01260782157242
 20
461.7895038732448
 10
-45.96938448226255
 20
464.200625031317
 10
-45.92616114295267
 20
466.6025684610613
 10
-45.8829378036428
 20
468.9935600857453
 10
-45.83971446433293
 20
471.3718258286366
 10
-45.79649112502305
 20
473.7355916130026
 10
-45.75326778571318
 20
476.0830833621108
 10
-45.7100444464033
 20
478.4125269992285
 10
-45.66682110709342
 20
480.7221603002073
 10
-45.62359776778353
 20
483.0103178240032
 10
-45.58037442847364
 20
485.2753813824272
 10
-45.53715108916374
 20
487.5157331070216
 10
-45.49392774985384
 20
489.7297551293286
 10
-45.45070441054394
 20
491.9158295808908
 10
-45.40748107123404
 20
494.0723385932507
 10
-45.36425773192413
 20
496.1976642979504
 10
-45.32103439261421
 20
498.2901888265325
 10
-45.2778110533043
 20
500.3482943105396
 10
-45.23458771399438
 20
502.3703634586342
 10
-45.19136437468447
 20
504.3548657625702
 10
-45.14814103537454
 20
506.3004492473744
 10
-45.10491769606462
 20
508.2057839166678
 10
-45.06169435675471
 20
510.0695397740712
 10
-45.01847101744479
 20
511.8903868232052
 10
-44.97524767813488
 20
513.6669950676907
 10
-44.93202433882497
 20
515.3980345111481
 10
-44.88880099951506
 20
517.0821751571983
 10
-44.84557766020517
 20
518.7180870094622
 10
-44.80235432089527
 20
520.3044400715604
 10
-44.75913098158539
 20
521.8399259373203
 10
-44.7159076422755
 20
523.3234679120651
 10
-44.67268430296561
 20
524.7541301214841
 10
-44.62946096365575
 20
526.1309786777538
 10
-44.58623762434586
 20
527.4530796930493
 10
-44.54301428503599
 20
528.7194992795471
 10
-44.4997909457261
 20
529.9293035494228
 10
-44.45656760641621
 20
531.0815586148524
 10
-44.41334426710633
 20
532.1753305880117
 10
-44.37012092779644
 20
533.2096855810767
 10
-44.32689758848652
 20
534.1836899655002
 10
-44.28367424917661
 20
535.0965283735529
 10
-44.24045090986669
 20
535.9476905006676
 10
-44.19722757055676
 20
536.73671456833
 10
-44.15400423124682
 20
537.4631387980249
 10
-44.11078089193688
 20
538.1265014112378
 10
-44.06755755262694
 20
538.7263406294535
 10
-44.024334213317
 20
539.2621946741574
 10
-43.98111087400707
 20
539.7336017668347
 10
-43.93788753469714
 20
540.1401001289705
 10
-43.89466419538722
 20
540.4812279820501
 10
-43.85144085607764
 20
540.7565427013025
210
0.0
220
0.0
230
-1.0
  0
LWPOLYLINE
  5
2F2
330
1F
100
AcDbEntity
  8
0
  6
CONTINUOUS
 62
     7
100
AcDbPolyline
 90
        3
 70
     0
 43
0.0
 10
59.10856278044906
 20
365.4197558970086
 10
59.17625224410866
 20
365.2376720740076
 10
59.2210561223894
 20
365.2033803839738
  0
LWPOLYLINE
  5
2F3
330
1F
100
AcDbEntity
  8
0
  6
CONTINUOUS
 62
     7
100
AcDbPolyline
 90
      105
 70
     0
 43
0.0
 10
-45.26719089581843
 20
362.6539252538474
 10
-45.3137308694115
 20
362.9541575984212
 10
-45.36027084300457
 20
363.3300329784827
 10
-45.40681081659764
 20
363.7812196146194
 10
-45.45335079019069
 20
364.307385727418
 10
-45.49989076378374
 20
364.908199537466
 10
-45.5464307373768
 20
365.5833292653502
 10
-45.59297071096984
 20
366.3324330259129
 10
-45.63951068456288
 20
367.1548895738228
 10
-45.68605065815592
 20
368.0497694413386
 10
-45.73259063174895
 20
369.0161272650289
 10
-45.77913060534198
 20
370.0530176814619
 10
-45.82567057893499
 20
371.1594953272061
 10
-45.872210552528
 20
372.3346148388299
 10
-45.918750526121
 20
373.5774308529017
 10
-45.965290499714
 20
374.8869980059901
 10
-46.01183047330698
 20
376.2623709346632
 10
-46.05837044689999
 20
377.7025769749217
 10
-46.10491042049294
 20
379.2063336173889
 10
-46.15145039408592
 20
380.7721619679645
 10
-46.1979903676789
 20
382.3985800138491
 10
-46.24453034127188
 20
384.0841057422436
 10
-46.29107031486489
 20
385.8272571403485
 10
-46.33761028845789
 20
387.6265521953644
 10
-46.38415026205092
 20
389.4805088944921
 10
-46.43069023564397
 20
391.3876452249322
 10
-46.47723020923703
 20
393.3464791738854
 10
-46.52377018283013
 20
395.3554807821902
 10
-46.57031015642326
 20
397.4128479784604
 10
-46.6168501300164
 20
399.5166828157085
 10
-46.66339010360956
 20
401.6650872394972
 10
-46.70993007720271
 20
403.8561631953892
 10
-46.7564700507959
 20
406.0880126289476
 10
-46.80301002438907
 20
408.3587374857348
 10
-46.84954999798223
 20
410.6664397113137
 10
-46.89608997157538
 20
413.009221251247
 10
-46.9426299451685
 20
415.3851840134145
 10
-46.98916991876162
 20
417.7923727774174
 10
-47.03570989235472
 20
420.2286601993455
 10
-47.08224986594779
 20
422.6918866487507
 10
-47.12878983954085
 20
425.1798924951852
 10
-47.17532981313389
 20
427.6905181082016
 10
-47.2218697867269
 20
430.2216038573513
 10
-47.26840976031992
 20
432.7709901121873
 10
-47.3149497339129
 20
435.3365172422613
 10
-47.36148970750588
 20
437.9160256171256
 10
-47.40802968109883
 20
440.507355195546
 10
-47.4545696546918
 20
443.1083156995721
 10
-47.50110962828474
 20
445.7166664519845
 10
-47.54764960187769
 20
448.3301619992777
 10
-47.59418957547064
 20
450.9465568879462
 10
-47.64072954906361
 20
453.5636056644846
 10
-47.68726952265659
 20
456.1790628753871
 10
-47.73380949624959
 20
458.7906830671482
 10
-47.78034946984263
 20
461.3962207862625
 10
-47.8268894434357
 20
463.9934305792243
 10
-47.87342941702882
 20
466.580069227345
 10
-47.91996939062197
 20
469.1539409851443
 10
-47.96650936421516
 20
471.7128954957481
 10
-48.01304933780836
 20
474.2547842199146
 10
-48.05958931140158
 20
476.7774586184024
 10
-48.1061292849948
 20
479.2787701519698
 10
-48.15266925858801
 20
481.7565702813757
 10
-48.1992092321812
 20
484.208710467378
 10
-48.24574920577437
 20
486.6330421707356
 10
-48.29228917936749
 20
489.0274168522067
 10
-48.33882915296058
 20
491.3897034619142
 10
-48.38536912655362
 20
493.7179347768367
 10
-48.4319091001466
 20
496.0102331127521
 10
-48.47844907373958
 20
498.2647216950218
 10
-48.52498904733253
 20
500.4795237490075
 10
-48.57152902092546
 20
502.6527625000704
 10
-48.61806899451838
 20
504.7825611735724
 10
-48.66460896811132
 20
506.867042994875
 10
-48.71114894170425
 20
508.9043311893392
 10
-48.75768891529719
 20
510.8925489823271
 10
-48.80422888889017
 20
512.8298782065617
 10
-48.85076886248317
 20
514.7147821705576
 10
-48.89730883607618
 20
516.5458085822064
 10
-48.94384880966922
 20
518.3215051653284
 10
-48.99038878326228
 20
520.0404196437432
 10
-49.03692875685535
 20
521.701099741271
 10
-49.08346873044842
 20
523.3020931817316
 10
-49.13000870404152
 20
524.8419476889451
 10
-49.17654867763462
 20
526.3192109867309
 10
-49.22308865122775
 20
527.7324311050463
 10
-49.26962862482088
 20
529.0802924603723
 10
-49.316168598414
 20
530.3618299446151
 10
-49.36270857200712
 20
531.5761339677862
 10
-49.40924854560026
 20
532.7222949398969
 10
-49.45578851919338
 20
533.7994032709589
 10
-49.50232849278649
 20
534.8065493709835
 10
-49.54886846637958
 20
535.742823649982
 10
-49.59540843997267
 20
536.6073165179663
 10
-49.64194841356573
 20
537.3991183849477
 10
-49.68848838715876
 20
538.1173245013861
 10
-49.73502836075176
 20
538.7612699464537
 10
-49.78156833434475
 20
539.3306350365383
 10
-49.82810830793772
 20
539.8251268912142
 10
-49.87464828153067
 20
540.2444526300552
 10
-49.92118825512364
 20
540.5883193726359
 10
-49.9677282287166
 20
540.8564342385301
 10
-50.01426820230957
 20
541.0485043473125
 10
-50.06080817590254
 20
541.1642368185569
 10
-50.10734814949533
 20
541.2033387718378
  0
LWPOLYLINE
  5
2F4
330
1F
100
AcDbEntity
  8
0
  6
CONTINUOUS
 62
     7
100
AcDbPolyline
 90
        3
 70
     0
 43
0.0
 10
-30.54041376191749
 20
538.0455896960891
 10
-30.60735722543753
 20
538.1887217518104
 10
-30.63662379155391
 20
538.2033803838754
  0
LWPOLYLINE
  5
2F5
330
1F
100
AcDbEntity
  8
0
  6
CONTINUOUS
 62
     7
100
AcDbPolyline
 90
        3
 70
     0
 43
0.0
 10
-30.88181339940416
 20
365.3843795212418
 10
-30.81581564980101
 20
365.2268753019471
 10
-30.77867818441313
 20
365.2033803839022
  0
LWPOLYLINE
  5
2F6
330
1F
100
AcDbEntity
  8
0
  6
CONTINUOUS
 62
     7
100
AcDbPolyline
 90
      113
 70
     0
 43
0.0
 10
64.73325682139223
 20
362.6504588176365
 10
64.69003488286693
 20
362.925556315307
 10
64.64681294434162
 20
363.2664777996846
 10
64.6035910058163
 20
363.6728936826848
 10
64.56036906729096
 20
364.144313259371
 10
64.51714712876563
 20
364.6802444581876
 10
64.47392519024028
 20
365.2801952075791
 10
64.43070325171493
 20
365.9436734359899
 10
64.3874813131896
 20
366.6701870718647
 10
64.34425937466423
 20
367.4592440436476
 10
64.30103743613888
 20
368.3103522797836
 10
64.25781549761354
 20
369.2230197087168
 10
64.2145935590882
 20
370.1967535677331
 10
64.17137162056285
 20
371.2309266104965
 10
64.1281496820375
 20
372.3246172485304
 10
64.08492774351217
 20
373.4768649369028
 10
64.04170580498685
 20
374.6867091306818
 10
63.99848386646152
 20
375.9531892849353
 10
63.95526192793623
 20
377.2753448547317
 10
63.91203998941089
 20
378.6522152951385
 10
63.86881805088561
 20
380.0828400612244
 10
63.82559611236033
 20
381.566258608057
 10
63.78237417383503
 20
383.1015103907046
 10
63.73915223530977
 20
384.6876156164326
 10
63.69593029678451
 20
386.3233704890519
 10
63.65270835825924
 20
388.0074265762875
 10
63.60948641973399
 20
389.738433029968
 10
63.56626448120872
 20
391.5150390019219
 10
63.52304254268347
 20
393.3358936439784
 10
63.47982060415818
 20
395.1996461079659
 10
63.43659866563292
 20
397.104945545713
 10
63.39337672710762
 20
399.0504411090487
 10
63.35015478858233
 20
401.0347819498015
 10
63.30693285005701
 20
403.0566171266343
 10
63.26371091153165
 20
405.1145293848764
 10
63.22048897300629
 20
407.2069187184997
 10
63.17726703448091
 20
409.3321539095105
 10
63.13404509595555
 20
411.4886037399153
 10
63.09082315743014
 20
413.6746369917207
 10
63.04760121890476
 20
415.8886224469331
 10
63.00437928037937
 20
418.1289288875591
 10
62.96115734185398
 20
420.393925095605
 10
62.9179354033286
 20
422.6819798530776
 10
62.87471346480324
 20
424.9914619419832
 10
62.83149152627789
 20
427.320735209596
 10
62.78826958775256
 20
429.6680852080278
 10
62.74504764922721
 20
432.0317348535622
 10
62.70182571070192
 20
434.4099053085861
 10
62.65860377217659
 20
436.8008177354861
 10
62.61538183365131
 20
439.202693296649
 10
62.57215989512601
 20
441.6137531544614
 10
62.52893795660075
 20
444.0322184713102
 10
62.48571601807546
 20
446.4563104095817
 10
62.44249407955019
 20
448.8842501316629
 10
62.39927214102488
 20
451.3142587998974
 10
62.3560502024996
 20
453.7445570338276
 10
62.31282826397432
 20
456.173363554627
 10
62.26960632544904
 20
458.598896668702
 10
62.22638438692375
 20
461.0193746824586
 10
62.18316244839844
 20
463.433015902303
 10
62.13994050987315
 20
465.8380386346414
 10
62.09671857134785
 20
468.2326611858801
 10
62.05349663282254
 20
470.6151018624252
 10
62.01027469429724
 20
472.9835789706829
 10
61.96705275577193
 20
475.3363108170593
 10
61.92383081724662
 20
477.6715187473507
 10
61.88060887872132
 20
479.9874926027655
 10
61.837386940196
 20
482.2825899453275
 10
61.79416500167068
 20
484.5551712215241
 10
61.75094306314536
 20
486.8035968778428
 10
61.70772112462005
 20
489.0262273607712
 10
61.66449918609473
 20
491.2214231167969
 10
61.62127724756942
 20
493.3875445924077
 10
61.5780553090441
 20
495.5229522340909
 10
61.53483337051878
 20
497.6260064883342
 10
61.49161143199345
 20
499.6950678016252
 10
61.44838949346814
 20
501.7285377467185
 10
61.40516755494281
 20
503.7250012553618
 10
61.3619456164175
 20
505.6830943405109
 10
61.31872367789217
 20
507.6014530172909
 10
61.27550173936685
 20
509.4787133008259
 10
61.23227980084154
 20
511.3135112062408
 10
61.1890578623162
 20
513.1044827486596
 10
61.14583592379087
 20
514.850263943207
 10
61.10261398526555
 20
516.5494908050078
 10
61.05939204674021
 20
518.2007993491862
 10
61.01617010821489
 20
519.8028304796807
 10
60.97294816968955
 20
521.3543913346914
 10
60.92972623116422
 20
522.8544921468194
 10
60.88650429263888
 20
524.3021555023219
 10
60.84328235411354
 20
525.6964039874559
 10
60.80006041558821
 20
527.0362601884788
 10
60.75683847706287
 20
528.3207466916473
 10
60.71361653853755
 20
529.5488860832188
 10
60.67039460001222
 20
530.7197009494506
 10
60.62717266148691
 20
531.8322138765996
 10
60.58395072296159
 20
532.8854474509229
 10
60.54072878443628
 20
533.8784777168029
 10
60.49750684591097
 20
534.8106854398438
 10
60.45428490738566
 20
535.6815591954979
 10
60.41106296886036
 20
536.4905876840935
 10
60.36784103033508
 20
537.2372596059585
 10
60.32461909180979
 20
537.921063661421
 10
60.2813971532845
 20
538.5414885508088
 10
60.2381752147592
 20
539.0980229744501
 10
60.1949532762339
 20
539.5901556326731
 10
60.1517313377086
 20
540.0173752258057
 10
60.1085093991833
 20
540.3791738497761
 10
60.065287460658
 20
540.6752347008738
 10
60.02206552213269
 20
540.9055301352611
 10
59.97884358360738
 20
541.0700565774313
 10
59.93562164508207
 20
541.1688104518778
 10
59.89239970655672
 20
541.2017881830942
  0
LWPOLYLINE
  5
2F7
330
1F
100
AcDbEntity
  8
0
  6
CONTINUOUS
 62
     7
100
AcDbPolyline
 90
       33
 70
     0
 43
0.0
 10
55.10760301603381
 20
362.2034786007704
 10
55.11258663396403
 20
362.2038811327704
 10
55.11757025189423
 20
362.2051652777471
 10
55.12255386982446
 20
362.2073313757506
 10
55.12753748775466
 20
362.2103797668304
 10
55.13252110568486
 20
362.2143107910366
 10
55.13750472361509
 20
362.2191247884189
 10
55.1424883415453
 20
362.2248220392494
 10
55.14747195947552
 20
362.2314023364133
 10
55.15245557740572
 20
362.2388652351384
 10
55.15743919533595
 20
362.2472102890526
 10
55.16242281326616
 20
362.2564370517837
 10
55.16740643119637
 20
362.2665450769595
 10
55.17239004912658
 20
362.2775339182078
 10
55.1773736670568
 20
362.2894031291564
 10
55.18235728498701
 20
362.3021522634331
 10
55.18734090291723
 20
362.3157808746659
 10
55.19232452084744
 20
362.3302885164824
 10
55.19730813877766
 20
362.3456747425105
 10
55.20229175670787
 20
362.3619391063779
 10
55.20727537463809
 20
362.3790811617125
 10
55.21225899256829
 20
362.3971004621421
 10
55.21724261049852
 20
362.4159965612946
 10
55.22222622842871
 20
362.4357690127976
 10
55.22720984635895
 20
362.4564173702793
 10
55.23219346428916
 20
362.4779411873669
 10
55.23717708221938
 20
362.5003400176888
 10
55.24216070014958
 20
362.5236134148725
 10
55.2471443180798
 20
362.5477609325459
 10
55.25212793601003
 20
362.5727821243369
 10
55.25711155394022
 20
362.598676543873
 10
55.26209517187045
 20
362.6254437447824
 10
55.26707878980028
 20
362.6530832806905
210
0.0
220
0.0
230
-1.0
  0
LWPOLYLINE
  5
2F8
330
1F
100
AcDbEntity
  8
0
  6
CONTINUOUS
 62
     7
100
AcDbPolyline
 90
        3
 70
     0
 43
0.0
 10
49.1338941113441
 20
365.3331589551443
 10
49.20031497160945
 20
365.2107242730406
 10
49.22106023363179
 20
365.203380383976
  0
LWPOLYLINE
  5
2F9
330
1F
100
AcDbEntity
  8
0
  6
CONTINUOUS
 62
     7
100
AcDbPolyline
 90
       38
 70
     0
 43
0.0
 10
255.9178014163179
 20
352.8145539169928
 10
255.897488861439
 20
352.8141264085316
 10
255.8771942245853
 20
352.8128472926352
 10
255.8569706683616
 20
352.8107216835349
 10
255.8368713553729
 20
352.8077546954616
 10
255.8163300138163
 20
352.8038225271308
 10
255.7959576754618
 20
352.7990076310645
 10
255.7758096618267
 20
352.7933261842824
 10
255.7559412944279
 20
352.7867943638042
 10
255.7369279673906
 20
352.7796407125721
 10
255.718210591673
 20
352.7717005935696
 10
255.6998354062502
 20
352.7629973968813
 10
255.6818486500976
 20
352.7535545125924
 10
255.6637744013484
 20
352.7430817515087
 10
255.6461402021312
 20
352.7318496644149
 10
255.6289899387144
 20
352.7198912665962
 10
255.6123674973668
 20
352.7072395733379
 10
255.5965018263416
 20
352.6940918560178
 10
255.5811731357771
 20
352.6802962516442
 10
255.5664165561065
 20
352.6658899866959
 10
255.5522672177635
 20
352.6509102876516
 10
255.5383738963137
 20
352.6349359539421
 10
255.5251408909259
 20
352.6183874105584
 10
255.5125984000599
 20
352.6013092719577
 10
255.5007766221754
 20
352.5837461525975
 10
255.4896665166962
 20
352.5656817015438
 10
255.479293876767
 20
352.5471637489165
 10
255.4696811444923
 20
352.5282399544357
 10
255.4608507619765
 20
352.508957977821
 10
255.4525998542054
 20
352.4887888178627
 10
255.4451852893406
 20
352.4682775562738
 10
255.4386230765884
 20
352.4474777576179
 10
255.4329292251552
 20
352.4264429864584
 10
255.4276739600519
 20
352.4030351169492
 10
255.4234786391494
 20
352.3793768504406
 10
255.4203518470096
 20
352.3555412027159
 10
255.4183021681935
 20
352.3316011895589
 10
255.4173381872629
 20
352.3076298267529
210
0.0
220
0.0
230
-1.0
  0
LWPOLYLINE
  5
2FA
330
1F
100
AcDbEntity
  8
0
  6
CONTINUOUS
 62
     7
100
AcDbPolyline
 90
        3
 70
     0
 43
0.0
 10
79.1308009513609
 20
365.3428762725491
 10
79.19714784858117
 20
365.2131704528907
 10
79.2210670592922
 20
365.2033803839617
  0
LWPOLYLINE
  5
2FB
330
1F
100
AcDbEntity
  8
0
  6
CONTINUOUS
 62
     7
100
AcDbPolyline
 90
      105
 70
     0
 43
0.0
 10
31.30760984406458
 20
362.2034089457632
 10
31.35415064424014
 20
362.2419264755312
 10
31.40069144441571
 20
362.3571045521477
 10
31.44723224459128
 20
362.5486431996751
 10
31.49377304476686
 20
362.8162424421758
 10
31.54031384494244
 20
363.1596023037121
 10
31.58685464511802
 20
363.5784228083465
 10
31.63339544529362
 20
364.0724039801414
 10
31.67993624546921
 20
364.641245843159
 10
31.7264770456448
 20
365.2846484214618
 10
31.77301784582039
 20
366.0022970439776
 10
31.81955864599598
 20
366.793572994255
 10
31.86609944617159
 20
367.6575712512507
 10
31.91264024634718
 20
368.5933756509651
 10
31.95918104652278
 20
369.600070029399
 10
32.00572184669839
 20
370.676738222553
 10
32.052262646874
 20
371.8224640664279
 10
32.0988034470496
 20
373.0363313970239
 10
32.14534424722522
 20
374.317424050342
 10
32.19188504740085
 20
375.6648258623828
 10
32.23842584757647
 20
377.0775849432423
 10
32.28496664775211
 20
378.5544214984001
 10
32.33150744792775
 20
380.0938794294671
 10
32.37804824810338
 20
381.6945009427534
 10
32.42458904827902
 20
383.3548282445686
 10
32.47112984845466
 20
385.0734035412228
 10
32.51767064863028
 20
386.8487690390258
 10
32.56421144880591
 20
388.6794669442875
 10
32.61075224898153
 20
390.5640394633177
 10
32.65729304915713
 20
392.5010288024266
 10
32.70383384933273
 20
394.4889176082264
 10
32.7503746495083
 20
396.5259077610724
 10
32.79691544968389
 20
398.6101184858477
 10
32.84345624985944
 20
400.7396689959252
 10
32.889997050035
 20
402.9126785046777
 10
32.93653785021054
 20
405.127266225478
 10
32.98307865038608
 20
407.3815513716993
 10
33.0296194505616
 20
409.6736531567141
 10
33.07616025073711
 20
412.0016907938956
 10
33.12270105091263
 20
414.3637833241872
 10
33.16924185108812
 20
416.7579808899631
 10
33.21578265126362
 20
419.1821597721492
 10
33.26232345143912
 20
421.6341692515367
 10
33.30886425161462
 20
424.1118586089165
 10
33.35540505179013
 20
426.6130771250797
 10
33.40194585196564
 20
429.1356740808175
 10
33.44848665214118
 20
431.6774987569208
 10
33.49502745231673
 20
434.2364004341808
 10
33.5415682524923
 20
436.8102283933883
 10
33.5881090526679
 20
439.3968311293228
 10
33.63464985284352
 20
441.9940198177379
 10
33.68119065301916
 20
444.5995528341888
 10
33.72773145319481
 20
447.2111845546315
 10
33.77427225337049
 20
449.8266693550225
 10
33.82081305354617
 20
452.4437616113179
 10
33.86735385372185
 20
455.0602156994742
 10
33.91389465389753
 20
457.6737859954471
 10
33.96043545407321
 20
460.2822268751935
 10
34.00697625424888
 20
462.8832927146692
 10
34.05351705442453
 20
465.4747407287491
 10
34.10005785460018
 20
468.0543743938147
 10
34.14659865477581
 20
470.6200348381187
 10
34.19313945495143
 20
473.1695642839826
 10
34.23968025512703
 20
475.7008049537283
 10
34.28622105530262
 20
478.2115990696775
 10
34.3327618554782
 20
480.6997888541521
 10
34.37930265565377
 20
483.1632165294739
 10
34.42584345582933
 20
485.5997243179645
 10
34.47238425600487
 20
488.0071544419457
 10
34.51892505618041
 20
490.3833707679225
 10
34.56546585635594
 20
492.7264023917936
 10
34.61200665653147
 20
495.0343545774875
 10
34.65854745670699
 20
497.3053329958643
 10
34.70508825688251
 20
499.5374433177837
 10
34.75162905705805
 20
501.7287912141056
 10
34.79816985723357
 20
503.8774823556897
 10
34.84471065740912
 20
505.9816224133958
 10
34.89125145758467
 20
508.0393170580838
 10
34.93779225776024
 20
510.0486719606135
 10
34.98433305793582
 20
512.0078626235511
 10
35.03087385811141
 20
513.9153429562887
 10
35.07741465828701
 20
515.7696362406829
 10
35.12395545846262
 20
517.5692657585909
 10
35.17049625863825
 20
519.3127547918687
 10
35.21703705881386
 20
520.9986266223738
 10
35.26357785898949
 20
522.6254045319622
 10
35.31011865916509
 20
524.1916118024909
 10
35.35665945934069
 20
525.6957717158166
 10
35.40320025951629
 20
527.1364084108475
 10
35.44974105969187
 20
528.5122022733277
 10
35.49628185986745
 20
529.8221705578529
 10
35.54282266004302
 20
531.0653743341217
 10
35.58936346021859
 20
532.2408746718329
 10
35.63590426039415
 20
533.3477326406855
 10
35.68244506056971
 20
534.3850093103782
 10
35.72898586074529
 20
535.3517657506102
 10
35.77552666092087
 20
536.2470630310802
 10
35.82206746109646
 20
537.0699622214868
 10
35.86860826127206
 20
537.819532161431
 10
35.91514906144769
 20
538.4951058271436
 10
35.96168986162331
 20
539.0963388637145
 10
36.00823066179895
 20
539.622906539801
 10
36.0547714619746
 20
540.0744841240601
 10
36.10131226215025
 20
540.4507468851486
 10
36.1478530623254
 20
540.7513700917214
210
0.0
220
0.0
230
-1.0
  0
LWPOLYLINE
  5
2FC
330
1F
100
AcDbEntity
  8
0
  6
CONTINUOUS
 62
     7
100
AcDbPolyline
 90
      105
 70
     0
 43
0.0
 10
-18.69251954383344
 20
362.2044296288315
 10
-18.64598052774933
 20
362.2427969997975
 10
-18.59944151166522
 20
362.3574388266584
 10
-18.5529024955811
 20
362.5482150461359
 10
-18.50636347949697
 20
362.8149855949508
 10
-18.45982446341284
 20
363.1576104098245
 10
-18.4132854473287
 20
363.5759494274782
 10
-18.36674643124455
 20
364.0698625846332
 10
-18.32020741516039
 20
364.6391152551079
 10
-18.27366839907623
 20
365.2830554293881
 10
-18.22712938299206
 20
366.0009159778572
 10
-18.1805903669079
 20
366.7919297672117
 10
-18.13405135082373
 20
367.6553296641487
 10
-18.08751233473956
 20
368.5903485353652
 10
-18.04097331865539
 20
369.5962192475577
 10
-17.99443430257122
 20
370.6721746674234
 10
-17.94789528648706
 20
371.8174476616591
 10
-17.90135627040291
 20
373.031270566393
 10
-17.85481725431877
 20
374.3127240120864
 10
-17.80827823823464
 20
375.6605284971174
 10
-17.76173922215052
 20
377.0733522482574
 10
-17.7152002060664
 20
378.5498634922787
 10
-17.66866118998229
 20
380.0887304559528
 10
-17.62212217389818
 20
381.6886213660515
 10
-17.57558315781408
 20
383.3482044493467
 10
-17.52904414172999
 20
385.0661479326101
 10
-17.48250512564589
 20
386.8411200426135
 10
-17.43596610956181
 20
388.6717845383267
 10
-17.38942709347772
 20
390.5566193745113
 10
-17.34288807739363
 20
392.4938538851905
 10
-17.29634906130953
 20
394.4817000382894
 10
-17.24981004522544
 20
396.5183698017335
 10
-17.20327102914133
 20
398.602075143448
 10
-17.15673201305722
 20
400.7310280313582
 10
-17.11019299697309
 20
402.9034404333896
 10
-17.06365398088895
 20
405.1175243174675
 10
-17.01711496480478
 20
407.3714916515169
 10
-16.9705759487206
 20
409.6635432427022
 10
-16.9240369326364
 20
411.9917125905425
 10
-16.87749791655219
 20
414.3539042422806
 10
-16.83095890046797
 20
416.7480194188892
 10
-16.78441988438374
 20
419.1719593413412
 10
-16.73788086829952
 20
421.6236252306095
 10
-16.69134185221531
 20
424.1009183076671
 10
-16.64480283613111
 20
426.6017397934867
 10
-16.59826382004692
 20
429.1239909090412
 10
-16.55172480396276
 20
431.6655728753036
 10
-16.50518578787863
 20
434.2243745035702
 10
-16.45864677179452
 20
436.7981958657673
 10
-16.41210775571044
 20
439.3847983959216
 10
-16.36556873962637
 20
441.9819433688547
 10
-16.31902972354231
 20
444.5873920593885
 10
-16.27249070745827
 20
447.1989057423452
 10
-16.22595169137423
 20
449.8142456925465
 10
-16.17941267529019
 20
452.4311731848142
 10
-16.13287365920615
 20
455.0474494939704
 10
-16.0863346431221
 20
457.6608358949029
 10
-16.03979562703804
 20
460.2691011576245
 10
-15.99325661095397
 20
462.8700421959757
 10
-15.94671759486988
 20
465.4614625283911
 10
-15.90017857878579
 20
468.0411656733048
 10
-15.85363956270168
 20
470.6069551491518
 10
-15.80710054661755
 20
473.1566344743659
 10
-15.76056153053341
 20
475.688007167382
 10
-15.71402251444926
 20
478.1988767466345
 10
-15.66748349836509
 20
480.6870467305578
 10
-15.6209444822809
 20
483.1503210966872
 10
-15.57440546619669
 20
485.5865708380683
 10
-15.52786645011247
 20
487.9938037749324
 10
-15.48132743402825
 20
490.3700444212614
 10
-15.43478841794402
 20
492.7133172910368
 10
-15.3882494018598
 20
495.0216468982406
 10
-15.34171038577557
 20
497.2930577568545
 10
-15.29517136969136
 20
499.5255743808604
 10
-15.24863235360716
 20
501.7172212842399
 10
-15.20209333752299
 20
503.8660229809751
 10
-15.15555432143883
 20
505.9700095030348
 10
-15.1090153053547
 20
508.0273798450051
 10
-15.06247628927059
 20
510.0365292665833
 10
-15.01593727318649
 20
511.9958640443874
 10
-14.96939825710242
 20
513.9037904550362
 10
-14.92285924101835
 20
515.7587147751478
 10
-14.87632022493429
 20
517.5590432813409
 10
-14.82978120885024
 20
519.3031822502339
 10
-14.78324219276619
 20
520.9895379584448
 10
-14.73670317668214
 20
522.6165166825922
 10
-14.6901641605981
 20
524.1825484798147
 10
-14.64362514451404
 20
525.6863535898538
 10
-14.59708612842998
 20
527.1268462018214
 10
-14.55054711234591
 20
528.5029440538251
 10
-14.50400809626183
 20
529.8135648839723
 10
-14.45746908017774
 20
531.0576264303699
 10
-14.41093006409365
 20
532.2340464311251
 10
-14.36439104800953
 20
533.341742624345
 10
-14.31785203192541
 20
534.3796327481373
 10
-14.27131301584127
 20
535.3466345406086
 10
-14.22477399975712
 20
536.2417302291917
 10
-14.17823498367295
 20
537.0642914250741
 10
-14.13169596758877
 20
537.8138351531237
 10
-14.08515695150458
 20
538.4898786885254
 10
-14.0386179354204
 20
539.0919393064644
 10
-13.9920789193362
 20
539.6195342821252
 10
-13.94553990325201
 20
540.072180890693
 10
-13.89900088716782
 20
540.4493964073522
 10
-13.8524618710831
 20
540.7506981072911
210
0.0
220
0.0
230
-1.0
  0
LWPOLYLINE
  5
2FD
330
1F
100
AcDbEntity
  8
0
  6
CONTINUOUS
 62
     7
100
AcDbPolyline
 90
      113
 70
     0
 43
0.0
 10
51.30760301048834
 20
362.2034873298563
 10
51.35081829600663
 20
362.2363248317162
 10
51.39403358152491
 20
362.3354747558163
 10
51.43724886704317
 20
362.5006777445075
 10
51.48046415256147
 20
362.7316427428152
 10
51.52367943807975
 20
363.0280786957651
 10
51.56689472359803
 20
363.3896945483826
 10
51.61011000911634
 20
363.8161992456933
 10
51.65332529463463
 20
364.3073017327228
 10
51.69654058015293
 20
364.8627109544964
 10
51.73975586567123
 20
365.4821358560399
 10
51.78297115118954
 20
366.1652853823786
 10
51.82618643670786
 20
366.9118355266969
 10
51.86940172222616
 20
367.7211651057146
 10
51.91261700774447
 20
368.5924954105454
 10
51.95583229326279
 20
369.5250462896147
 10
51.99904757878112
 20
370.5180375913478
 10
52.04226286429945
 20
371.5706891641703
 10
52.08547814981776
 20
372.6822208565075
 10
52.12869343533612
 20
373.8518525167848
 10
52.17190872085445
 20
375.0788039934276
 10
52.21512400637278
 20
376.3622951348615
 10
52.25833929189112
 20
377.7015452449118
 10
52.30155457740948
 20
379.0956540639326
 10
52.34476986292784
 20
380.5434525240702
 10
52.3879851484462
 20
382.0437348666895
 10
52.43120043396455
 20
383.5952953331555
 10
52.47441571948291
 20
385.196928164833
 10
52.51763100500127
 20
386.8474276030871
 10
52.56084629051961
 20
388.5455878892826
 10
52.60406157603795
 20
390.2902032647846
 10
52.64727686155626
 20
392.0800679709578
 10
52.69049214707458
 20
393.9139762491674
 10
52.73370743259289
 20
395.7907069924159
 10
52.77692271811119
 20
397.7088530020679
 10
52.82013800362948
 20
399.6668832766012
 10
52.86335328914775
 20
401.6632645762014
 10
52.90656857466603
 20
403.6964636610541
 10
52.9497838601843
 20
405.7649472913448
 10
52.99299914570256
 20
407.867182227259
 10
53.03621443122084
 20
410.0016352289823
 10
53.07942971673913
 20
412.1667730567002
 10
53.12264500225741
 20
414.3610624705983
 10
53.1658602877757
 20
416.5829701820774
 10
53.20907557329399
 20
418.8309165142081
 10
53.25229085881231
 20
421.1031890970148
 10
53.29550614433063
 20
423.3980519861406
 10
53.33872142984895
 20
425.713769237229
 10
53.38193671536727
 20
428.048604905923
 10
53.42515200088559
 20
430.4008230478662
 10
53.46836728640392
 20
432.7686877187017
 10
53.51158257192223
 20
435.1504629740729
 10
53.55479785744055
 20
437.544412869623
 10
53.59801314295885
 20
439.9488014609954
 10
53.64122842847713
 20
442.3618908986613
 10
53.68444371399542
 20
444.7819112628669
 10
53.72765899951371
 20
447.2070659865612
 10
53.77087428503197
 20
449.6355576937871
 10
53.81408957055022
 20
452.0655890085875
 10
53.8573048560685
 20
454.4953625550052
 10
53.90052014158675
 20
456.9230809570832
 10
53.94373542710503
 20
459.3469468388644
 10
53.98695071262329
 20
461.7651628243914
 10
54.03016599814157
 20
464.1759315377074
 10
54.07338128365986
 20
466.5774556031923
 10
54.11659656917814
 20
468.9679530404461
 10
54.15981185469646
 20
471.3456983602671
 10
54.20302714021476
 20
473.7089790274068
 10
54.24624242573309
 20
476.0560825066161
 10
54.28945771125142
 20
478.3852962626466
 10
54.33267299676976
 20
480.6949077602495
 10
54.3758882822881
 20
482.9832044641759
 10
54.41910356780647
 20
485.2484738391773
 10
54.46231885332483
 20
487.4890033500049
 10
54.5055341388432
 20
489.7030804614099
 10
54.54874942436159
 20
491.8889969451591
 10
54.59196470987995
 20
494.0451501271739
 10
54.63517999539833
 20
496.1700466258378
 10
54.67839528091671
 20
498.2621981144951
 10
54.7216105664351
 20
500.3201162664898
 10
54.76482585195345
 20
502.3423127551663
 10
54.80804113747181
 20
504.3272992538687
 10
54.85125642299016
 20
506.273587435941
 10
54.89447170850848
 20
508.1796889747275
 10
54.93768699402678
 20
510.0441155435723
 10
54.98090227954506
 20
511.8653788158197
 10
55.02411756506332
 20
513.6420389645141
 10
55.06733285058154
 20
515.3728853499441
 10
55.11054813609977
 20
517.0567749657849
 10
55.15376342161797
 20
518.6925648155316
 10
55.19697870713617
 20
520.2791119026789
 10
55.24019399265437
 20
521.8152732307223
 10
55.28340927817258
 20
523.2999058031567
 10
55.32662456369081
 20
524.7318666234768
 10
55.36983984920904
 20
526.1100126951782
 10
55.41305513472732
 20
527.4332010217555
 10
55.4562704202456
 20
528.7002933675486
 10
55.49948570576392
 20
529.9103339631944
 10
55.54270099128227
 20
531.0626025696548
 10
55.58591627680065
 20
532.1563945388101
 10
55.62913156231903
 20
533.1910052225405
 10
55.67234684783744
 20
534.165729972726
 10
55.71556213335585
 20
535.079864141247
 10
55.75877741887427
 20
535.9327030799834
 10
55.80199270439269
 20
536.7235421408153
 10
55.8452079899111
 20
537.451676675623
 10
55.88842327542953
 20
538.1164020362869
 10
55.93163856094793
 20
538.7170661759362
 10
55.97485384646631
 20
539.2533385104088
 10
56.01806913198468
 20
539.7250098596678
 10
56.06128441750303
 20
540.1318712689692
 10
56.10449970302137
 20
540.4737137835687
 10
56.14771498853916
 20
540.7503284487193
210
0.0
220
0.0
230
-1.0
  0
LWPOLYLINE
  5
2FE
330
1F
100
AcDbEntity
  8
0
  6
CONTINUOUS
 62
     7
100
AcDbPolyline
 90
       73
 70
     0
 43
0.0
 10
65.26738326005996
 20
362.654564496436
 10
65.30745151293165
 20
362.9089159423481
 10
65.34751976580337
 20
363.2194302611201
 10
65.38758801867506
 20
363.5858552508181
 10
65.42765627154675
 20
364.0079387095079
 10
65.46772452441843
 20
364.4854284352556
 10
65.50779277729012
 20
365.0180722261271
 10
65.54786103016183
 20
365.6056178801882
 10
65.58792928303352
 20
366.2478131955049
 10
65.62799753590525
 20
366.9444046373387
 10
65.66806578877697
 20
367.6950102193068
 10
65.70813404164872
 20
368.4990144332229
 10
65.74820229452045
 20
369.3557770404573
 10
65.78827054739223
 20
370.264657802381
 10
65.82833880026398
 20
371.2250164803642
 10
65.86840705313574
 20
372.2362128357781
 10
65.90847530600753
 20
373.2976066299929
 10
65.94854355887928
 20
374.4085576243795
 10
65.98861181175106
 20
375.5684255803085
 10
66.02868006462282
 20
376.7765702591506
 10
66.06874831749457
 20
378.0323514222763
 10
66.1088165703663
 20
379.3350874621529
 10
66.14888482323806
 20
380.6838757602211
 10
66.18895307610977
 20
382.0777401938997
 10
66.22902132898152
 20
383.5157045911441
 10
66.26908958185324
 20
384.9967927799095
 10
66.30915783472496
 20
386.520028588151
 10
66.3492260875967
 20
388.0844358438239
 10
66.38929434046841
 20
389.6890383748835
 10
66.42936259334014
 20
391.332860009285
 10
66.46943084621188
 20
393.0149245749836
 10
66.50949909908363
 20
394.7342558999346
 10
66.54956735195536
 20
396.4898713053387
 10
66.58963560482711
 20
398.2806598504712
 10
66.62970385769887
 20
400.1053931997574
 10
66.66977211057062
 20
401.962838689625
 10
66.70984036344238
 20
403.8517636565012
 10
66.74990861631413
 20
405.7709354368134
 10
66.78997686918588
 20
407.7191213669891
 10
66.83004512205764
 20
409.6950887834559
 10
66.87011337492937
 20
411.6976050226409
 10
66.9101816278011
 20
413.7254374209716
 10
66.95024988067283
 20
415.7773533148755
 10
66.99031813354456
 20
417.8521199263749
 10
67.03038638641625
 20
419.9484639048588
 10
67.07045463928796
 20
422.0650116296443
 10
67.11052289215964
 20
424.2003742610637
 10
67.15059114503133
 20
426.3531629594491
 10
67.19065939790302
 20
428.5219888851329
 10
67.23072765077472
 20
430.7054631984473
 10
67.27079590364642
 20
432.9021970597244
 10
67.31086415651814
 20
435.1108016292966
 10
67.35093240938986
 20
437.3298880674963
 10
67.39100066226158
 20
439.5580675346554
 10
67.43106891513334
 20
441.7939511911064
 10
67.47113716800511
 20
444.0361466014897
 10
67.51120542087692
 20
446.2832342104705
 10
67.55127367374874
 20
448.5337820906491
 10
67.59134192662056
 20
450.7863582514666
 10
67.63141017949238
 20
453.0395307023646
 10
67.67147843236421
 20
455.2918674527845
 10
67.71154668523604
 20
457.5419365121676
 10
67.75161493810788
 20
459.7883058899555
 10
67.79168319097974
 20
462.0295435955895
 10
67.83175144385154
 20
464.2642176385109
 10
67.87181969672335
 20
466.4908960281612
 10
67.91188794959514
 20
468.7081477034174
 10
67.95195620246692
 20
470.9145731706411
 10
67.99202445533867
 20
473.1088114825611
 10
68.0320927082104
 20
475.2895040345963
 10
68.07216096108213
 20
477.4552922221654
 10
68.11222921395385
 20
479.6048174406873
 10
68.1522974668265
 20
481.7367210856312
210
0.0
220
0.0
230
-1.0
  0
LWPOLYLINE
  5
2FF
330
1F
100
AcDbEntity
  8
0
  6
CONTINUOUS
 62
     7
100
AcDbPolyline
 90
        3
 70
     0
 43
0.0
 10
-40.85827627647281
 20
365.3113379087554
 10
-40.78979548333567
 20
365.2054920203428
 10
-40.77867656268172
 20
365.203380383912
  0
LWPOLYLINE
  5
300
330
1F
100
AcDbEntity
  8
0
  6
CONTINUOUS
 62
     7
100
AcDbPolyline
 90
      113
 70
     0
 43
0.0
 10
-68.69233082139529
 20
362.2049687888487
 10
-68.6491173350191
 20
362.2378063078359
 10
-68.60590384864288
 20
362.3364169196233
 10
-68.5626903622667
 20
362.5008170616742
 10
-68.51947687589048
 20
362.7310231714515
 10
-68.47626338951424
 20
363.0270516620679
 10
-68.43304990313798
 20
363.388816438552
 10
-68.38983641676175
 20
363.8158947330227
 10
-68.34662293038551
 20
364.3077947625932
 10
-68.30340944400925
 20
364.8640247443765
 10
-68.26019595763299
 20
365.4840928954857
 10
-68.21698247125671
 20
366.1675074330341
 10
-68.17376898488044
 20
366.9137765741347
 10
-68.13055549850418
 20
367.7224085359007
 10
-68.08734201212792
 20
368.5929115354455
 10
-68.04412852575165
 20
369.524793789882
 10
-68.00091503937539
 20
370.5175523252831
 10
-67.95770155299913
 20
371.5704530318459
 10
-67.91448806662287
 20
372.6825443739468
 10
-67.87127458024662
 20
373.8528663701478
 10
-67.82806109387037
 20
375.0804590390105
 10
-67.78484760749414
 20
376.3643623990965
 10
-67.7416341211179
 20
377.703616468968
 10
-67.6984206347417
 20
379.0972612671865
 10
-67.65520714836546
 20
380.5443368123139
 10
-67.61199366198926
 20
382.043883122912
 10
-67.56878017561307
 20
383.5949402175423
 10
-67.52556668923688
 20
385.1964867617393
 10
-67.4823532028607
 20
386.8472415128449
 10
-67.43913971648452
 20
388.5458544156039
 10
-67.39592623010836
 20
390.2909754143062
 10
-67.35271274373218
 20
392.0812544532413
 10
-67.309499257356
 20
393.9153414766993
 10
-67.2662857709798
 20
395.7918864289697
 10
-67.22307228460362
 20
397.7095392543424
 10
-67.1798587982274
 20
399.6669498971072
 10
-67.13664531185117
 20
401.6627683015538
 10
-67.09343182547494
 20
403.6956404794113
 10
-67.05021833909868
 20
405.7640892143379
 10
-67.0070048527224
 20
407.8664925210862
 10
-66.9637913663461
 20
410.0012201385999
 10
-66.9205778799698
 20
412.1666418058225
 10
-66.87736439359351
 20
414.3611272616978
 10
-66.83415090721718
 20
416.5830462451692
 10
-66.79093742084088
 20
418.8307684951805
 10
-66.74772393446457
 20
421.1026637506752
 10
-66.70451044808829
 20
423.397101750597
 10
-66.66129696171201
 20
425.7124522338895
 10
-66.61808347533575
 20
428.0470672669832
 10
-66.5748699889595
 20
430.3992020807847
 10
-66.53165650258326
 20
432.7670789090768
 10
-66.48844301620704
 20
435.1489199577827
 10
-66.44522952983084
 20
437.5429474328256
 10
-66.40201604345462
 20
439.947383540129
 10
-66.3588025570784
 20
442.3604504856161
 10
-66.31558907070222
 20
444.7803704752105
 10
-66.27237558432601
 20
447.2053657148353
 10
-66.22916209794981
 20
449.6336584104138
 10
-66.18594861157362
 20
452.063470746911
 10
-66.14273512519742
 20
454.4930238143716
 10
-66.0995216388212
 20
456.9205370931452
 10
-66.05630815244501
 20
459.3442299348505
 10
-66.01309466606878
 20
461.7623216911052
 10
-65.96988117969258
 20
464.1730317135277
 10
-65.92666769331635
 20
466.5745793537364
 10
-65.88345420694013
 20
468.9651839633495
 10
-65.84024072056391
 20
471.3430648939853
 10
-65.79702723418768
 20
473.7064414972618
 10
-65.75381374781146
 20
476.0535331247976
 10
-65.71060026143523
 20
478.3825717398474
 10
-65.66738677505901
 20
480.6918793979873
 10
-65.62417328868278
 20
482.9798173467365
 10
-65.58095980230654
 20
485.2447469944096
 10
-65.5377463159303
 20
487.485029749321
 10
-65.49453282955407
 20
489.6990270197857
 10
-65.45131934317784
 20
491.8851002141183
 10
-65.40810585680161
 20
494.0416107406334
 10
-65.36489237042538
 20
496.1669200076456
 10
-65.32167888404913
 20
498.2593894234695
 10
-65.2784653976729
 20
500.3173812805917
 10
-65.23525191129666
 20
502.3393479285248
 10
-65.19203842492043
 20
504.3239081837455
 10
-65.1488249385442
 20
506.2696988615454
 10
-65.10561145216793
 20
508.1753567772168
 10
-65.0623979657917
 20
510.0395187460517
 10
-65.01918447941546
 20
511.8608215833424
 10
-64.97597099303921
 20
513.6379021043808
 10
-64.93275750666297
 20
515.3693971244593
 10
-64.88954402028672
 20
517.0539434588695
 10
-64.84633053391047
 20
518.690177922904
 10
-64.80311704753422
 20
520.2767619206911
 10
-64.75990356115797
 20
521.8125893038489
 10
-64.71669007478172
 20
523.2966819002088
 10
-64.67347658840545
 20
524.7280628694176
 10
-64.63026310202922
 20
526.1057553711222
 10
-64.58704961565296
 20
527.4287825649692
 10
-64.54383612927671
 20
528.6961676106056
 10
-64.50062264290048
 20
529.9069336676779
 10
-64.45740915652422
 20
531.060103895833
 10
-64.41419567014799
 20
532.1547014547177
 10
-64.37098218377176
 20
533.1897499793209
 10
-64.32776869739556
 20
534.1643997240512
 10
-64.28455521101932
 20
535.0780973395913
 10
-64.2413417246431
 20
535.9303318262179
 10
-64.19812823826689
 20
536.7205921842079
 10
-64.15491475189069
 20
537.4483674138379
 10
-64.11170126551448
 20
538.1131465153848
 10
-64.06848777913825
 20
538.7144184891249
 10
-64.02527429276205
 20
539.2516723353353
 10
-63.98206080638581
 20
539.7243970542922
 10
-63.93884732000961
 20
540.132081646273
 10
-63.89563383363339
 20
540.4742373205545
 10
-63.85242034725745
 20
540.7506597459402
210
0.0
220
0.0
230
-1.0
  0
LWPOLYLINE
  5
301
330
1F
100
AcDbEntity
  8
0
  6
CONTINUOUS
 62
     7
100
AcDbPolyline
 90
        9
 70
     0
 43
0.0
 10
147.3477025331735
 20
498.6913971069325
 10
147.3188804537783
 20
498.8242508361122
 10
147.2335218319404
 20
498.9519990709848
 10
147.0949069516273
 20
499.069732518526
 10
146.9083627049534
 20
499.1729267483727
 10
146.681057882703
 20
499.2576160641437
 10
146.4217276817212
 20
499.3205459029284
 10
146.1403380161978
 20
499.3592979063137
 10
145.8477025331736
 20
499.3723828565418
  0
LWPOLYLINE
  5
302
330
1F
100
AcDbEntity
  8
0
  6
CONTINUOUS
 62
     7
100
AcDbPolyline
 90
        3
 70
     0
 43
0.0
 10
99.13949053989434
 20
365.3175352420381
 10
99.20548260653506
 20
365.2075707444826
 10
99.22112046448494
 20
365.2033803840163
  0
LWPOLYLINE
  5
303
330
1F
100
AcDbEntity
  8
0
  6
CONTINUOUS
 62
     7
100
AcDbPolyline
 90
       37
 70
     0
 43
0.0
 10
255.4173381872629
 20
551.0991309410261
 10
255.4181750201535
 20
551.0772116281374
 10
255.4199169877518
 20
551.055326832375
 10
255.4225590311821
 20
551.0335324173586
 10
255.4260960915686
 20
551.0118842467084
 10
255.4306693772633
 20
550.9897862270539
 10
255.4361849885023
 20
550.9678831439262
 10
255.4426283529893
 20
550.9462349663319
 10
255.4499848984285
 20
550.9249016632773
 10
255.458010154565
 20
550.9044844121108
 10
255.4668892254689
 20
550.8844026558953
 10
255.4766000572213
 20
550.8647098764849
 10
255.4871205959028
 20
550.8454595557333
 10
255.4987973130845
 20
550.8261176286038
 10
255.5113176821494
 20
550.8072848508131
 10
255.5246476743763
 20
550.7890165454056
 10
255.5387532610449
 20
550.7713680354254
 10
255.5529600296722
 20
550.75509085171
 10
255.5678562296215
 20
550.7394152348589
 10
255.5834032275166
 20
550.7243852492268
 10
255.5995623899812
 20
550.7100449591675
 10
255.6168493212542
 20
550.6960038943536
 10
255.6347591504004
 20
550.6827294888159
 10
255.6532401150066
 20
550.6702630639012
 10
255.6722404526601
 20
550.6586459409563
 10
255.6905864533508
 20
550.6485025413112
 10
255.7093623529031
 20
550.6391364710381
 10
255.7285180372694
 20
550.6305744329791
 10
255.7480033924017
 20
550.6228431299768
 10
255.768414887465
 20
550.6157569691081
 10
255.7891395472652
 20
550.6095725899231
 10
255.8101167501563
 20
550.6043087725413
 10
255.8312858744926
 20
550.5999842970818
 10
255.8527518408861
 20
550.5965916858635
 10
255.8743697551899
 20
550.5941601203921
 10
255.8960746146014
 20
550.5926962816916
 10
255.9178014163179
 20
550.5922068507863
210
0.0
220
0.0
230
-1.0
  0
LWPOLYLINE
  5
304
330
1F
100
AcDbEntity
  8
0
  6
CONTINUOUS
 62
     7
100
AcDbPolyline
 90
       33
 70
     0
 43
0.0
 10
89.89237015164308
 20
541.2020875553548
 10
89.88736923858883
 20
541.2016893019539
 10
89.88236832553461
 20
541.2004094181336
 10
89.87736741248037
 20
541.1982477787712
 10
89.87236649942612
 20
541.1952042587443
 10
89.86736558637189
 20
541.1912787329304
 10
89.86236467331766
 20
541.1864710762069
 10
89.85736376026342
 20
541.1807811634515
 10
89.85236284720919
 20
541.1742088695414
 10
89.84736193415495
 20
541.1667540693543
 10
89.8423610211007
 20
541.1584166377678
 10
89.83736010804648
 20
541.1491964496593
 10
89.83235919499224
 20
541.1390933799063
 10
89.82735828193802
 20
541.1281073033864
 10
89.82235736888376
 20
541.1162380949769
 10
89.81735645582953
 20
541.1034856295556
 10
89.8123555427753
 20
541.0898497819998
 10
89.80735462972106
 20
541.0753304271869
 10
89.80235371666683
 20
541.0599274399948
 10
89.79735280361255
 20
541.0436406953005
 10
89.79235189055836
 20
541.0264700679822
 10
89.78735097750412
 20
541.0084154329166
 10
89.78235006444987
 20
540.9894766649818
 10
89.77734915139564
 20
540.969653639055
 10
89.77234823834142
 20
540.9489462300139
 10
89.76734732528718
 20
540.9273543127359
 10
89.76234641223293
 20
540.9048777620984
 10
89.7573454991787
 20
540.8815164529792
 10
89.75234458612447
 20
540.8572702602555
 10
89.74734367307023
 20
540.8321390588051
 10
89.74234276001597
 20
540.8061227235053
 10
89.73734184696177
 20
540.7792211292337
 10
89.7323409339075
 20
540.7514342052197
  0
LWPOLYLINE
  5
305
330
1F
100
AcDbEntity
  8
0
  6
CONTINUOUS
 62
     7
100
AcDbPolyline
 90
        9
 70
     0
 43
0.0
 10
147.3477025331735
 20
543.9225556373856
 10
147.3188804537783
 20
544.1832957619691
 10
147.2335218319404
 20
544.4340157897897
 10
147.0949069516273
 20
544.6650806907835
 10
146.9083627049533
 20
544.8676107703882
 10
146.6810578827029
 20
545.0338229112244
 10
146.4217276817212
 20
545.1573296739331
 10
146.1403380161977
 20
545.2333847628864
 10
145.8477025331735
 20
545.2590654236682
  0
LWPOLYLINE
  5
306
330
1F
100
AcDbEntity
  8
0
  6
CONTINUOUS
 62
     7
100
AcDbPolyline
 90
      113
 70
     0
 43
0.0
 10
61.3078221681741
 20
362.2036596766279
 10
61.3510350188113
 20
362.2366529647042
 10
61.39424786944851
 20
362.3359549053168
 10
61.4374607200857
 20
362.5014086544532
 10
61.48067357072288
 20
362.7326990383789
 10
61.52388642136002
 20
363.0295096939357
 10
61.56709927199719
 20
363.3915242579658
 10
61.61031212263434
 20
363.8184263673113
 10
61.65352497327149
 20
364.3098996588141
 10
61.69673782390866
 20
364.8656277693165
 10
61.73995067454583
 20
365.4852943356603
 10
61.78316352518301
 20
366.1685829946877
 10
61.8263763758202
 20
366.9151765577045
 10
61.86958922645741
 20
367.7246150181705
 10
61.91280207709463
 20
368.5961342471868
 10
61.95601492773184
 20
369.5289311267465
 10
61.99922777836909
 20
370.5222025388426
 10
62.04244062900634
 20
371.5751453654682
 10
62.08565347964358
 20
372.6869564886164
 10
62.12886633028081
 20
373.8568327902804
 10
62.17207918091806
 20
375.0839711524532
 10
62.21529203155531
 20
376.3675684571277
 10
62.25850488219255
 20
377.7068215862973
 10
62.30171773282977
 20
379.1009059196044
 10
62.34493058346699
 20
380.548753393873
 10
62.38814343410419
 20
382.0491419284842
 10
62.4313562847414
 20
383.6008470091537
 10
62.47456913537859
 20
385.2026441215971
 10
62.51778198601579
 20
386.8533087515303
 10
62.56099483665299
 20
388.5516163846688
 10
62.60420768729019
 20
390.2963425067283
 10
62.6474205379274
 20
392.0862626034245
 10
62.69063338856461
 20
393.9201521604732
 10
62.73384623920182
 20
395.7967865423036
 10
62.77705908983905
 20
397.7148639643076
 10
62.82027194047626
 20
399.6728733258499
 10
62.86348479111349
 20
401.6692683686039
 10
62.90669764175072
 20
403.7025028342429
 10
62.94991049238794
 20
405.7710304644405
 10
62.99312334302516
 20
407.87330500087
 10
63.03633619366239
 20
410.0077801852052
 10
63.0795490442996
 20
412.1729097591191
 10
63.12276189493679
 20
414.3671474642855
 10
63.16597474557399
 20
416.5889470423775
 10
63.20918759621117
 20
418.8367555785495
 10
63.25240044684832
 20
421.1089158953486
 10
63.2956132974855
 20
423.4036881008534
 10
63.33882614812264
 20
425.7193300287921
 10
63.3820389987598
 20
428.0540995128929
 10
63.42525184939696
 20
430.4062543868843
 10
63.46846470003411
 20
432.7740524844942
 10
63.5116775506713
 20
435.1557516394514
 10
63.5548904013085
 20
437.5496096854838
 10
63.5981032519457
 20
439.9538844563198
 10
63.64131610258294
 20
442.3668337848193
 10
63.68452895322019
 20
444.7867051877684
 10
63.72774180385747
 20
447.2117102072731
 10
63.77095465449477
 20
449.6400525484042
 10
63.81416750513208
 20
452.0699359162326
 10
63.8573803557694
 20
454.499564015829
 10
63.90059320640673
 20
456.9271405522643
 10
63.94380605704403
 20
459.3508692306092
 10
63.98701890768137
 20
461.7689537559348
 10
64.03023175831865
 20
464.1795978333117
 10
64.07344460895595
 20
466.581005167811
 10
64.11665745959323
 20
468.9713814183845
 10
64.15987031023046
 20
471.3489765329256
 10
64.20308316086769
 20
473.7120843899633
 10
64.2462960115049
 20
476.0590007502443
 10
64.28950886214209
 20
478.3880213745159
 10
64.33272171277927
 20
480.6974420235251
 10
64.37593456341645
 20
482.9855584580188
 10
64.41914741405363
 20
485.2506664387441
 10
64.46236026469079
 20
487.491061726448
 10
64.50557311532795
 20
489.7050400818777
 10
64.5487859659651
 20
491.8908972657798
 10
64.59199881660226
 20
494.0469631063293
 10
64.63521166723942
 20
496.1717209092371
 10
64.67842451787659
 20
498.2636971812851
 10
64.72163736851375
 20
500.3214184316446
 10
64.76485021915093
 20
502.3434111694868
 10
64.8080630697881
 20
504.3282019039821
 10
64.8512759204253
 20
506.274317144302
 10
64.89448877106248
 20
508.1802833996176
 10
64.93770162169967
 20
510.0446271790996
 10
64.98091447233688
 20
511.865874991919
 10
65.0241273229741
 20
513.6425576058514
 10
65.0673401736113
 20
515.3733552765084
 10
65.11055302424853
 20
517.0571336351848
 10
65.15376587488576
 20
518.692769853678
 10
65.19697872552298
 20
520.2791411037863
 10
65.2401915761602
 20
521.8151245573079
 10
65.28340442679745
 20
523.2995973860409
 10
65.32661727743466
 20
524.7314367617832
 10
65.3698301280719
 20
526.1095198563332
 10
65.41304297870913
 20
527.432723841489
 10
65.45625582934636
 20
528.6999258890484
 10
65.49946867998358
 20
529.9100525197257
 10
65.5426815306208
 20
531.062318468281
 10
65.58589438125802
 20
532.1560428020324
 10
65.62910723189523
 20
533.190544732322
 10
65.67232008253245
 20
534.1651434704919
 10
65.71553293316967
 20
535.0791582278844
 10
65.75874578380689
 20
535.9319082158413
 10
65.80195863444409
 20
536.7227126457047
 10
65.84517148508131
 20
537.4508907288173
 10
65.8883843357185
 20
538.1157616765206
 10
65.93159718635572
 20
538.7166477408092
 10
65.97481003699293
 20
539.2530550507967
 10
66.01802288763015
 20
539.7247755750554
 10
66.06123573826738
 20
540.1316259677549
 10
66.10444858890457
 20
540.4734228830637
 10
66.14766143954066
 20
540.7499829751449
210
0.0
220
0.0
230
-1.0
  0
LWPOLYLINE
  5
307
330
1F
100
AcDbEntity
  8
0
  6
CONTINUOUS
 62
     7
100
AcDbPolyline
 90
        9
 70
     0
 43
0.0
 10
147.3477025331735
 20
530.9889802467037
 10
147.3188804537783
 20
531.2131520323338
 10
147.2335218319404
 20
531.4287090219592
 10
147.0949069516273
 20
531.6273674813542
 10
146.9083627049533
 20
531.8014930773332
 10
146.6810578827029
 20
531.9443942608937
 10
146.4217276817212
 20
532.0505794196912
 10
146.1403380161977
 20
532.1159679176224
 10
145.8477025331735
 20
532.1380469113822
  0
LWPOLYLINE
  5
308
330
1F
100
AcDbEntity
  8
0
  6
CONTINUOUS
 62
     7
100
AcDbPolyline
 90
      105
 70
     0
 43
0.0
 10
-28.6924495788759
 20
362.2046398024003
 10
-28.64590969717177
 20
362.2430271665502
 10
-28.59936981546762
 20
362.3576625755167
 10
-28.55282993376348
 20
362.5484380479473
 10
-28.50629005205932
 20
362.8152456024891
 10
-28.45975017035515
 20
363.1579772577895
 10
-28.41321028865097
 20
363.5765250324958
 10
-28.36667040694679
 20
364.0707708558824
 10
-28.32013052524258
 20
364.6403119485987
 10
-28.27359064353838
 20
365.2844280796209
 10
-28.22705076183416
 20
366.002382355606
 10
-28.18051088012996
 20
366.793437883211
 10
-28.13397099842575
 20
367.6568577690928
 10
-28.08743111672155
 20
368.5919051199083
 10
-28.04089123501736
 20
369.5978430423147
 10
-27.9943513533132
 20
370.6739346429686
 10
-27.94781147160904
 20
371.8194430285272
 10
-27.90127158990491
 20
373.0336028819032
 10
-27.8547317082008
 20
374.3153215378696
 10
-27.80819182649671
 20
375.6632965912233
 10
-27.76165194479263
 20
377.0762222057711
 10
-27.71511206308857
 20
378.5527925453197
 10
-27.66857218138451
 20
380.0917017736758
 10
-27.62203229968045
 20
381.6916440546464
 10
-27.5754924179764
 20
383.3513135520378
 10
-27.52895253627234
 20
385.0694044296572
 10
-27.48241265456828
 20
386.844610851311
 10
-27.43587277286421
 20
388.675574393952
 10
-27.38933289116012
 20
390.560634427982
 10
-27.34279300945602
 20
392.4980225772139
 10
-27.2962531277519
 20
394.4859703329004
 10
-27.24971324604779
 20
396.5227091862938
 10
-27.20317336434365
 20
398.6064706286468
 10
-27.1566334826395
 20
400.7354861512117
 10
-27.11009360093534
 20
402.9079872452411
 10
-27.06355371923117
 20
405.1222054019876
 10
-27.01701383752698
 20
407.376372072452
 10
-26.97047395582278
 20
409.6686498495084
 10
-26.92393407411857
 20
411.9969913547611
 10
-26.87739419241435
 20
414.359309329974
 10
-26.83085431071013
 20
416.7535165169107
 10
-26.78431442900592
 20
419.177525657335
 10
-26.7377745473017
 20
421.6292494930109
 10
-26.6912346655975
 20
424.1066007657019
 10
-26.64469478389331
 20
426.6074922171719
 10
-26.59815490218913
 20
429.1298365891846
 10
-26.55161502048497
 20
431.6715459391924
 10
-26.50507513878083
 20
434.2304802772059
 10
-26.45853525707672
 20
436.804411892861
 10
-26.41199537537262
 20
439.3911046416598
 10
-26.36545549366853
 20
441.9883223791053
 10
-26.31891561196444
 20
444.5938289607
 10
-26.27237573026035
 20
447.2053882419468
 10
-26.22583584855628
 20
449.8207640783482
 10
-26.1792959668522
 20
452.4377203254069
 10
-26.13275608514812
 20
455.0540208386257
 10
-26.08621620344401
 20
457.6674302184927
 10
-26.0396763217399
 20
460.27572919189
 10
-25.99313644003578
 20
462.8767140710638
 10
-25.94659655833166
 20
465.4681818050003
 10
-25.90005667662752
 20
468.0479293426865
 10
-25.85351679492338
 20
470.613753633109
 10
-25.80697691321923
 20
473.1634516252544
 10
-25.76043703151509
 20
475.6948202681094
 10
-25.71389714981093
 20
478.2056565106604
 10
-25.66735726810678
 20
480.6937573018943
 10
-25.62081738640262
 20
483.1569330260946
 10
-25.57427750469846
 20
485.5931217121499
 10
-25.52773762299432
 20
488.000331945205
 10
-25.48119774129016
 20
490.3765730542934
 10
-25.434657859586
 20
492.7198543684491
 10
-25.38811797788186
 20
495.0281852167059
 10
-25.34157809617771
 20
497.2995749280976
 10
-25.29503821447356
 20
499.5320328316581
 10
-25.24849833276941
 20
501.7235682564212
 10
-25.20195845106527
 20
503.8721905314209
 10
-25.15541856936113
 20
505.9759599885246
 10
-25.10887868765699
 20
508.0331850176663
 10
-25.06233880595285
 20
510.0422493136438
 10
-25.01579892424872
 20
512.0015365883949
 10
-24.96925904254458
 20
513.9094305538558
 10
-24.92271916084044
 20
515.7643149219641
 10
-24.8761792791363
 20
517.5645734046566
 10
-24.82963939743215
 20
519.3085897138702
 10
-24.783099515728
 20
520.9947475615422
 10
-24.73655963402385
 20
522.6214309217758
 10
-24.69001975231968
 20
524.1871496109252
 10
-24.64347987061551
 20
525.6907407332139
 10
-24.59693998891134
 20
527.1310939186714
 10
-24.55040010720716
 20
528.5070987973272
 10
-24.50386022550299
 20
529.8176449992109
 10
-24.45732034379881
 20
531.0616221543515
 10
-24.41078046209464
 20
532.2379198927789
 10
-24.36424058039047
 20
533.3454278445224
 10
-24.31770069868631
 20
534.3830356396114
 10
-24.27116081698216
 20
535.3496374264543
 10
-24.22462093527802
 20
536.2443575673597
 10
-24.17808105357388
 20
537.0666555426363
 10
-24.13154117186974
 20
537.8160172634595
 10
-24.08500129016561
 20
538.491928641004
 10
-24.03846140846149
 20
539.0938755864452
 10
-23.99192152675737
 20
539.621344010958
 10
-23.94538164505325
 20
540.0738198257175
 10
-23.89884176334915
 20
540.450788941899
 10
-23.85230188164461
 20
540.7517372706794
210
0.0
220
0.0
230
-1.0
  0
LWPOLYLINE
  5
309
330
1F
100
AcDbEntity
  8
0
  6
CONTINUOUS
 62
     7
100
AcDbPolyline
 90
      113
 70
     0
 43
0.0
 10
-58.69225835129518
 20
362.2049779487635
 10
-58.64904695702257
 20
362.2380373796104
 10
-58.60583556274997
 20
362.3368358846722
 10
-58.56262416847737
 20
362.5013641744703
 10
-58.51941277420477
 20
362.7316129595259
 10
-58.47620137993218
 20
363.0275729503603
 10
-58.43298998565958
 20
363.3892215278469
 10
-58.38977859138701
 20
363.8162805353432
 10
-58.34656719711443
 20
364.3082417807033
 10
-58.30335580284184
 20
364.8645888602156
 10
-58.26014440856928
 20
365.4848053701683
 10
-58.21693301429671
 20
366.1683749068496
 10
-58.17372162002414
 20
366.9147810665478
 10
-58.13051022575158
 20
367.7235074455511
 10
-58.087298831479
 20
368.594037640148
 10
-58.04408743720642
 20
369.5258552466265
 10
-58.00087604293386
 20
370.5184438612749
 10
-57.95766464866126
 20
371.5712102124565
 10
-57.91445325438868
 20
372.6832509729707
 10
-57.87124186011609
 20
373.8535846503408
 10
-57.8280304658435
 20
375.081229752089
 10
-57.78481907157092
 20
376.3652047857369
 10
-57.74160767729832
 20
377.7045282588063
 10
-57.69839628302572
 20
379.0982186788189
 10
-57.65518488875312
 20
380.5452945532968
 10
-57.61197349448052
 20
382.0447743897616
 10
-57.56876210020792
 20
383.5956766957352
 10
-57.5255507059353
 20
385.1970139654222
 10
-57.48233931166273
 20
386.8476253370334
 10
-57.43912791739012
 20
388.546154546571
 10
-57.39591652311753
 20
390.2912348876606
 10
-57.35270512884493
 20
392.0814996539274
 10
-57.30949373457235
 20
393.915582138997
 10
-57.26628234029977
 20
395.7921156364945
 10
-57.22307094602719
 20
397.7097334400454
 10
-57.17985955175462
 20
399.6670688432749
 10
-57.13664815748206
 20
401.6627551398086
 10
-57.09343676320949
 20
403.6954256232715
 10
-57.05022536893695
 20
405.7636790544743
 10
-57.0070139746644
 20
407.8659336050011
 10
-56.96380258039185
 20
410.0005486106767
 10
-56.92059118611932
 20
412.1658833752037
 10
-56.87737979184679
 20
414.3602972022852
 10
-56.83416839757425
 20
416.5821493956241
 10
-56.79095700330173
 20
418.8297992589236
 10
-56.74774560902919
 20
421.1016060958862
 10
-56.70453421475665
 20
423.3959292102155
 10
-56.6613228204841
 20
425.711127905614
 10
-56.61811142621156
 20
428.045560319122
 10
-56.57490003193899
 20
430.3975293196763
 10
-56.53168863766643
 20
432.7652596526929
 10
-56.48847724339385
 20
435.1469701535095
 10
-56.44526584912128
 20
437.5408796574628
 10
-56.40205445484869
 20
439.9452069998901
 10
-56.35884306057611
 20
442.3581710161286
 10
-56.31563166630352
 20
444.7779905415151
 10
-56.27242027203094
 20
447.2028844113871
 10
-56.22920887775836
 20
449.6310714610814
 10
-56.18599748348576
 20
452.0607705259353
 10
-56.14278608921317
 20
454.4902008608644
 10
-56.09957469494059
 20
456.917584585118
 10
-56.056363300668
 20
459.3411450146731
 10
-56.01315190639541
 20
461.7591054695181
 10
-55.96994051212282
 20
464.1696892696409
 10
-55.92672911785023
 20
466.57111973503
 10
-55.88351772357765
 20
468.9616201856736
 10
-55.84030632930508
 20
471.3394139415597
 10
-55.7970949350325
 20
473.7027243226769
 10
-55.75388354075992
 20
476.0497746490132
 10
-55.71067214648733
 20
478.3787887968326
 10
-55.66746075221475
 20
480.6880407479473
 10
-55.62424935794218
 20
482.9758936927439
 10
-55.58103796366961
 20
485.240720023913
 10
-55.53782656939703
 20
487.4808921341457
 10
-55.49461517512447
 20
489.6947824161328
 10
-55.4514037808519
 20
491.8807632625649
 10
-55.40819238657931
 20
494.0372070661327
 10
-55.36498099230674
 20
496.1624862195274
 10
-55.32176959803417
 20
498.2549731154394
 10
-55.2785582037616
 20
500.3130401465597
 10
-55.23534680948901
 20
502.3350786250401
 10
-55.19213541521644
 20
504.319650847179
 10
-55.14892402094385
 20
506.265409898328
 10
-55.10571262667128
 20
508.1710097002418
 10
-55.0625012323987
 20
510.0351041746745
 10
-55.01928983812611
 20
511.856347243381
 10
-54.97607844385353
 20
513.6333928281158
 10
-54.93286704958095
 20
515.3648948506334
 10
-54.88965565530837
 20
517.0495072326887
 10
-54.84644426103578
 20
518.6858838960358
 10
-54.80323286676322
 20
520.2726792509663
 10
-54.76002147249064
 20
521.8086571773008
 10
-54.71681007821807
 20
523.2928287587255
 10
-54.67359868394551
 20
524.7242389912943
 10
-54.63038728967295
 20
526.1019328710612
 10
-54.58717589540036
 20
527.4249553940801
 10
-54.54396450112779
 20
528.6923515564055
 10
-54.50075310685522
 20
529.9031663540907
 10
-54.45754171258265
 20
531.0564447831902
 10
-54.41433031831006
 20
532.1512318397577
 10
-54.37111892403748
 20
533.1865725198472
 10
-54.3279075297649
 20
534.1615335380909
 10
-54.28469613549231
 20
535.0754473956283
 10
-54.24148474121971
 20
535.9278246070489
 10
-54.19827334694712
 20
536.7181789619118
 10
-54.15506195267453
 20
537.4460242497765
 10
-54.11185055840193
 20
538.1108742602021
 10
-54.06863916412934
 20
538.7122427827481
 10
-54.02542776985675
 20
539.2496436069737
 10
-53.98221637558417
 20
539.7225905224385
 10
-53.93900498131157
 20
540.1305973187013
 10
-53.89579358703899
 20
540.4731778967379
 10
-53.85258219276633
 20
540.7499614485345
210
0.0
220
0.0
230
-1.0
  0
LWPOLYLINE
  5
30A
330
1F
100
AcDbEntity
  8
0
  6
CONTINUOUS
 62
     7
100
AcDbPolyline
 90
      105
 70
     0
 43
0.0
 10
-55.26707878980028
 20
362.6530832806906
 10
-55.31362407772675
 20
362.9532658348069
 10
-55.36016936565321
 20
363.3291388939441
 10
-55.40671465357969
 20
363.7803388026761
 10
-55.45325994150616
 20
364.3065019055766
 10
-55.49980522943265
 20
364.9072645472196
 10
-55.54635051735912
 20
365.5822630721789
 10
-55.5928958052856
 20
366.3311338250284
 10
-55.63944109321208
 20
367.1534198298912
 10
-55.68598638113858
 20
368.0482572105244
 10
-55.73253166906507
 20
369.0146712175674
 10
-55.77907695699155
 20
370.051687099244
 10
-55.82562224491804
 20
371.1583301037783
 10
-55.87216753284454
 20
372.3336254793941
 10
-55.91871282077105
 20
373.5765984743152
 10
-55.96525810869756
 20
374.8862743367656
 10
-56.01180339662407
 20
376.261678314969
 10
-56.05834868455059
 20
377.7018351107474
 10
-56.10489397247713
 20
379.2056247434903
 10
-56.15143926040366
 20
380.7715889593122
 10
-56.1979845483302
 20
382.3982212363918
 10
-56.24452983625673
 20
384.0840150529078
 10
-56.29107512418326
 20
385.8274638870388
 10
-56.3376204121098
 20
387.6270612169633
 10
-56.38416570003631
 20
389.4813005208601
 10
-56.43071098796283
 20
391.3886752769076
 10
-56.47725627588933
 20
393.3476789632846
 10
-56.52380156381583
 20
395.3568008406924
 10
-56.57034685174229
 20
397.4143617288776
 10
-56.61689213966875
 20
399.5184610053354
 10
-56.66343742759521
 20
401.6671829804985
 10
-56.70998271552165
 20
403.8586119647994
 10
-56.75652800344809
 20
406.0908322686709
 10
-56.80307329137455
 20
408.3619282025456
 10
-56.84961857930099
 20
410.6699840768562
 10
-56.89616386722744
 20
413.0130842020354
 10
-56.94270915515389
 20
415.3893128885158
 10
-56.98925444308036
 20
417.7967449804282
 10
-57.03579973100684
 20
420.2333178299968
 10
-57.08234501893334
 20
422.696865032047
 10
-57.12889030685982
 20
425.185217630058
 10
-57.17543559478633
 20
427.6962066675091
 10
-57.22198088271282
 20
430.2276631878792
 10
-57.26852617063933
 20
432.7774182346478
 10
-57.31507145856581
 20
435.3433028512936
 10
-57.3616167464923
 20
437.9231480812961
 10
-57.40816203441878
 20
440.5147849681343
 10
-57.45470732234524
 20
443.1160375109867
 10
-57.50125261027169
 20
445.7246808104725
 10
-57.54779789819814
 20
448.3384692300802
 10
-57.59434318612458
 20
450.9551570582533
 10
-57.64088847405101
 20
453.572498583436
 10
-57.68743376197745
 20
456.1882480940721
 10
-57.73397904990389
 20
458.8001598786053
 10
-57.78052433783034
 20
461.4059882254797
 10
-57.82706962575678
 20
464.0034874231391
 10
-57.87361491368324
 20
466.5904117605924
 10
-57.92016020160971
 20
469.1645349281971
 10
-57.9667054895362
 20
471.7237011800538
 10
-58.01325077746269
 20
474.2657708078933
 10
-58.05979606538919
 20
476.7886041034464
 10
-58.10634135331571
 20
479.2900613584439
 10
-58.15288664124222
 20
481.7680028646164
 10
-58.19943192916877
 20
484.2202889136954
 10
-58.2459772170953
 20
486.6447797974108
 10
-58.29252250502185
 20
489.039335807494
 10
-58.3390677929484
 20
491.4018179125661
 10
-58.38561308087497
 20
493.7301742214282
 10
-58.43215836880154
 20
496.0225249742571
 10
-58.47870365672809
 20
498.2770105977358
 10
-58.52524894465463
 20
500.4917715185474
 10
-58.57179423258118
 20
502.6649481633751
 10
-58.61833952050772
 20
504.7946809589023
 10
-58.66488480843423
 20
506.8791103318118
 10
-58.71143009636074
 20
508.9163767087865
 10
-58.75797538428719
 20
510.90462051651
 10
-58.80452067221363
 20
512.8419889971989
 10
-58.85106596014003
 20
514.7268240639909
 10
-58.89761124806643
 20
516.5576860312312
 10
-58.9441565359928
 20
518.3331467945496
 10
-58.99070182391917
 20
520.0517782495755
 10
-59.03724711184553
 20
521.7121522919384
 10
-59.08379239977192
 20
523.3128408172679
 10
-59.1303376876983
 20
524.8524157211937
 10
-59.17688297562471
 20
526.3294488993448
 10
-59.22342826355116
 20
527.7425122473511
 10
-59.26997355147763
 20
529.0902048731762
 10
-59.31651883940415
 20
530.3714406712447
 10
-59.36306412733069
 20
531.5853358871699
 10
-59.40960941525727
 20
532.7310101061342
 10
-59.45615470318387
 20
533.8075829133197
 10
-59.50269999111046
 20
534.8141738939087
 10
-59.54924527903707
 20
535.7499026330834
 10
-59.59579056696369
 20
536.6138887160259
 10
-59.64233585489029
 20
537.4052517279187
 10
-59.68888114281688
 20
538.1231112539438
 10
-59.73542643074347
 20
538.7666572522176
 10
-59.78197171867002
 20
539.3354842064069
 10
-59.82851700659658
 20
539.8293308624864
 10
-59.87506229452312
 20
540.2479361442569
 10
-59.92160758244962
 20
540.5910389755189
 10
-59.96815287037612
 20
540.8583782800735
 10
-60.01469815830259
 20
541.049692981721
 10
-60.06124344622906
 20
541.1647220042623
 10
-60.10778873415639
 20
541.203204271498
  0
LWPOLYLINE
  5
30B
330
1F
100
AcDbEntity
  8
0
  6
CONTINUOUS
 62
     7
100
AcDbPolyline
 90
       33
 70
     0
 43
0.0
 10
-50.10734814949533
 20
541.2033387718378
 10
-50.11235272680135
 20
541.2029680636215
 10
-50.11735730410739
 20
541.2017075013658
 10
-50.12236188141343
 20
541.1995567208927
 10
-50.12736645871946
 20
541.1965153580247
 10
-50.13237103602551
 20
541.1925831897536
 10
-50.13737561333154
 20
541.1877605237167
 10
-50.1423801906376
 20
541.1820477922129
 10
-50.14738476794363
 20
541.1754454275399
 10
-50.15238934524967
 20
541.1679538619966
 10
-50.15739392255571
 20
541.159573527881
 10
-50.16239849986176
 20
541.1503048574916
 10
-50.1674030771678
 20
541.1401482831268
 10
-50.17240765447384
 20
541.129104237085
 10
-50.1774122317799
 20
541.1171731516644
 10
-50.18241680908594
 20
541.1043554591635
 10
-50.18742138639197
 20
541.0906515918806
 10
-50.19242596369801
 20
541.0760619821141
 10
-50.19743054100405
 20
541.0605870621621
 10
-50.2024351183101
 20
541.0442272643235
 10
-50.20743969561615
 20
541.0269830208964
 10
-50.21244427292218
 20
541.008854764179
 10
-50.21744885022824
 20
540.9898429264698
 10
-50.22245342753428
 20
540.9699479400672
 10
-50.22745800484033
 20
540.9491702372695
 10
-50.23246258214637
 20
540.9275102503752
 10
-50.23746715945241
 20
540.9049684116823
 10
-50.24247173675845
 20
540.8815451534897
 10
-50.2474763140645
 20
540.8572409080954
 10
-50.25248089137052
 20
540.8320561077976
 10
-50.25748546867658
 20
540.8059911848952
 10
-50.26249004598262
 20
540.7790465716862
 10
-50.26749462328905
 20
540.7512227004669
  0
LWPOLYLINE
  5
30C
330
1F
100
AcDbEntity
  8
0
  6
CONTINUOUS
 62
     7
100
AcDbPolyline
 90
        3
 70
     0
 43
0.0
 10
29.11167651124581
 20
365.4076124547752
 10
29.17755601760427
 20
365.2356989652838
 10
29.22111154580821
 20
365.20338038396
  0
LWPOLYLINE
  5
30D
330
1F
100
AcDbEntity
  8
0
  6
CONTINUOUS
 62
     7
100
AcDbPolyline
 90
      113
 70
     0
 43
0.0
 10
-35.26748733373469
 20
362.655766466681
 10
-35.31070380049064
 20
362.9323908673203
 10
-35.35392026724659
 20
363.2742454165946
 10
-35.39713673400254
 20
363.6810899367953
 10
-35.4403532007585
 20
364.1526842502144
 10
-35.48356966751445
 20
364.6887881791434
 10
-35.52678613427042
 20
365.2891615458741
 10
-35.57000260102637
 20
365.9535542897743
 10
-35.61321906778233
 20
366.6814819584871
 10
-35.6564355345383
 20
367.4722217032166
 10
-35.69965200129427
 20
368.3250399912282
 10
-35.74286846805023
 20
369.2392032897877
 10
-35.7860849348062
 20
370.2139780661603
 10
-35.82930140156218
 20
371.2486307876121
 10
-35.87251786831816
 20
372.3424279214081
 10
-35.91573433507413
 20
373.4946359348141
 10
-35.95895080183012
 20
374.7045212950957
 10
-36.00216726858611
 20
375.9713504695183
 10
-36.04538373534211
 20
377.2943276296879
 10
-36.08860020209811
 20
378.6723688293846
 10
-36.13181666885411
 20
380.104306884657
 10
-36.17503313561011
 20
381.588974603395
 10
-36.21824960236611
 20
383.125204793488
 10
-36.26146606912211
 20
384.7118302628261
 10
-36.3046825358781
 20
386.3476838192987
 10
-36.3478990026341
 20
388.0315982707956
 10
-36.39111546939009
 20
389.7624064252067
 10
-36.43433193614607
 20
391.5389410904215
 10
-36.47754840290203
 20
393.3600311887334
 10
-36.52076486965798
 20
395.2243630113269
 10
-36.56398133641394
 20
397.1304422963862
 10
-36.60719780316988
 20
399.0767631797225
 10
-36.65041426992582
 20
401.0618197971476
 10
-36.69363073668174
 20
403.0841062844727
 10
-36.73684720343765
 20
405.1421167775091
 10
-36.78006367019356
 20
407.2343454120686
 10
-36.82328013694946
 20
409.3592863239623
 10
-36.86649660370535
 20
411.5154336490018
 10
-36.90971307046124
 20
413.7012815229986
 10
-36.95292953721711
 20
415.915300525277
 10
-36.996146003973
 20
418.1558206701226
 10
-37.03936247072886
 20
420.4211200528939
 10
-37.08257893748474
 20
422.7094766861045
 10
-37.12579540424062
 20
425.0191685822679
 10
-37.1690118709965
 20
427.3484737538979
 10
-37.2122283377524
 20
429.695670213508
 10
-37.25544480450831
 20
432.059035973612
 10
-37.29866127126422
 20
434.4368490467234
 10
-37.34187773802017
 20
436.8273874453559
 10
-37.38509420477614
 20
439.2289287425849
 10
-37.42831067153212
 20
441.639722731542
 10
-37.47152713828812
 20
444.0579753133035
 10
-37.51474360504413
 20
446.4818885142026
 10
-37.55796007180017
 20
448.9096643605724
 10
-37.6011765385562
 20
451.3395048787462
 10
-37.64439300531225
 20
453.769612095057
 10
-37.68760947206829
 20
456.198188035838
 10
-37.73082593882434
 20
458.6234347274225
 10
-37.77404240558037
 20
461.0435541961434
 10
-37.8172588723364
 20
463.4567484683342
 10
-37.86047533909242
 20
465.8612252264155
 10
-37.90369180584843
 20
468.2552361239324
 10
-37.94690827260442
 20
470.6370534043949
 10
-37.9901247393604
 20
473.0049494289066
 10
-38.03334120611638
 20
475.3571965585712
 10
-38.07655767287235
 20
477.6920671544927
 10
-38.1197741396283
 20
480.0078335777745
 10
-38.16299060638425
 20
482.3027681895207
 10
-38.20620707314018
 20
484.5751433508347
 10
-38.24942353989611
 20
486.8232314228204
 10
-38.29264000665203
 20
489.0453052678859
 10
-38.33585647340794
 20
491.2397031766442
 10
-38.37907294016384
 20
493.4048931611858
 10
-38.42228940691975
 20
495.53935851442
 10
-38.46550587367564
 20
497.641582529256
 10
-38.50872234043154
 20
499.710048498603
 10
-38.55193880718744
 20
501.7432397153702
 10
-38.59515527394335
 20
503.7396394724669
 10
-38.63837174069926
 20
505.6977310628022
 10
-38.68158820745518
 20
507.6159977792856
 10
-38.72480467421111
 20
509.4929229148261
 10
-38.76802114096705
 20
511.3270089308945
 10
-38.81123760772302
 20
513.1169557214412
 10
-38.85445407447898
 20
514.8615794476477
 10
-38.89767054123495
 20
516.559697765416
 10
-38.94088700799093
 20
518.2101283306478
 10
-38.98410347474692
 20
519.8116887992447
 10
-39.0273199415029
 20
521.3631968271087
 10
-39.07053640825887
 20
522.8634700701413
 10
-39.11375287501485
 20
524.3113261842444
 10
-39.15696934177082
 20
525.7055828253199
 10
-39.20018580852678
 20
527.0450579367869
 10
-39.24340227528273
 20
528.3286799879918
 10
-39.28661874203867
 20
529.5556545047548
 10
-39.32983520879461
 20
530.7252297263524
 10
-39.37305167555053
 20
531.8366538920606
 10
-39.41626814230648
 20
532.8891752411555
 10
-39.45948460906241
 20
533.8820420129136
 10
-39.50270107581835
 20
534.8145024466111
 10
-39.54591754257429
 20
535.685804781524
 10
-39.58913400933025
 20
536.4951972569286
 10
-39.63235047608622
 20
537.241928112101
 10
-39.67556694284219
 20
537.9252648366751
 10
-39.71878340959818
 20
538.5447444371944
 10
-39.76199987635418
 20
539.1001023103272
 10
-39.8052163431102
 20
539.591078457787
 10
-39.84843280986621
 20
540.0174128812874
 10
-39.89164927662222
 20
540.3788455825421
 10
-39.93486574337825
 20
540.6751165632645
 10
-39.97808221013428
 20
540.9059658251686
 10
-40.02129867689028
 20
541.0711333699672
 10
-40.0645151436463
 20
541.1703591993747
 10
-40.10773161040146
 20
541.2033833513933
  0
LWPOLYLINE
  5
30E
330
1F
100
AcDbEntity
  8
0
  6
CONTINUOUS
 62
     7
100
AcDbPolyline
 90
      113
 70
     0
 43
0.0
 10
41.3079031028335
 20
362.2033934083915
 10
41.35111531728678
 20
362.2368905079442
 10
41.39432753174006
 20
362.3365988121924
 10
41.43753974619334
 20
362.5022532802865
 10
41.48075196064661
 20
362.7335883351643
 10
41.52396417509988
 20
363.0303383997633
 10
41.56717638955316
 20
363.3922378970214
 10
41.61038860400643
 20
363.8190212498762
 10
41.65360081845969
 20
364.3104228812655
 10
41.69681303291294
 20
364.866177214127
 10
41.7400252473662
 20
365.4860186713984
 10
41.78323746181945
 20
366.1696800162155
 10
41.82644967627269
 20
366.9167319068462
 10
41.86966189072593
 20
367.726449109112
 10
41.91287410517916
 20
368.5980748947978
 10
41.9560863196324
 20
369.5308525356888
 10
41.99929853408563
 20
370.5240253035695
 10
42.04251074853885
 20
371.576836470225
 10
42.08572296299206
 20
372.6885293074399
 10
42.12893517744527
 20
373.8583470869995
 10
42.17214739189848
 20
375.0855330806883
 10
42.21535960635168
 20
376.3693305602913
 10
42.25857182080487
 20
377.708954967307
 10
42.30178403525806
 20
379.1033624869379
 10
42.34499624971124
 20
380.5513682352448
 10
42.38820846416444
 20
382.0517859161822
 10
42.43142067861763
 20
383.6034292337046
 10
42.47463289307083
 20
385.2051118917664
 10
42.51784510752405
 20
386.8556475943225
 10
42.56105732197727
 20
388.5538500453271
 10
42.60426953643051
 20
390.2985329487348
 10
42.64748175088377
 20
392.0885100085
 10
42.69069396533705
 20
393.9225945659617
 10
42.73390617979035
 20
395.7995085985903
 10
42.77711839424368
 20
397.7177626171289
 10
42.82033060869701
 20
399.675837299697
 10
42.86354282315036
 20
401.6722133244142
 10
42.90675503760372
 20
403.7053713694003
 10
42.94996725205707
 20
405.7737921127749
 10
42.99317946651043
 20
407.8759562326575
 10
43.03639168096379
 20
410.0103444071677
 10
43.07960389541713
 20
412.1754373144252
 10
43.12281610987047
 20
414.3697156325497
 10
43.16602832432378
 20
416.5916507160134
 10
43.20924053877708
 20
418.839596136572
 10
43.25245275323038
 20
421.111824764053
 10
43.29566496768364
 20
423.4066078947225
 10
43.3388771821369
 20
425.7222168248464
 10
43.38208939659015
 20
428.0569228506909
 10
43.42530161104338
 20
430.408997268522
 10
43.4685138254966
 20
432.7767113746058
 10
43.5117260399498
 20
435.1583364652084
 10
43.55493825440298
 20
437.5521438365955
 10
43.59815046885616
 20
439.9564047731678
 10
43.64136268330933
 20
442.3693753174436
 10
43.6845748977625
 20
444.7892663810957
 10
43.72778711221566
 20
447.2142805622293
 10
43.77099932666883
 20
449.6426204589491
 10
43.81421154112198
 20
452.0724886693602
 10
43.85742375557518
 20
454.5020877915678
 10
43.90063597002838
 20
456.9296204236763
 10
43.94384818448161
 20
459.3532891637914
 10
43.98706039893485
 20
461.7712966100175
 10
44.03027261338814
 20
464.1818453604599
 10
44.07348482784145
 20
466.5831402635092
 10
44.1166970422948
 20
468.9734260937168
 10
44.15990925674817
 20
471.3509819114407
 10
44.20312147120157
 20
473.7140878910443
 10
44.24633368565497
 20
476.0610242068911
 10
44.28954590010837
 20
478.3900710333448
 10
44.33275811456178
 20
480.6995085447688
 10
44.37597032901518
 20
482.987616915527
 10
44.41918254346854
 20
485.2526763199826
 10
44.4623947579219
 20
487.4929669324994
 10
44.5056069723752
 20
489.7067689275747
 10
44.54881918682847
 20
491.8924004422147
 10
44.59203140128172
 20
494.0483245868485
 10
44.63524361573492
 20
496.1730390732819
 10
44.67845583018811
 20
498.2650416133208
 10
44.72166804464127
 20
500.3228299187712
 10
44.76488025909441
 20
502.344901701439
 10
44.80809247354756
 20
504.3297546731299
 10
44.8513046880007
 20
506.2758865456501
 10
44.89451690245385
 20
508.1817950308053
 10
44.937729116907
 20
510.0459778404016
 10
44.98094133136017
 20
511.8669386633499
 10
45.02415354581337
 20
513.6433381234013
 10
45.06736576026657
 20
515.3740054187954
 10
45.11057797471979
 20
517.0577780565432
 10
45.15379018917304
 20
518.6934935436551
 10
45.19700240362629
 20
520.2799893871417
 10
45.24021461807956
 20
521.8161030940137
 10
45.28342683253283
 20
523.3006721712817
 10
45.32663904698612
 20
524.7325341259564
 10
45.36985126143942
 20
526.1105264650483
 10
45.41306347589273
 20
527.4334866955683
 10
45.45627569034605
 20
528.7003105049853
 10
45.49948790479937
 20
529.9101811098542
 10
45.5427001192527
 20
531.0623703921221
 10
45.58591233370602
 20
532.1561502588829
 10
45.62912454815934
 20
533.1907926172298
 10
45.67233676261265
 20
534.1655693742567
 10
45.71554897706596
 20
535.0797524370571
 10
45.75876119151926
 20
535.9326137127243
 10
45.80197340597255
 20
536.7234251083526
 10
45.8451856204258
 20
537.4514585310345
 10
45.88839783487904
 20
538.1159906504934
 10
45.93161004933226
 20
538.7164985405099
 10
45.97482226378546
 20
539.2527287940076
 10
46.01803447823863
 20
539.7244469711146
 10
46.06124669269182
 20
540.1314186319591
 10
46.104458907145
 20
540.4734093366692
 10
46.1476711215977
 20
540.75018464537
210
0.0
220
0.0
230
-1.0
  0
LWPOLYLINE
  5
30F
330
1F
100
AcDbEntity
  8
0
  6
CONTINUOUS
 62
     7
100
AcDbPolyline
 90
      113
 70
     0
 43
0.0
 10
-78.69224779414414
 20
362.2048966836898
 10
-78.64903587191088
 20
362.2377548709692
 10
-78.60582394967766
 20
362.3364227531382
 10
-78.56261202744436
 20
362.5009424880055
 10
-78.5194001052111
 20
362.73135623338
 10
-78.47618818297782
 20
363.0276882841313
 10
-78.43297626074448
 20
363.3896901660162
 10
-78.38976433851118
 20
363.8169005846085
 10
-78.34655241627789
 20
364.3088526043013
 10
-78.30334049404456
 20
364.8650792894881
 10
-78.26012857181124
 20
365.4851137045618
 10
-78.2169166495779
 20
366.168488913916
 10
-78.1737047273446
 20
366.9147379819437
 10
-78.13049280511127
 20
367.7233939730384
 10
-78.08728088287799
 20
368.5939899515931
 10
-78.04406896064471
 20
369.5260589709965
 10
-78.00085703841143
 20
370.5190427310487
 10
-77.95764511617817
 20
371.5720701071901
 10
-77.91443319394494
 20
372.6842030700998
 10
-77.87122127171169
 20
373.8545035904567
 10
-77.82800934947846
 20
375.0820336389396
 10
-77.78479742724525
 20
376.3658551862276
 10
-77.74158550501201
 20
377.7050302029995
 10
-77.69837358277876
 20
379.0986206599341
 10
-77.6551616605455
 20
380.5456885277106
 10
-77.61194973831225
 20
382.0452957770078
 10
-77.56873781607898
 20
383.5964957022308
 10
-77.52552589384568
 20
385.1981502313022
 10
-77.48231397161238
 20
386.8489343668607
 10
-77.43910204937904
 20
388.5475153236644
 10
-77.39589012714573
 20
390.2925603164712
 10
-77.35267820491241
 20
392.0827365600391
 10
-77.30946628267907
 20
393.9167112691262
 10
-77.26625436044576
 20
395.7931516584904
 10
-77.22304243821243
 20
397.71072494289
 10
-77.17983051597912
 20
399.6680983370826
 10
-77.13661859374581
 20
401.6639390558265
 10
-77.09340667151251
 20
403.696871294192
 10
-77.05019474927923
 20
405.7653287098373
 10
-77.00698282704597
 20
407.8676922269025
 10
-76.9637709048127
 20
410.0023427676624
 10
-76.92055898257946
 20
412.167661254391
 10
-76.8773470603462
 20
414.3620286093631
 10
-76.83413513811297
 20
416.5838257548531
 10
-76.7909232158797
 20
418.8314336131353
 10
-76.74771129364647
 20
421.1032331064843
 10
-76.70449937141323
 20
423.3976051571745
 10
-76.66128744917997
 20
425.71292873659
 10
-76.61807552694673
 20
428.0475163894309
 10
-76.57486360471344
 20
430.3995994523296
 10
-76.53165168248019
 20
432.7674043172919
 10
-76.48843976024692
 20
435.1491573763236
 10
-76.44522783801365
 20
437.5430850214302
 10
-76.40201591578035
 20
439.9474136446177
 10
-76.35880399354708
 20
442.360369637892
 10
-76.31559207131379
 20
444.7801793932586
 10
-76.2723801490805
 20
447.2050693027234
 10
-76.22916822684722
 20
449.6332657582921
 10
-76.18595630461394
 20
452.0629939936817
 10
-76.14274438238064
 20
454.4924725853795
 10
-76.09953246014734
 20
456.9199177360929
 10
-76.05632053791405
 20
459.3435456456064
 10
-76.01310861568076
 20
461.7615725137047
 10
-75.96989669344745
 20
464.1722145401723
 10
-75.92668477121416
 20
466.5736879247938
 10
-75.88347284898087
 20
468.9642088673538
 10
-75.84026092674756
 20
471.3419935676367
 10
-75.79704900451426
 20
473.7052582254274
 10
-75.753837082281
 20
476.0522199032225
 10
-75.71062516004771
 20
478.3811460046318
 10
-75.6674132378144
 20
480.6903811553506
 10
-75.62420131558112
 20
482.9782765304433
 10
-75.58098939334783
 20
485.2431833049743
 10
-75.53777747111455
 20
487.4834526540077
 10
-75.49456554888127
 20
489.6974357526082
 10
-75.45135362664797
 20
491.88348377584
 10
-75.40814170441469
 20
494.0399478987674
 10
-75.36492978218142
 20
496.1651792964548
 10
-75.32171785994812
 20
498.2575291439663
 10
-75.27850593771484
 20
500.3153710955802
 10
-75.23529401548156
 20
502.3372480253842
 10
-75.19208209324826
 20
504.3217798762495
 10
-75.14887017101498
 20
506.2675869815941
 10
-75.1056582487817
 20
508.1732896748354
 10
-75.06244632654843
 20
510.0375082893914
 10
-75.01923440431513
 20
511.8588631586792
 10
-74.97602248208186
 20
513.6359746161168
 10
-74.93281055984859
 20
515.3674629951217
 10
-74.88959863761532
 20
517.0519486291112
 10
-74.84638671538207
 20
518.6880528608689
 10
-74.80317479314881
 20
520.2745175607029
 10
-74.75996287091556
 20
521.8103178226135
 10
-74.7167509486823
 20
523.2944554170606
 10
-74.67353902644906
 20
524.7259321145044
 10
-74.63032710421581
 20
526.1037496854049
 10
-74.58711518198255
 20
527.4269099002223
 10
-74.5439032597493
 20
528.6944145294165
 10
-74.50069133751605
 20
529.9052653434476
 10
-74.45747941528278
 20
531.0584641127757
 10
-74.41426749304948
 20
532.1530126078608
 10
-74.37105557081621
 20
533.1879400117326
 10
-74.3278436485829
 20
534.1625503501825
 10
-74.28463172634959
 20
535.0763061555651
 10
-74.24141980411628
 20
535.9286718723317
 10
-74.19820788188295
 20
536.7191119449345
 10
-74.15499595964963
 20
537.4470908178251
 10
-74.1117840374163
 20
538.1120729354556
 10
-74.06857211518297
 20
538.7135227422774
 10
-74.02536019294968
 20
539.2509046827427
 10
-73.98214827071635
 20
539.723683201303
 10
-73.93893634848304
 20
540.1313231245557
 10
-73.89572442624971
 20
540.473421318599
 10
-73.85251250401654
 20
540.7498994430209
210
0.0
220
0.0
230
-1.0
  0
LWPOLYLINE
  5
310
330
1F
100
AcDbEntity
  8
0
  6
CONTINUOUS
 62
     7
100
AcDbPolyline
 90
        3
 70
     0
 43
0.0
 10
59.45397584216498
 20
538.0638324029264
 10
59.38577073502623
 20
538.1950115980446
 10
59.36363837180092
 20
538.2033803837883
  0
LWPOLYLINE
  5
311
330
1F
100
AcDbEntity
  8
0
  6
CONTINUOUS
 62
     7
100
AcDbPolyline
 90
      113
 70
     0
 43
0.0
 10
54.73209714095456
 20
362.6572026936915
 10
54.68888530359578
 20
362.9338778381824
 10
54.645673466237
 20
363.2762577096581
 10
54.60246162887822
 20
363.684173027644
 10
54.55924979151945
 20
364.157143494343
 10
54.51603795416069
 20
364.694652690107
 10
54.47282611680192
 20
365.2961841952886
 10
54.42961427944316
 20
365.9612215902397
 10
54.3864024420844
 20
366.6892484553128
 10
54.34319060472563
 20
367.47974837086
 10
54.29997876736687
 20
368.3322049172336
 10
54.25676693000811
 20
369.2461016747858
 10
54.21355509264934
 20
370.220922223869
 10
54.17034325529058
 20
371.2561231217158
 10
54.1271314179318
 20
372.3508856202651
 10
54.08391958057303
 20
373.5042302112983
 10
54.04070774321425
 20
374.7151753720486
 10
53.99749590585547
 20
375.9827395797494
 10
53.95428406849668
 20
377.3059413116341
 10
53.91107223113789
 20
378.6837990449361
 10
53.8678603937791
 20
380.1153312568885
 10
53.82464855642032
 20
381.5995564247249
 10
53.78143671906153
 20
383.1354930256784
 10
53.73822488170274
 20
384.722159269888
 10
53.69501304434395
 20
386.3584740043744
 10
53.65180120698516
 20
388.0431084220432
 10
53.60858936962639
 20
389.7746957743436
 10
53.56537753226759
 20
391.5518693127249
 10
53.5221656949088
 20
393.3732622886365
 10
53.47895385755002
 20
395.2375079535275
 10
53.43574202019126
 20
397.1432395588477
 10
53.39253018283249
 20
399.0890903560459
 10
53.34931834547373
 20
401.0736935965717
 10
53.30610650811497
 20
403.0956825318743
 10
53.26289467075622
 20
405.1536796418434
 10
53.2196828333975
 20
407.2461571070713
 10
53.17647099603877
 20
409.3714767288998
 10
53.13325915868003
 20
411.5279977604006
 10
53.0900473213213
 20
413.7140794546456
 10
53.04683548396258
 20
415.9280810647065
 10
53.00362364660387
 20
418.1683618436548
 10
52.96041180924513
 20
420.4332810445623
 10
52.91719997188641
 20
422.7211979205009
 10
52.87398813452769
 20
425.0304717245422
 10
52.83077629716894
 20
427.3594616999199
 10
52.78756445981018
 20
429.7064980524513
 10
52.74435262245144
 20
432.0698180980477
 10
52.70114078509268
 20
434.4476406170802
 10
52.65792894773393
 20
436.8381843899201
 10
52.61471711037515
 20
439.239668196938
 10
52.57150527301637
 20
441.6503108185053
 10
52.5282934356576
 20
444.0683310349932
 10
52.48508159829883
 20
446.4919476267723
 10
52.44186976094006
 20
448.9193793742141
 10
52.39865792358127
 20
451.3488450576895
 10
52.35544608622249
 20
453.7785635700741
 10
52.3122342488637
 20
456.2067560415067
 10
52.26902241150492
 20
458.6316456604993
 10
52.22581057414615
 20
461.0514556922125
 10
52.18259873678736
 20
463.4644094018065
 10
52.13938689942859
 20
465.8687300544424
 10
52.09617506206982
 20
468.2626409152805
 10
52.05296322471104
 20
470.6443652494814
 10
52.00975138735226
 20
473.0121263222057
 10
51.96653954999348
 20
475.3641473986139
 10
51.92332771263472
 20
477.6986517438667
 10
51.88011587527595
 20
480.0138866563703
 10
51.83690403791718
 20
482.3081988013693
 10
51.79369220055842
 20
484.5799605212943
 10
51.75048036319965
 20
486.8275441586083
 10
51.7072685258409
 20
489.0493220557751
 10
51.66405668848213
 20
491.243666555258
 10
51.62084485112337
 20
493.4089499995205
 10
51.5776330137646
 20
495.5435447310261
 10
51.53442117640583
 20
497.6458230922382
 10
51.49120933904706
 20
499.7141574256205
 10
51.4479975016883
 20
501.7469242366931
 10
51.40478566432952
 20
503.7426252509047
 10
51.36157382697075
 20
505.6999063704224
 10
51.31836198961198
 20
507.6174214754611
 10
51.27515015225321
 20
509.4938244462357
 10
51.23193831489444
 20
511.3277691629614
 10
51.18872647753566
 20
513.1179095058535
 10
51.14551464017689
 20
514.862899355127
 10
51.10230280281811
 20
516.5613925909969
 10
51.05909096545935
 20
518.2120430936786
 10
51.01587912810058
 20
519.8135047433869
 10
50.97266729074182
 20
521.3644794209744
 10
50.92945545338305
 20
522.8639262333129
 10
50.88624361602429
 20
524.3108900875753
 10
50.84303177866553
 20
525.704415950345
 10
50.79981994130678
 20
527.0435487882047
 10
50.75660810394801
 20
528.3273335677372
 10
50.71339626658925
 20
529.5548152555258
 10
50.67018442923049
 20
530.7250388181532
 10
50.62697259187171
 20
531.8370492222023
 10
50.58376075451294
 20
532.8898914342561
 10
50.54054891715418
 20
533.882614068741
 10
50.49733707979539
 20
534.8144477271525
 10
50.45412524243662
 20
535.684885709072
 10
50.41091340507784
 20
536.4934417890543
 10
50.36770156771905
 20
537.2396297416542
 10
50.32448973036026
 20
537.9229633414272
 10
50.28127789300148
 20
538.5429563629283
 10
50.23806605564268
 20
539.0991225807123
 10
50.19485421828391
 20
539.5909757693346
 10
50.15164238092513
 20
540.0180297033501
 10
50.10843054356636
 20
540.3797981573138
 10
50.06521870620758
 20
540.6758411314771
 10
50.02200686884882
 20
540.9060420955033
 10
49.97879503149007
 20
541.0704226831551
 10
49.93558319413131
 20
541.1690050464882
 10
49.89237135677246
 20
541.2018113375576
  0
LWPOLYLINE
  5
312
330
1F
100
AcDbEntity
  8
0
  6
CONTINUOUS
 62
     7
100
AcDbPolyline
 90
        4
 70
     0
 43
0.0
 10
95.15229746682651
 20
531.9163348754346
 10
95.13141684532737
 20
532.0188390662082
 10
95.06721981769763
 20
532.1222156525371
 10
94.98184398010444
 20
532.2061573138719
210
0.0
220
0.0
230
-1.0
  0
LWPOLYLINE
  5
313
330
1F
100
AcDbEntity
  8
0
  6
CONTINUOUS
 62
     7
100
AcDbPolyline
 90
        9
 70
     0
 43
0.0
 10
145.8477025331735
 20
404.0343779112371
 10
146.1403380161977
 20
404.0474628614652
 10
146.4217276817212
 20
404.0862148648505
 10
146.6810578827029
 20
404.1491447036352
 10
146.9083627049533
 20
404.2338340194063
 10
147.0949069516273
 20
404.337028249253
 10
147.2335218319404
 20
404.4547616967942
 10
147.3188804537783
 20
404.5825099316668
 10
147.3477025331735
 20
404.7153636608464
  0
LWPOLYLINE
  5
314
330
1F
100
AcDbEntity
  8
0
  6
CONTINUOUS
 62
     7
100
AcDbPolyline
 90
        9
 70
     0
 43
0.0
 10
145.8477025331735
 20
358.147695344111
 10
146.1403380161977
 20
358.1733760048927
 10
146.4217276817211
 20
358.249431093846
 10
146.6810578827029
 20
358.3729378565546
 10
146.9083627049533
 20
358.5391499973909
 10
147.0949069516273
 20
358.7416800769955
 10
147.2335218319404
 20
358.9727449779894
 10
147.3188804537783
 20
359.2234650058099
 10
147.3477025331735
 20
359.4842051303935
  0
LWPOLYLINE
  5
315
330
1F
100
AcDbEntity
  8
0
  6
CONTINUOUS
 62
     7
100
AcDbPolyline
 90
        9
 70
     0
 43
0.0
 10
145.8477025331735
 20
384.2106813668029
 10
146.1403380161977
 20
384.2292078423235
 10
146.4217276817212
 20
384.2840753068209
 10
146.6810578827029
 20
384.3731752344043
 10
146.9083627049533
 20
384.4930835648246
 10
147.0949069516273
 20
384.6391922881892
 10
147.2335218319404
 20
384.8058865281978
 10
147.3188804537783
 20
384.9867603186901
 10
147.3477025331735
 20
385.1748627813327
  0
LWPOLYLINE
  5
316
330
1F
100
AcDbEntity
  8
0
  6
CONTINUOUS
 62
     7
100
AcDbPolyline
 90
        3
 70
     0
 43
0.0
 10
69.15235398041916
 20
365.2841177633189
 10
69.22056367600239
 20
365.2033845279799
 10
69.22105593850206
 20
365.2033803838903
  0
LWPOLYLINE
  5
317
330
1F
100
AcDbEntity
  8
0
  6
CONTINUOUS
 62
     7
100
AcDbPolyline
 90
       32
 70
     0
 43
0.0
 10
94.65229746682601
 20
370.9983617933476
 10
94.66576273687093
 20
371.0051239682464
 10
94.67909921293638
 20
371.0118809280124
 10
94.69233580602354
 20
371.0186522811719
 10
94.70542463719435
 20
371.0254179813061
 10
94.73164005075112
 20
371.0392045815656
 10
94.75715178439798
 20
371.0529653167218
 10
94.78215141656507
 20
371.0668336603736
 10
94.8063510961604
 20
371.0806733436063
 10
94.8301337461478
 20
371.0947307563321
 10
94.85308335581824
 20
371.1087846884554
 10
94.87792787417682
 20
371.1246193832809
 10
94.90167305600744
 20
371.140447896738
 10
94.92439221959167
 20
371.156329755432
 10
94.9459847924616
 20
371.172201849095
 10
94.96679675265074
 20
371.1883395226126
 10
94.9864460909115
 20
371.2044661476723
 10
95.00499109518765
 20
371.2206280436476
 10
95.0223827049989
 20
371.2367792050751
 10
95.0439835934641
 20
371.2584966531285
 10
95.06355287141186
 20
371.280209339342
 10
95.08117892205867
 20
371.3020022772486
 10
95.09680802919368
 20
371.3237949356438
 10
95.1106878680118
 20
371.34597615913
 10
95.12254649951548
 20
371.3681641961144
 10
95.13243036128485
 20
371.3904313959879
 10
95.1403152895109
 20
371.4127133255431
 10
95.145403095967
 20
371.4314476539363
 10
95.1490949852431
 20
371.4502126842514
 10
95.15138833330397
 20
371.4689930819296
 10
95.1522839295244
 20
371.4878099404962
 10
95.15229746682651
 20
371.4904258923444
210
0.0
220
0.0
230
-1.0
  0
LWPOLYLINE
  5
318
330
1F
100
AcDbEntity
  8
0
  6
CONTINUOUS
 62
     7
100
AcDbPolyline
 90
      113
 70
     0
 43
0.0
 10
-88.69255966079275
 20
362.204768702411
 10
-88.64934599371294
 20
362.237069872671
 10
-88.60613232663313
 20
362.3352405357168
 10
-88.56291865955332
 20
362.4993485710738
 10
-88.51970499247349
 20
362.7294617290815
 10
-88.47649132539368
 20
363.0255304627889
 10
-88.43327765831387
 20
363.3871715931741
 10
-88.39006399123404
 20
363.8139430206097
 10
-88.34685032415422
 20
364.3054026454686
 10
-88.3036366570744
 20
364.8611083681238
 10
-88.26042298999457
 20
365.4806180889481
 10
-88.21720932291477
 20
366.1634897083147
 10
-88.17399565583494
 20
366.9092811265959
 10
-88.13078198875513
 20
367.7175502441652
 10
-88.08756832167533
 20
368.5878549613954
 10
-88.04435465459551
 20
369.5197383583567
 10
-88.0011409875157
 20
370.512495636593
 10
-87.9579273204359
 20
371.565216869839
 10
-87.91471365335609
 20
372.6769859578386
 10
-87.87149998627629
 20
373.8468868003354
 10
-87.8282863191965
 20
375.0740032970731
 10
-87.78507265211668
 20
376.3574193477955
 10
-87.74185898503691
 20
377.6962188522462
 10
-87.6986453179571
 20
379.089485710169
 10
-87.6554316508773
 20
380.5363038213073
 10
-87.6122179837975
 20
382.0357570836185
 10
-87.56900431671774
 20
383.5868566672357
 10
-87.52579064963794
 20
385.1883477966839
 10
-87.48257698255816
 20
386.8389149242613
 10
-87.43936331547837
 20
388.5372425022659
 10
-87.39614964839856
 20
390.2820149829956
 10
-87.3529359813188
 20
392.0719168187485
 10
-87.30972231423898
 20
393.9056324618226
 10
-87.2665086471592
 20
395.7818463645161
 10
-87.2232949800794
 20
397.6992429791267
 10
-87.18008131299959
 20
399.6565067579526
 10
-87.13686764591979
 20
401.6523165101647
 10
-87.09365397884
 20
403.6852132528597
 10
-87.05044031176018
 20
405.7535956143068
 10
-87.00722664468037
 20
407.855855659987
 10
-86.96401297760056
 20
409.9903854553812
 10
-86.92079931052075
 20
412.1555770659705
 10
-86.87758564344094
 20
414.3498225572354
 10
-86.83437197636111
 20
416.5715139946572
 10
-86.79115830928131
 20
418.8190434437166
 10
-86.74794464220147
 20
421.0908029698945
 10
-86.70473097512166
 20
423.3851846386719
 10
-86.66151730804185
 20
425.7005578028832
 10
-86.61830364096204
 20
428.0351846045766
 10
-86.57508997388223
 20
430.3872955822883
 10
-86.53187630680242
 20
432.7551212700512
 10
-86.4886626397226
 20
435.1368922018985
 10
-86.4454489726428
 20
437.5308389118631
 10
-86.40223530556301
 20
439.9351919339781
 10
-86.35902163848321
 20
442.3481818022765
 10
-86.31580797140343
 20
444.7680390507914
 10
-86.27259430432363
 20
447.1929942135557
 10
-86.22938063724385
 20
449.621277634246
 10
-86.18616697016408
 20
452.0511123596455
 10
-86.14295330308433
 20
454.4807120169058
 10
-86.09973963600454
 20
456.908289609577
 10
-86.0565259689248
 20
459.3320581412092
 10
-86.01331230184503
 20
461.7502306153528
 10
-85.97009863476525
 20
464.1610200355577
 10
-85.9268849676855
 20
466.5626394053747
 10
-85.88367130060571
 20
468.9533017283536
 10
-85.84045763352593
 20
471.3312200080446
 10
-85.79724396644613
 20
473.6946072479981
 10
-85.75403029936633
 20
476.0416900037666
 10
-85.71081663228651
 20
478.3707777600843
 10
-85.6676029652067
 20
480.6802113589743
 10
-85.62438929812687
 20
482.9683317011175
 10
-85.58117563104705
 20
485.2334796871952
 10
-85.5379619639672
 20
487.4739962178887
 10
-85.4947482968874
 20
489.6882221938793
 10
-85.45153462980755
 20
491.8744985158477
 10
-85.40832096272771
 20
494.0311660844756
 10
-85.36510729564787
 20
496.156565800444
 10
-85.32189362856806
 20
498.2490399649167
 10
-85.27867996148824
 20
500.3070254543204
 10
-85.23546629440844
 20
502.3291121456878
 10
-85.19225262732863
 20
504.3139038560445
 10
-85.14903896024883
 20
506.2600044024159
 10
-85.10582529316902
 20
508.1660176018279
 10
-85.06261162608924
 20
510.0305472713059
 10
-85.01939795900944
 20
511.8521972278754
 10
-84.97618429192964
 20
513.6295712885623
 10
-84.93297062484986
 20
515.361273270392
 10
-84.88975695777008
 20
517.04590699039
 10
-84.84654329069029
 20
518.6821054586495
 10
-84.8033296236105
 20
520.2687357697592
 10
-84.76011595653071
 20
521.8047775634506
 10
-84.71690228945093
 20
523.2892111959036
 10
-84.67368862237115
 20
524.7210170232983
 10
-84.63047495529138
 20
526.0991754018152
 10
-84.58726128821158
 20
527.4226666876341
 10
-84.5440476211318
 20
528.6904712369355
 10
-84.50083395405201
 20
529.9015694058994
 10
-84.45762028697219
 20
531.0549415507057
 10
-84.41440661989242
 20
532.1495689877574
 10
-84.3711929528126
 20
533.184572515274
 10
-84.3279792857328
 20
534.1593573581282
 10
-84.28476561865298
 20
535.07336339132
 10
-84.24155195157319
 20
535.9260304898498
 10
-84.19833828449337
 20
536.716798528718
 10
-84.15512461741356
 20
537.4451073829244
 10
-84.11191095033375
 20
538.1103969274697
 10
-84.06869728325393
 20
538.7121070373536
 10
-84.02548361617411
 20
539.2496775875768
 10
-83.98226994909427
 20
539.7225484531392
 10
-83.93905628201448
 20
540.1301871394888
 10
-83.89584261493462
 20
540.472356821071
 10
-83.85262894785477
 20
540.7489999623558
210
0.0
220
0.0
230
-1.0
  0
LWPOLYLINE
  5
319
330
1F
100
AcDbEntity
  8
0
  6
CONTINUOUS
 62
     7
100
AcDbPolyline
 90
        9
 70
     0
 43
0.0
 10
147.3477025331735
 20
518.2318979864463
 10
147.3188804537783
 20
518.4200004490889
 10
147.2335218319404
 20
518.6008742395811
 10
147.0949069516273
 20
518.7675684795897
 10
146.9083627049533
 20
518.9136772029543
 10
146.6810578827029
 20
519.0335855333747
 10
146.4217276817212
 20
519.1226854609581
 10
146.1403380161977
 20
519.1775529254554
 10
145.8477025331735
 20
519.196079400976
  0
LWPOLYLINE
  5
31A
330
1F
100
AcDbEntity
  8
0
  6
CONTINUOUS
 62
     7
100
AcDbPolyline
 90
      113
 70
     0
 43
0.0
 10
84.7322995115029
 20
362.6555679826114
 10
84.68908584998526
 20
362.9324430529671
 10
84.64587218846762
 20
363.2750188913
 10
84.60265852694997
 20
363.6828538652322
 10
84.55944486543235
 20
364.1555058752645
 10
84.5162312039147
 20
364.6925328218971
 10
84.47301754239705
 20
365.2934926056305
 10
84.42980388087942
 20
365.9579431269655
 10
84.38659021936178
 20
366.6854422864021
 10
84.34337655784415
 20
367.4755479844412
 10
84.30016289632653
 20
368.3278181215832
 10
84.25694923480889
 20
369.2418088453147
 10
84.21373557329125
 20
370.2169172481356
 10
84.17052191177362
 20
371.2522565929604
 10
84.12730825025601
 20
372.3469107797971
 10
84.08409458873835
 20
373.4999637086538
 10
84.04088092722077
 20
374.7104992795387
 10
83.99766726570314
 20
375.9776013924596
 10
83.95445360418552
 20
377.3003539474248
 10
83.91123994266789
 20
378.6778408444423
 10
83.86802628115026
 20
380.1091459835202
 10
83.82481261963265
 20
381.5933532646667
 10
83.78159895811504
 20
383.1295197752057
 10
83.73838529659743
 20
384.7164600497522
 10
83.69517163507983
 20
386.3528597316181
 10
83.6519579735622
 20
388.0374032734811
 10
83.60874431204464
 20
389.7687751280189
 10
83.56553065052701
 20
391.5456597479092
 10
83.5223169890094
 20
393.3667415858296
 10
83.4791033274918
 20
395.230705094458
 10
83.43588966597417
 20
397.1362347264719
 10
83.39267600445656
 20
399.0820149345491
 10
83.34946234293893
 20
401.0667298046158
 10
83.3062486814213
 20
403.0889815278645
 10
83.26303501990367
 20
405.1471874995828
 10
83.21982135838607
 20
407.2397397857158
 10
83.17660769686842
 20
409.365030452208
 10
83.13339403535078
 20
411.5214515650049
 10
83.09018037383316
 20
413.7073951900512
 10
83.04696671231551
 20
415.9212533932919
 10
83.00375305079787
 20
418.161418240672
 10
82.96053938928026
 20
420.4262817981365
 10
82.9173257277626
 20
422.7142361316303
 10
82.87411206624496
 20
425.0236657953154
 10
82.83089840472732
 20
427.3528636937282
 10
82.7876847432097
 20
429.7000614818895
 10
82.74447108169207
 20
432.0634896943433
 10
82.70125742017444
 20
434.4413788656331
 10
82.6580437586568
 20
436.8319595303025
 10
82.61483009713916
 20
439.2334622228956
 10
82.57161643562156
 20
441.6441174779559
 10
82.52840277410397
 20
444.0621558300272
 10
82.48518911258634
 20
446.4858078136531
 10
82.44197545106876
 20
448.9133039593891
 10
82.39876178955116
 20
451.3428708078134
 10
82.35554812803358
 20
453.7727234162777
 10
82.31233446651596
 20
456.2010747888474
 10
82.2691208049984
 20
458.626137929589
 10
82.2259071434808
 20
461.0461258425682
 10
82.18269348196323
 20
463.4592515318512
 10
82.13947982044563
 20
465.8637280015037
 10
82.09626615892805
 20
468.2577682555917
 10
82.05305249741043
 20
470.6395852981812
 10
82.00983883589282
 20
473.0073921333383
 10
81.9666251743752
 20
475.35940567982
 10
81.92341151285757
 20
477.6939094387939
 10
81.88019785133993
 20
480.0092425977799
 10
81.83698418982227
 20
482.303746057938
 10
81.79377052830465
 20
484.5757607204281
 10
81.750556866787
 20
486.8236274864104
 10
81.70734320526932
 20
489.0456872570447
 10
81.66412954375167
 20
491.2402809334914
 10
81.620915882234
 20
493.4057494169101
 10
81.57770222071638
 20
495.5404336084613
 10
81.5344885591987
 20
497.6426744100652
 10
81.49127489768108
 20
499.7108600325648
 10
81.44806123616344
 20
501.743553790341
 10
81.40484757464581
 20
503.7393595008219
 10
81.36163391312817
 20
505.6968809814363
 10
81.31842025161056
 20
507.6147220496127
 10
81.27520659009294
 20
509.4914865227797
 10
81.23199292857532
 20
511.3257782183659
 10
81.18877926705771
 20
513.1162009537996
 10
81.1455656055401
 20
514.8613585465096
 10
81.1023519440225
 20
516.5598548139242
 10
81.0591382825049
 20
518.2103006611583
 10
81.01592462098728
 20
519.8114834800515
 10
80.97271095946967
 20
521.362374973586
 10
80.92949729795207
 20
522.8619554982363
 10
80.88628363643446
 20
524.3092054104762
 10
80.84306997491686
 20
525.7031050667811
 10
80.79985631339925
 20
527.0426348236244
 10
80.75664265188165
 20
528.3267750374813
 10
80.71342899036402
 20
529.5545060648258
 10
80.67021532884641
 20
530.7248082621327
 10
80.62700166732881
 20
531.836661985876
 10
80.58378800581116
 20
532.8891113773469
 10
80.54057434429355
 20
533.881505363606
 10
80.49736068277593
 20
534.8132838039683
 10
80.4541470212583
 20
535.6838865735955
 10
80.41093335974065
 20
536.4927535476497
 10
80.36771969822303
 20
537.2393246012924
 10
80.32450603670539
 20
537.9230396096859
 10
80.28129237518775
 20
538.5433384479919
 10
80.23807871367013
 20
539.0996609913724
 10
80.1948650521525
 20
539.5914471149891
 10
80.15165139063485
 20
540.018142014706
 10
80.10843772911717
 20
540.3793997797893
 10
80.06522406759954
 20
540.6751470520202
 10
80.02201040608192
 20
540.9053288087848
 10
79.97879674456425
 20
541.0698900274692
 10
79.93558308304662
 20
541.1687756854601
 10
79.89236942152891
 20
541.2019307601433
  0
LWPOLYLINE
  5
31B
330
1F
100
AcDbEntity
  8
0
  6
CONTINUOUS
 62
     7
100
AcDbPolyline
 90
       33
 70
     0
 43
0.0
 10
-36.1478530623254
 20
540.7513700917214
 10
-36.1528492669531
 20
540.7791329178392
 10
-36.15784547158081
 20
540.8060199106526
 10
-36.1628416762085
 20
540.8320306684227
 10
-36.1678378808362
 20
540.8571647894116
 10
-36.1728340854639
 20
540.8814218718809
 10
-36.1778302900916
 20
540.9048015140921
 10
-36.1828264947193
 20
540.9273033143066
 10
-36.187822699347
 20
540.9489268707864
 10
-36.19281890397469
 20
540.9696717817927
 10
-36.19781510860239
 20
540.9895376455876
 10
-36.20281131323009
 20
541.0085240604324
 10
-36.20780751785779
 20
541.0266306245888
 10
-36.2128037224855
 20
541.0438569363185
 10
-36.21779992711319
 20
541.060202593883
 10
-36.22279613174089
 20
541.0756671955439
 10
-36.22779233636859
 20
541.090250339563
 10
-36.23278854099628
 20
541.1039516242017
 10
-36.23778474562398
 20
541.1167706477219
 10
-36.24278095025168
 20
541.1287070083849
 10
-36.24777715487937
 20
541.1397603044525
 10
-36.25277335950708
 20
541.1499301341864
 10
-36.25776956413477
 20
541.159216095848
 10
-36.26276576876246
 20
541.1676177876991
 10
-36.26776197339017
 20
541.1751348080012
 10
-36.27275817801787
 20
541.181766755016
 10
-36.27775438264555
 20
541.1875132270052
 10
-36.28275058727326
 20
541.1923738222303
 10
-36.28774679190096
 20
541.1963481389528
 10
-36.29274299652864
 20
541.1994357754345
 10
-36.29773920115635
 20
541.2016363299372
 10
-36.30273540578404
 20
541.2029494007221
 10
-36.30773161041148
 20
541.2033746223399
  0
LWPOLYLINE
  5
31C
330
1F
100
AcDbEntity
  8
0
  6
CONTINUOUS
 62
     7
100
AcDbPolyline
 90
        9
 70
     0
 43
0.0
 10
3.847702533173458
 20
496.9054086000421
 10
4.042792855189591
 20
496.9145033047267
 10
4.230385965538557
 20
496.9414379143798
 10
4.403272766193074
 20
496.9851773470576
 10
4.554809314360024
 20
497.0440407208915
 10
4.679172145476025
 20
497.1157659494363
 10
4.77158206568477
 20
497.1975966723827
 10
4.828487813576716
 20
497.2863881809392
 10
4.847702533173487
 20
497.3787282672269
  0
LWPOLYLINE
  5
31D
330
1F
100
AcDbEntity
  8
0
  6
CONTINUOUS
 62
     7
100
AcDbPolyline
 90
        3
 70
     0
 43
0.0
 10
28.15229746682651
 20
532.7488298280388
 10
28.08643684365694
 20
532.8300640468715
 10
27.98871817642184
 20
532.8697698624387
210
0.0
220
0.0
230
-1.0
  0
LWPOLYLINE
  5
31E
330
1F
100
AcDbEntity
  8
0
  6
CONTINUOUS
 62
     7
100
AcDbPolyline
 90
        9
 70
     0
 43
0.0
 10
3.847702533173458
 20
532.9120178709657
 10
4.04279285518959
 20
532.9283571505275
 10
4.230385965538557
 20
532.9767470798624
 10
4.403272766193074
 20
533.0553280611236
 10
4.554809314360024
 20
533.1610802712698
 10
4.679172145476025
 20
533.2899397121718
 10
4.77158206568477
 20
533.4369543877807
 10
4.828487813576716
 20
533.5964746065598
 10
4.847702533173487
 20
533.7623700959613
  0
LWPOLYLINE
  5
31F
330
1F
100
AcDbEntity
  8
0
  6
CONTINUOUS
 62
     7
100
AcDbPolyline
 90
        9
 70
     0
 43
0.0
 10
4.847702533173487
 20
369.6443906718177
 10
4.828487813576716
 20
369.8102861612192
 10
4.771582065684771
 20
369.9698063799983
 10
4.679172145476026
 20
370.1168210556072
 10
4.554809314360025
 20
370.2456804965091
 10
4.403272766193075
 20
370.3514327066554
 10
4.230385965538559
 20
370.4300136879165
 10
4.042792855189592
 20
370.4784036172515
 10
3.847702533173459
 20
370.4947428968132
  0
LWPOLYLINE
  5
320
330
1F
100
AcDbEntity
  8
0
  6
CONTINUOUS
 62
     7
100
AcDbPolyline
 90
       42
 70
     0
 43
0.0
 10
-27.65229746682651
 20
406.5013521677369
 10
-27.66862228218031
 20
406.5012435214251
 10
-27.68494709753413
 20
406.5009172363208
 10
-27.70146704545817
 20
406.5003643367927
 10
-27.71788054307386
 20
406.4995915882386
 10
-27.73429242290443
 20
406.498593353068
 10
-27.75052969209019
 20
406.4973808162289
 10
-27.76681687345148
 20
406.4959354339517
 10
-27.782895989657
 20
406.4942786022122
 10
-27.79804261950219
 20
406.4925037013987
 10
-27.81294941769299
 20
406.4905484135854
 10
-27.82774625242432
 20
406.4883966898985
 10
-27.84223767429789
 20
406.4860789912445
 10
-27.85649426150128
 20
406.4835879546681
 10
-27.87041738678287
 20
406.4809452777699
 10
-27.88414591867638
 20
406.4781274295859
 10
-27.89753409883433
 20
406.4751670523289
 10
-27.915188640311
 20
406.4709243448358
 10
-27.93219457526436
 20
406.4664479897339
 10
-27.94873340718501
 20
406.4616979345794
 10
-27.9645633760163
 20
406.4567527535077
 10
-27.97978615751628
 20
406.4515938720531
 10
-27.99429880826717
 20
406.4462694034726
 10
-28.00827382615481
 20
406.4407254381943
 10
-28.02155454687988
 20
406.4350324345493
 10
-28.03825112567365
 20
406.4272026078059
 10
-28.05373951156878
 20
406.4191516202522
 10
-28.06808886870352
 20
406.4108720272886
 10
-28.08125432048231
 20
406.4024172055937
 10
-28.09345460028978
 20
406.3936545582922
 10
-28.10446526508967
 20
406.3847509566549
 10
-28.11433085317303
 20
406.3756970015098
 10
-28.12303231358124
 20
406.3665354487593
 10
-28.12976269887293
 20
406.3583636681946
 10
-28.13560296105672
 20
406.350130374937
 10
-28.1405693581743
 20
406.3418285490956
 10
-28.14465599848745
 20
406.3334826325465
 10
-28.14789394955316
 20
406.3250214679118
 10
-28.15024398952473
 20
406.3165317488945
 10
-28.15171001462533
 20
406.3080059486285
 10
-28.15228751905449
 20
406.2994670491244
 10
-28.15229746682657
 20
406.2981894255755
  0
LWPOLYLINE
  5
321
330
1F
100
AcDbEntity
  8
0
  6
CONTINUOUS
 62
     7
100
AcDbPolyline
 90
      105
 70
     0
 43
0.0
 10
94.73217935143829
 20
362.6562614763849
 10
94.68564272451538
 20
362.9575233553422
 10
94.63910609759317
 20
363.3348177484331
 10
94.59256947067162
 20
363.7876237263723
 10
94.54603284375054
 20
364.3154203598739
 10
94.49949621682988
 20
364.9176867196528
 10
94.45295958990947
 20
365.593901876423
 10
94.40642296298921
 20
366.343544900899
 10
94.35988633606902
 20
367.1660948637956
 10
94.31334970914875
 20
368.0610308358268
 10
94.26681308222828
 20
369.0278163942106
 10
94.22027645530761
 20
370.0656157374092
 10
94.17373982838673
 20
371.1733222832511
 10
94.12720320146572
 20
372.3498196937721
 10
94.08066657454455
 20
373.5939916310082
 10
94.03412994762328
 20
374.9047217569953
 10
93.98759332070198
 20
376.2808937337693
 10
93.94105669378061
 20
377.721391223366
 10
93.89452006685923
 20
379.2250978878216
 10
93.84798343993789
 20
380.7908973891717
 10
93.80144681301664
 20
382.4176380905793
 10
93.7549101860954
 20
384.1038598330692
 10
93.7083735591742
 20
385.8479430526012
 10
93.6618369322531
 20
387.6482668512664
 10
93.61530030533198
 20
389.5032103311558
 10
93.5687636784109
 20
391.4111525943602
 10
93.52222705148986
 20
393.3704727429709
 10
93.47569042456881
 20
395.3795498790789
 10
93.42915379764777
 20
397.4367631047751
 10
93.38261717072673
 20
399.5404915221507
 10
93.33608054380566
 20
401.6890594525478
 10
93.28954391688457
 20
403.8805433973282
 10
93.24300728996349
 20
406.1129498132566
 10
93.19647066304238
 20
408.3842851528231
 10
93.14993403612127
 20
410.6925558685171
 10
93.10339740920016
 20
413.0357684128284
 10
93.05686078227902
 20
415.4119292382468
 10
93.01032415535789
 20
417.819044797262
 10
92.96378752843677
 20
420.2551215423636
 10
92.91725090151564
 20
422.7181657558985
 10
92.87071427459452
 20
425.2061283363847
 10
92.8241776476734
 20
427.7168254270425
 10
92.77764102075227
 20
430.2480530677122
 10
92.73110439383116
 20
432.7976072982344
 10
92.68456776691004
 20
435.3632841584493
 10
92.63803113998893
 20
437.9428796881975
 10
92.59149451306781
 20
440.5341899273194
 10
92.5449578861467
 20
443.1350109156552
 10
92.4984212592256
 20
445.7431386930458
 10
92.4518846323045
 20
448.3563690163278
 10
92.40534800538339
 20
450.9724851860752
 10
92.35881137846226
 20
453.5892534260703
 10
92.31227475154117
 20
456.2044387240548
 10
92.26573812462009
 20
458.8158060677699
 10
92.21920149769898
 20
461.4211204449575
 10
92.17266487077788
 20
464.0181468433591
 10
92.12612824385677
 20
466.6046502507166
 10
92.07959161693566
 20
469.1783956547713
 10
92.03305499001456
 20
471.7371480432652
 10
91.98651836309344
 20
474.278677562715
 10
91.93998173617233
 20
476.8008347450287
 10
91.8934451092512
 20
479.3015336787518
 10
91.84690848233008
 20
481.7786901871297
 10
91.80037185540897
 20
484.2302200934074
 10
91.75383522848784
 20
486.6540392208299
 10
91.70729860156672
 20
489.0480633926426
 10
91.6607619746456
 20
491.4102084320903
 10
91.61422534772447
 20
493.7383901624184
 10
91.56768872080333
 20
496.0305244068719
 10
91.5211520938822
 20
498.2845543448054
 10
91.47461546696107
 20
500.4986252633317
 10
91.42807884003993
 20
502.67097300709
 10
91.3815422131188
 20
504.7998338472821
 10
91.33500558619768
 20
506.8834440551101
 10
91.28846895927654
 20
508.9200399017765
 10
91.24193233235545
 20
510.907857658483
 10
91.19539570543432
 20
512.8451335964318
 10
91.1488590785132
 20
514.7301039868253
 10
91.10232245159212
 20
516.5610051009519
 10
91.055785824671
 20
518.3361529738406
 10
91.00924919774991
 20
520.0541729121143
 10
90.96271257082883
 20
521.7137651690003
 10
90.91617594390772
 20
523.3136299977261
 10
90.86963931698664
 20
524.8524676515191
 10
90.82310269006553
 20
526.3289783836067
 10
90.77656606314444
 20
527.7418624472165
 10
90.73002943622333
 20
529.0898200955754
 10
90.68349280930224
 20
530.3715515819115
 10
90.63695618238111
 20
531.5857581796478
 10
90.59041955546
 20
532.7313097915406
 10
90.54388292853889
 20
533.8074314779232
 10
90.49734630161774
 20
534.8133932487801
 10
90.45080967469661
 20
535.7484651140976
 10
90.40427304777546
 20
536.6119170838605
 10
90.35773642085435
 20
537.4030191680545
 10
90.31119979393318
 20
538.1210413766645
 10
90.26466316701206
 20
538.7652537196761
 10
90.21812654009095
 20
539.334926207075
 10
90.17158991316983
 20
539.8293372401489
 10
90.12505328624869
 20
540.2480388872272
 10
90.07851665932758
 20
540.5909109977099
 10
90.03198003240645
 20
540.8578527456806
 10
89.98544340548534
 20
541.0487633052227
 10
89.93890677856425
 20
541.1635418504196
 10
89.89237015164308
 20
541.2020875553548
  0
LWPOLYLINE
  5
322
330
1F
100
AcDbEntity
  8
0
  6
CONTINUOUS
 62
     7
100
AcDbPolyline
 90
        3
 70
     0
 43
0.0
 10
-50.56302740727947
 20
538.1111778167666
 10
-50.6291248354071
 20
538.2024207558164
 10
-50.63662588368528
 20
538.2033803838004
  0
LWPOLYLINE
  5
323
330
1F
100
AcDbEntity
  8
0
  6
CONTINUOUS
 62
     7
100
AcDbPolyline
 90
        8
 70
     0
 43
0.0
 10
-27.73961606723349
 20
454.8126056646114
 10
-27.83911230576219
 20
454.779275680961
 10
-27.93212589990071
 20
454.7277010226131
 10
-28.01166559299786
 20
454.6603909904918
 10
-28.08256298104678
 20
454.567691225207
 10
-28.12983086316681
 20
454.4616051790715
 10
-28.15107705224865
 20
454.3450260195866
 10
-28.15192295754593
 20
454.3199134044028
  0
LWPOLYLINE
  5
324
330
1F
100
AcDbEntity
  8
0
  6
CONTINUOUS
 62
     7
100
AcDbPolyline
 90
        7
 70
     0
 43
0.0
 10
-28.13996081535977
 20
449.0801776974441
 10
-28.12648532816295
 20
448.9714202177901
 10
-28.08805164020722
 20
448.8667906431629
 10
-28.02368792278759
 20
448.7700960519615
 10
-27.94459527831089
 20
448.6959858234083
 10
-27.85698675184059
 20
448.6435576736386
 10
-27.73438888678204
 20
448.6043821670222
  0
LWPOLYLINE
  5
325
330
1F
100
AcDbEntity
  8
0
  6
CONTINUOUS
 62
     7
100
AcDbPolyline
 90
        3
 70
     0
 43
0.0
 10
39.43264043953278
 20
538.1217745961051
 10
39.36538087309685
 20
538.2033271056318
 10
39.36361676958327
 20
538.2033803838799
  0
LWPOLYLINE
  5
326
330
1F
100
AcDbEntity
  8
0
  6
CONTINUOUS
 62
     7
100
AcDbPolyline
 90
        3
 70
     0
 43
0.0
 10
19.47809325245475
 20
537.9787673880846
 10
19.41130587754737
 20
538.1643192243866
 10
19.36355571699144
 20
538.2033803837732
  0
LWPOLYLINE
  5
327
330
1F
100
AcDbEntity
  8
0
  6
CONTINUOUS
 62
     7
100
AcDbPolyline
 90
       33
 70
     0
 43
0.0
 10
31.14787716922029
 20
362.6551582881787
 10
31.15286881530917
 20
362.6274203205375
 10
31.15786046139804
 20
362.6005569182818
 10
31.16285210748691
 20
362.5745685016596
 10
31.16784375357578
 20
362.549455490919
 10
31.17283539966465
 20
362.525218306308
 10
31.17782704575353
 20
362.5018573680746
 10
31.1828186918424
 20
362.4793730964668
 10
31.18781033793126
 20
362.4577659117326
 10
31.19280198402014
 20
362.4370362341199
 10
31.19779363010901
 20
362.417184483877
 10
31.20278527619788
 20
362.3982110812518
 10
31.20777692228675
 20
362.3801164464923
 10
31.21276856837562
 20
362.3629009998463
 10
31.21776021446449
 20
362.3465651615621
 10
31.22275186055337
 20
362.3311093518877
 10
31.22774350664224
 20
362.316533991071
 10
31.23273515273112
 20
362.3028394993601
 10
31.23772679881999
 20
362.2900262970029
 10
31.24271844490886
 20
362.2780948042474
 10
31.24771009099773
 20
362.2670454413418
 10
31.2527017370866
 20
362.2568786285341
 10
31.25769338317548
 20
362.2475947860721
 10
31.26268502926435
 20
362.2391943342039
 10
31.26767667535322
 20
362.2316776931778
 10
31.2726683214421
 20
362.2250452832414
 10
31.27765996753097
 20
362.2192975246429
 10
31.28265161361985
 20
362.2144348376304
 10
31.28764325970872
 20
362.2104576424518
 10
31.29263490579759
 20
362.207366359355
 10
31.29762655188647
 20
362.2051613099788
 10
31.30261819797534
 20
362.2038422954464
 10
31.30760984406458
 20
362.2034089457632
210
0.0
220
0.0
230
-1.0
  0
LWPOLYLINE
  5
328
330
1F
100
AcDbEntity
  8
0
  6
CONTINUOUS
 62
     7
100
AcDbPolyline
 90
        9
 70
     0
 43
0.0
 10
4.847702533173487
 20
355.2483888681467
 10
4.828487813576716
 20
355.443388198249
 10
4.771582065684771
 20
355.6308938134522
 10
4.679172145476026
 20
355.8036999781187
 10
4.554809314360025
 20
355.9551658482511
 10
4.403272766193075
 20
356.0794706754031
 10
4.230385965538557
 20
356.1718374947782
 10
4.04279285518959
 20
356.2287167013079
 10
3.847702533173458
 20
356.2479224589834
  0
LWPOLYLINE
  5
329
330
1F
100
AcDbEntity
  8
0
  6
CONTINUOUS
 62
     7
100
AcDbPolyline
 90
        3
 70
     0
 43
0.0
 10
-40.52056308028051
 20
537.9740458524817
 10
-40.58908460942784
 20
538.1648321359542
 10
-40.636638665833
 20
538.2033803837825
  0
LWPOLYLINE
  5
32A
330
1F
100
AcDbEntity
  8
0
  6
CONTINUOUS
 62
     7
100
AcDbPolyline
 90
        3
 70
     0
 43
0.0
 10
-60.54089295293826
 20
538.0475506792155
 10
-60.60929140814794
 20
538.1906833837381
 10
-60.63660234699525
 20
538.2033803838491
  0
LWPOLYLINE
  5
32B
330
1F
100
AcDbEntity
  8
0
  6
CONTINUOUS
 62
     7
100
AcDbPolyline
 90
        9
 70
     0
 43
0.0
 10
3.847702533173458
 20
547.1588383087957
 10
4.042792855189591
 20
547.1780440664711
 10
4.230385965538557
 20
547.2349232730008
 10
4.403272766193075
 20
547.327290092376
 10
4.554809314360024
 20
547.451594919528
 10
4.679172145476026
 20
547.6030607896603
 10
4.77158206568477
 20
547.7758669543267
 10
4.828487813576716
 20
547.9633725695301
 10
4.847702533173487
 20
548.1583718996324
  0
LWPOLYLINE
  5
32C
330
1F
100
AcDbEntity
  8
0
  6
CONTINUOUS
 62
     7
100
AcDbPolyline
 90
       42
 70
     0
 43
0.0
 10
28.15229746682651
 20
546.6730255850968
 10
28.15228751905449
 20
546.6760983722112
 10
28.15130636028695
 20
546.7036769268536
 10
28.148711234559
 20
546.7312461831652
 10
28.14446830526793
 20
546.7588520699233
 10
28.13856031893064
 20
546.7863564551556
 10
28.13080255102887
 20
546.8142095279123
 10
28.12124967336532
 20
546.8418500002243
 10
28.10980602349228
 20
546.8693272582872
 10
28.09645336696481
 20
546.8964581669918
 10
28.08643684365697
 20
546.9143555630287
 10
28.07552657704113
 20
546.9320272850401
 10
28.06367257541023
 20
546.9494864161712
 10
28.05087878551291
 20
546.9666574157048
 10
28.03691776440062
 20
546.9837440885025
 10
28.02194139133007
 20
547.0004565459124
 10
28.00586674788349
 20
547.0168044362778
 10
27.98871817642187
 20
547.0326769196098
 10
27.97572843620891
 20
547.0437482257821
 10
27.9621695561833
 20
547.0545156709213
 10
27.94790029701175
 20
547.0650490339065
 10
27.93306014546512
 20
547.0752038922457
 10
27.9175520245121
 20
547.0850087779199
 10
27.90146893192722
 20
547.0943672817272
 10
27.88460677744348
 20
547.1033514578809
 10
27.86713531048657
 20
547.1118216264654
 10
27.85328208941704
 20
547.1179631649816
 10
27.83908458970513
 20
547.1237539632563
 10
27.82439885407273
 20
547.1292282475356
 10
27.80940586229455
 20
547.1342957602047
 10
27.79401778419397
 20
547.1389666127362
 10
27.77835498037784
 20
547.1431863519144
 10
27.76222749486468
 20
547.1469825596954
 10
27.74583427646404
 20
547.1502845314591
 10
27.73449310055723
 20
547.1522465795695
 10
27.72305508331299
 20
547.1539622309178
 10
27.71145022858398
 20
547.1554356834052
 10
27.69978134130471
 20
547.1566485226282
 10
27.68800936051455
 20
547.1576008670318
 10
27.67619769602858
 20
547.1582844802532
 10
27.66426123186785
 20
547.1586995949436
 10
27.65229746682651
 20
547.1588383087957
210
0.0
220
0.0
230
-1.0
  0
LWPOLYLINE
  5
32D
330
1F
100
AcDbEntity
  8
0
  6
CONTINUOUS
 62
     7
100
AcDbPolyline
 90
       73
 70
     0
 43
0.0
 10
-14.73249086292111
 20
362.6558620105718
 10
-14.69242435834128
 20
362.9096471535723
 10
-14.65235785376145
 20
363.2196234980809
 10
-14.61229134918161
 20
363.5857016688809
 10
-14.57222484460176
 20
364.0077922907558
 10
-14.53215834002191
 20
364.4857685175118
 10
-14.49209183544206
 20
365.0192479055989
 10
-14.4520253308622
 20
365.6077412990106
 10
-14.41195882628233
 20
366.2507591853941
 10
-14.37189232170246
 20
366.9478120523972
 10
-14.3318258171226
 20
367.6984103876669
 10
-14.29175931254273
 20
368.5020646788506
 10
-14.25169280796286
 20
369.358285413596
 10
-14.211626303383
 20
370.2665830795503
 10
-14.17155979880314
 20
371.2264681643609
 10
-14.13149329422329
 20
372.2374511556754
 10
-14.09142678964344
 20
373.2990369011221
 10
-14.0513602850636
 20
374.4105680066374
 10
-14.01129378048376
 20
375.5712044042472
 10
-13.97122727590393
 20
376.7800962814829
 10
-13.93116077132411
 20
378.0363938258758
 10
-13.89109426674429
 20
379.3392472249573
 10
-13.85102776216447
 20
380.6878066662588
 10
-13.81096125758467
 20
382.0812223373119
 10
-13.77089475300486
 20
383.5186444256477
 10
-13.73082824842505
 20
384.9992231187977
 10
-13.69076174384525
 20
386.5221086042935
 10
-13.65069523926545
 20
388.0864510409666
 10
-13.61062873468565
 20
389.6913389050825
 10
-13.57056223010586
 20
391.3356685438899
 10
-13.53049572552606
 20
393.0182990034193
 10
-13.49042922094626
 20
394.738089329701
 10
-13.45036271636646
 20
396.4938985687653
 10
-13.41029621178664
 20
398.2845857666428
 10
-13.37022970720683
 20
400.1090099693638
 10
-13.330163202627
 20
401.9660302229588
 10
-13.29009669804716
 20
403.8545055734581
 10
-13.25003019346731
 20
405.7732950668922
 10
-13.20996368888745
 20
407.7212577492913
 10
-13.16989718430757
 20
409.6972406714235
 10
-13.12983067972768
 20
411.6999726512299
 10
-13.08976417514778
 20
413.7281152238617
 10
-13.04969767056787
 20
415.780329145859
 10
-13.00963116598796
 20
417.8552751737615
 10
-12.96956466140805
 20
419.9516140641094
 10
-12.92949815682815
 20
422.0680065734427
 10
-12.88943165224824
 20
424.2031134583011
 10
-12.84936514766835
 20
426.3555954752251
 10
-12.80929864308847
 20
428.5241133807542
 10
-12.76923213850861
 20
430.7073279314288
 10
-12.72916563392876
 20
432.9038992847231
 10
-12.68909912934894
 20
435.1124539658044
 10
-12.64903262476913
 20
437.3315676572082
 10
-12.60896612018934
 20
439.559811814998
 10
-12.56889961560956
 20
441.7957578952374
 10
-12.52883311102979
 20
444.0379773539894
 10
-12.48876660645003
 20
446.2850416473178
 10
-12.44870010187027
 20
448.5355222312856
 10
-12.40863359729052
 20
450.7879905619563
 10
-12.36856709271076
 20
453.0410180953934
 10
-12.328500588131
 20
455.2931762876602
 10
-12.28843408355124
 20
457.5430365948199
 10
-12.24836757897147
 20
459.7891745998317
 10
-12.20830107439168
 20
462.0301838355524
 10
-12.16823456981189
 20
464.26466271385
 10
-12.12816806523209
 20
466.4912096466899
 10
-12.08810156065228
 20
468.7084230460372
 10
-12.04803505607246
 20
470.9149013238577
 10
-12.00796855149262
 20
473.1092428921166
 10
-11.96790204691278
 20
475.2900461627793
 10
-11.92783554233293
 20
477.4559095478112
 10
-11.88776903775306
 20
479.6054314591777
 10
-11.84770253317349
 20
481.7372103088279
210
0.0
220
0.0
230
-1.0
  0
LWPOLYLINE
  5
32E
330
1F
100
AcDbEntity
  8
0
  6
CONTINUOUS
 62
     7
100
AcDbPolyline
 90
       42
 70
     0
 43
0.0
 10
27.65229746682651
 20
356.2479224589835
 10
27.66861891697622
 20
356.2481806584969
 10
27.68494036712596
 20
356.2489560888691
 10
27.70145682759087
 20
356.2502701006924
 10
27.7178669044322
 20
356.2521066736618
 10
27.73427536515172
 20
356.2544792674038
 10
27.75050932349493
 20
356.2573613988541
 10
27.76679316408295
 20
356.260797234905
 10
27.78286906802432
 20
356.2647360645664
 10
27.79801572785972
 20
356.2689568806313
 10
27.81292260535326
 20
356.2736072528341
 10
27.82771957381907
 20
356.278725503223
 10
27.84221117233901
 20
356.2842393295213
 10
27.85646798134933
 20
356.2901664085044
 10
27.87039136499617
 20
356.2964552734948
 10
27.88412019964878
 20
356.3031621007348
 10
27.89750871470134
 20
356.3102093742639
 10
27.91516309145395
 20
356.3203110203438
 10
27.932168959068
 20
356.3309716678967
 10
27.94870781750872
 20
356.342287167857
 10
27.96453790245046
 20
356.354070786434
 10
27.97976088692675
 20
356.3663672019208
 10
27.99427382173167
 20
356.3790621232861
 10
28.00824920656836
 20
356.3922845104669
 10
28.02153037009678
 20
356.4058667327853
 10
28.03822766200312
 20
356.4245541847378
 10
28.05371688484195
 20
356.4437782279375
 10
28.06806720229618
 20
356.463557384451
 10
28.08123373084445
 20
356.4837648316577
 10
28.09343522272495
 20
356.5047183319289
 10
28.10444721615918
 20
356.5260196714098
 10
28.1143142527874
 20
356.5476918811216
 10
28.12301727864785
 20
356.569633111864
 10
28.12975114268729
 20
356.5892199067586
 10
28.13559441504485
 20
356.608963496454
 10
28.14056337050583
 20
356.6288809571885
 10
28.14465211021688
 20
356.6489138210929
 10
28.14789173460189
 20
356.6692332743488
 10
28.15024297927005
 20
356.6896312722209
 10
28.15170974432302
 20
356.710126037106
 10
28.15228751905449
 20
356.7306623955679
 10
28.15229746682657
 20
356.7337351826823
210
0.0
220
0.0
230
-1.0
  0
LWPOLYLINE
  5
32F
330
1F
100
AcDbEntity
  8
0
  6
CONTINUOUS
 62
     7
100
AcDbPolyline
 90
        3
 70
     0
 43
0.0
 10
-369.0000000000261
 20
343.2771381728833
 10
-365.0
 20
343.2033803838895
 10
-360.9999999999739
 20
343.2771381728833
210
0.0
220
0.0
230
-1.0
  0
LWPOLYLINE
  5
330
330
1F
100
AcDbEntity
  8
0
  6
CONTINUOUS
 62
     7
100
AcDbPolyline
 90
       35
 70
     0
 43
0.0
 10
-95.15229746682648
 20
372.3308410519518
 10
-95.15302620255977
 20
372.3469711164446
 10
-95.15520998874239
 20
372.3630930797087
 10
-95.15884519384842
 20
372.379154444675
 10
-95.16392818635217
 20
372.3951027142743
 10
-95.17074297085246
 20
372.4115134903391
 10
-95.17913064758012
 20
372.4277608406949
 10
-95.18907818199779
 20
372.4437807800869
 10
-95.20057253956801
 20
372.4595093232603
 10
-95.21152596082139
 20
372.4725798332306
 10
-95.22360383041422
 20
372.4854056754378
 10
-95.23678775248639
 20
372.497942308165
 10
-95.25105933117791
 20
372.5101451896948
 10
-95.26701889576519
 20
372.5224242459774
 10
-95.28416280846874
 20
372.5342978299168
 10
-95.30244904644358
 20
372.5457090491108
 10
-95.32183558684481
 20
372.5566010111576
 10
-95.33633629502874
 20
372.5640350744421
 10
-95.35139532760905
 20
372.5711794187789
 10
-95.36698626984189
 20
372.5780118464272
 10
-95.38308270698332
 20
372.5845101596461
 10
-95.40014841394603
 20
372.5908268479395
 10
-95.41773742932688
 20
372.5967656768248
 10
-95.43580713989877
 20
372.6023032064131
 10
-95.45431493243458
 20
372.6074159968156
 10
-95.47275814979602
 20
372.6119752924273
 10
-95.49159380236044
 20
372.6161088721571
 10
-95.51076825503397
 20
372.619798843835
 10
-95.53022787272272
 20
372.6230273152906
 10
-95.55066827528427
 20
372.6258729905545
 10
-95.57137459250764
 20
372.6282054024633
 10
-95.59227419959598
 20
372.6300132069101
 10
-95.61329447175221
 20
372.6312850597878
 10
-95.63277565245414
 20
372.6319783229574
 10
-95.65229746682654
 20
372.6322099107012
  0
LWPOLYLINE
  5
331
330
1F
100
AcDbEntity
  8
0
  6
CONTINUOUS
 62
     7
100
AcDbPolyline
 90
       33
 70
     0
 43
0.0
 10
-28.85216542304657
 20
362.6542199263586
 10
-28.84717430291624
 20
362.6265158367667
 10
-28.84218318278591
 20
362.5996934973875
 10
-28.83719206265558
 20
362.5737532953713
 10
-28.83220094252525
 20
362.5486951464842
 10
-28.82720982239492
 20
362.5245189175376
 10
-28.82221870226459
 20
362.501224475343
 10
-28.81722758213425
 20
362.4788116867115
 10
-28.81223646200393
 20
362.4572804184551
 10
-28.8072453418736
 20
362.4366305373847
 10
-28.80225422174327
 20
362.4168619103118
 10
-28.79726310161294
 20
362.3979744040479
 10
-28.79227198148261
 20
362.3799678854045
 10
-28.78728086135228
 20
362.362842221193
 10
-28.78228974122195
 20
362.3465972782246
 10
-28.77729862109163
 20
362.3312329233109
 10
-28.77230750096129
 20
362.3167490232634
 10
-28.76731638083096
 20
362.3031454448931
 10
-28.76232526070064
 20
362.2904220550119
 10
-28.75733414057031
 20
362.2785787204309
 10
-28.75234302043997
 20
362.2676153079617
 10
-28.74735190030964
 20
362.2575316844155
 10
-28.74236078017932
 20
362.2483277166041
 10
-28.73736966004898
 20
362.2400032713384
 10
-28.73237853991866
 20
362.2325582154304
 10
-28.72738741978833
 20
362.2259924156909
 10
-28.72239629965799
 20
362.2203057389318
 10
-28.71740517952766
 20
362.2154980519641
 10
-28.71241405939734
 20
362.2115692215997
 10
-28.707422939267
 20
362.2085191146496
 10
-28.70243181913667
 20
362.2063475979256
 10
-28.69744069900634
 20
362.2050545382385
 10
-28.6924495788759
 20
362.2046398024003
210
0.0
220
0.0
230
-1.0
  0
LWPOLYLINE
  5
332
330
1F
100
AcDbEntity
  8
0
  6
CONTINUOUS
 62
     7
100
AcDbPolyline
 90
        3
 70
     0
 43
0.0
 10
89.45084310042955
 20
538.0735511693399
 10
89.38254231324701
 20
538.1972599372224
 10
89.36358966070766
 20
538.2033803837537
  0
LWPOLYLINE
  5
333
330
1F
100
AcDbEntity
  8
0
  6
CONTINUOUS
 62
     7
100
AcDbPolyline
 90
       35
 70
     0
 43
0.0
 10
95.15229746682648
 20
531.0759197158272
 10
95.15302620255977
 20
531.0597896513343
 10
95.15520998874239
 20
531.0436676880703
 10
95.15884519384842
 20
531.0276063231041
 10
95.16392818635217
 20
531.0116580535047
 10
95.17074297085246
 20
530.99524727744
 10
95.17913064758012
 20
530.9789999270841
 10
95.18907818199779
 20
530.962979987692
 10
95.20057253956801
 20
530.9472514445187
 10
95.21152596082139
 20
530.9341809345484
 10
95.22360383041422
 20
530.9213550923412
 10
95.23678775248636
 20
530.908818459614
 10
95.25105933117788
 20
530.8966155780842
 10
95.26701889576519
 20
530.8843365218015
 10
95.28416280846874
 20
530.8724629378622
 10
95.30244904644356
 20
530.8610517186683
 10
95.32183558684481
 20
530.8501597566215
 10
95.33633629502874
 20
530.8427256933369
 10
95.35139532760905
 20
530.8355813490001
 10
95.36698626984189
 20
530.8287489213518
 10
95.38308270698332
 20
530.8222506081328
 10
95.40014841394603
 20
530.8159339198395
 10
95.41773742932688
 20
530.8099950909543
 10
95.43580713989877
 20
530.8044575613659
 10
95.45431493243458
 20
530.7993447709634
 10
95.47275814979602
 20
530.7947854753518
 10
95.49159380236044
 20
530.7906518956219
 10
95.51076825503397
 20
530.786961923944
 10
95.53022787272272
 20
530.7837334524884
 10
95.55066827528427
 20
530.7808877772245
 10
95.57137459250764
 20
530.7785553653157
 10
95.59227419959598
 20
530.7767475608689
 10
95.61329447175221
 20
530.7754757079911
 10
95.63277565245414
 20
530.7747824448215
 10
95.65229746682654
 20
530.7745508570778
210
0.0
220
0.0
230
-1.0
  0
LWPOLYLINE
  5
334
330
1F
100
AcDbEntity
  8
0
  6
CONTINUOUS
 62
     7
100
AcDbPolyline
 90
       38
 70
     0
 43
0.0
 10
-95.65229746682654
 20
408.2772608261947
 10
-95.63152905770497
 20
408.2776433075051
 10
-95.61077863443789
 20
408.2787881381052
 10
-95.59009978317312
 20
408.2806913979983
 10
-95.5695460900585
 20
408.2833491671876
 10
-95.54854552345651
 20
408.2868718531539
 10
-95.52771560844542
 20
408.2911879740361
 10
-95.50711309004883
 20
408.2962847097037
 10
-95.48679471329046
 20
408.3021492400261
 10
-95.46734043249596
 20
408.30858112417
 10
-95.44818891570277
 20
408.3157275662938
 10
-95.429389250478
 20
408.3235692814854
 10
-95.41099052438861
 20
408.3320869848326
 10
-95.39249432698082
 20
408.3415522307798
 10
-95.3744565534641
 20
408.351717086753
 10
-95.35692591790546
 20
408.3625529272383
 10
-95.33995113437184
 20
408.3740311267218
 10
-95.32400432986502
 20
408.385792881397
 10
-95.30861093275625
 20
408.3981413610816
 10
-95.29380999776366
 20
408.4110440401269
 10
-95.27964057960533
 20
408.4244683928841
 10
-95.26573408035685
 20
408.4388166875753
 10
-95.25252209276802
 20
408.4536922402991
 10
-95.24003980722203
 20
408.4690537798355
 10
-95.22832241410214
 20
408.4848600349645
 10
-95.21768099442652
 20
408.5006339406978
 10
-95.20778122480525
 20
408.5168006866148
 10
-95.19864772257158
 20
408.5333181072382
 10
-95.19030510505857
 20
408.5501440370908
 10
-95.18255614710017
 20
408.5677662870127
 10
-95.17565947244721
 20
408.5856838505113
 10
-95.1696327784128
 20
408.603847395897
 10
-95.16449376231023
 20
408.6222075914808
 10
-95.1601221850927
 20
408.6413872796473
 10
-95.15670960850173
 20
408.6607502896695
 10
-95.1542631909713
 20
408.6802396012892
 10
-95.152790090935
 20
408.6997981942484
 10
-95.15229746682651
 20
408.7193690482893
  0
LWPOLYLINE
  5
335
330
1F
100
AcDbEntity
  8
0
  6
CONTINUOUS
 62
     7
100
AcDbPolyline
 90
       42
 70
     0
 43
0.0
 10
27.65229746682651
 20
370.4947428968132
 10
27.66862228218031
 20
370.4948293028893
 10
27.68494709753413
 20
370.4950888019119
 10
27.70146704545817
 20
370.4955285488626
 10
27.71788054307386
 20
370.4961431927143
 10
27.73429242290443
 20
370.4969372559906
 10
27.75052969209019
 20
370.4979018936708
 10
27.76681687345148
 20
370.4990519205351
 10
27.782895989657
 20
370.500370387319
 10
27.79804261950219
 20
370.5017830464195
 10
27.81294941769299
 20
370.5033395595441
 10
27.82774625242432
 20
370.5050527884032
 10
27.84223767429789
 20
370.5068985699439
 10
27.85649426150128
 20
370.5088828597583
 10
27.87041738678287
 20
370.5109884679125
 10
27.88414591867638
 20
370.5132342445485
 10
27.89753409883433
 20
370.5155942783877
 10
27.91518864031098
 20
370.5189777819327
 10
27.93219457526436
 20
370.522549133191
 10
27.94873340718498
 20
370.5263405548418
 10
27.96456337601627
 20
370.5302895872235
 10
27.97978615751625
 20
370.5344113051281
 10
27.99429880826715
 20
370.5386674940653
 10
28.00827382615481
 20
370.5431014931714
 10
28.02155454687985
 20
370.5476571901786
 10
28.03825112567365
 20
370.5539269715223
 10
28.05373951156878
 20
370.5603788541503
 10
28.06808886870349
 20
370.5670192365802
 10
28.08125432048231
 20
370.5738057098478
 10
28.09345460028975
 20
370.5808451981184
 10
28.10446526508967
 20
370.5880041149866
 10
28.11433085317303
 20
370.5952903339063
 10
28.12303231358124
 20
370.6026697327129
 10
28.12976269887293
 20
370.6092574968932
 10
28.13560296105669
 20
370.61590019959
 10
28.1405693581743
 20
370.6226036393626
 10
28.14465599848745
 20
370.6293481991231
 10
28.14789394955316
 20
370.636191549989
 10
28.15024398952473
 20
370.6430637273802
 10
28.15171001462533
 20
370.6499708980089
 10
28.15228751905449
 20
370.6568945015725
 10
28.15229746682657
 20
370.6579309397403
210
0.0
220
0.0
230
-1.0
  0
LWPOLYLINE
  5
336
330
1F
100
AcDbEntity
  8
0
  6
CONTINUOUS
 62
     7
100
AcDbPolyline
 90
       42
 70
     0
 43
0.0
 10
-28.15229746682651
 20
497.1085713422035
 10
-28.15228751905449
 20
497.1072937186546
 10
-28.15130636028695
 20
497.0958227159749
 10
-28.148711234559
 20
497.08434800756
 10
-28.14446830526793
 20
497.0728504657301
 10
-28.13856031893064
 20
497.0613876474047
 10
-28.13080255102887
 20
497.0497718279369
 10
-28.12124967336532
 20
497.0382370298551
 10
-28.10980602349225
 20
497.0267627986581
 10
-28.09645336696481
 20
497.0154258183443
 10
-28.08643684365694
 20
497.0079431586032
 10
-28.0755265770411
 20
497.000551718456
 10
-28.0636725754102
 20
496.9932461414323
 10
-28.05087878551288
 20
496.9860581671231
 10
-28.03691776440059
 20
496.9789025764334
 10
-28.02194139133007
 20
496.9719008859093
 10
-28.00586674788347
 20
496.9650492379211
 10
-27.98871817642184
 20
496.9583942919405
 10
-27.97572843620888
 20
496.9537508763069
 10
-27.96216955618327
 20
496.9492337312902
 10
-27.94790029701175
 20
496.9448136696533
 10
-27.93306014546509
 20
496.940551392027
 10
-27.9175520245121
 20
496.9364350316512
 10
-27.90146893192719
 20
496.932505181788
 10
-27.88460677744345
 20
496.9287316990786
 10
-27.86713531048654
 20
496.9251733701912
 10
-27.85328208941704
 20
496.9225928546502
 10
-27.8390845897051
 20
496.9201593667487
 10
-27.8243988540727
 20
496.9178585813445
 10
-27.80940586229452
 20
496.9157284916562
 10
-27.79401778419391
 20
496.9137649083914
 10
-27.77835498037781
 20
496.9119907818973
 10
-27.76222749486465
 20
496.9103945713016
 10
-27.74583427646402
 20
496.9090060578108
 10
-27.7344931005572
 20
496.9081809446909
 10
-27.72305508331296
 20
496.9074594189935
 10
-27.71145022858393
 20
496.9068397278882
 10
-27.69978134130469
 20
496.9063296267412
 10
-27.68800936051455
 20
496.9059290754973
 10
-27.67619769602855
 20
496.9056415455092
 10
-27.66426123186783
 20
496.9054669446731
 10
-27.65229746682651
 20
496.9054086000421
  0
LWPOLYLINE
  5
337
330
1F
100
AcDbEntity
  8
0
  6
CONTINUOUS
 62
     7
100
AcDbPolyline
 90
       38
 70
     0
 43
0.0
 10
95.65229746682654
 20
495.1294999415844
 10
95.63152905770497
 20
495.1291174602739
 10
95.61077863443789
 20
495.1279726296738
 10
95.59009978317312
 20
495.1260693697807
 10
95.5695460900585
 20
495.1234116005913
 10
95.54854552345654
 20
495.1198889146251
 10
95.52771560844542
 20
495.1155727937428
 10
95.50711309004883
 20
495.1104760580753
 10
95.48679471329046
 20
495.1046115277529
 10
95.46734043249596
 20
495.098179643609
 10
95.44818891570277
 20
495.0910332014852
 10
95.42938925047805
 20
495.0831914862935
 10
95.41099052438864
 20
495.0746737829464
 10
95.39249432698088
 20
495.0652085369992
 10
95.37445655346416
 20
495.0550436810259
 10
95.35692591790551
 20
495.0442078405407
 10
95.33995113437184
 20
495.0327296410572
 10
95.32400432986502
 20
495.020967886382
 10
95.30861093275625
 20
495.0086194066974
 10
95.29380999776372
 20
494.9957167276522
 10
95.27964057960538
 20
494.9822923748949
 10
95.2657340803569
 20
494.9679440802037
 10
95.25252209276805
 20
494.95306852748
 10
95.24003980722203
 20
494.9377069879436
 10
95.22832241410214
 20
494.9219007328145
 10
95.21768099442652
 20
494.9061268270812
 10
95.20778122480527
 20
494.8899600811642
 10
95.19864772257161
 20
494.8734426605408
 10
95.1903051050586
 20
494.8566167306882
 10
95.18255614710019
 20
494.8389944807663
 10
95.17565947244721
 20
494.8210769172678
 10
95.1696327784128
 20
494.802913371882
 10
95.16449376231023
 20
494.7845531762982
 10
95.1601221850927
 20
494.7653734881316
 10
95.15670960850173
 20
494.7460104781095
 10
95.1542631909713
 20
494.7265211664898
 10
95.152790090935
 20
494.7069625735306
 10
95.15229746682651
 20
494.6873917194897
210
0.0
220
0.0
230
-1.0
  0
LWPOLYLINE
  5
338
330
1F
100
AcDbEntity
  8
0
  6
CONTINUOUS
 62
     7
100
AcDbPolyline
 90
        9
 70
     0
 43
0.0
 10
4.847702533173487
 20
406.0280325005521
 10
4.828487813576716
 20
406.1203725868397
 10
4.771582065684771
 20
406.2091640953963
 10
4.679172145476026
 20
406.2909948183427
 10
4.554809314360025
 20
406.3627200468874
 10
4.403272766193075
 20
406.4215834207214
 10
4.230385965538559
 20
406.4653228533992
 10
4.042792855189592
 20
406.4922574630523
 10
3.847702533173459
 20
406.5013521677369
  0
ENDSEC
  0
SECTION
  2
OBJECTS
  0
DICTIONARY
  5
C
330
0
100
AcDbDictionary
  3
ACAD_GROUP
350
D
  3
ACAD_LAYOUT
350
1A
  3
ACAD_MATERIAL
350
43
  3
ACAD_MLEADERSTYLE
350
6B
  3
ACAD_MLINESTYLE
350
17
  3
ACAD_PLOTSETTINGS
350
19
  3
ACAD_SCALELIST
350
47
  3
ACAD_VISUALSTYLE
350
2A
  3
ACDBHEADERROUNDTRIPXREC
350
339
  3
ACDBVARIABLEDICTIONARY
350
35A
  0
DICTIONARY
  5
361
330
8
100
AcDbDictionary
280
     1
  3
ACAD_XREC_ROUNDTRIP
360
362
  0
DICTIONARY
  5
D
102
{ACAD_REACTORS
330
C
102
}
330
C
100
AcDbDictionary
  0
DICTIONARY
  5
1A
102
{ACAD_REACTORS
330
C
102
}
330
C
100
AcDbDictionary
  0
DICTIONARY
  5
43
102
{ACAD_REACTORS
330
C
102
}
330
C
100
AcDbDictionary
  3
BYBLOCK
350
45
  3
BYLAYER
350
44
  3
GLOBAL
350
46
  0
DICTIONARY
  5
6B
102
{ACAD_REACTORS
330
C
102
}
330
C
100
AcDbDictionary
  3
STANDARD
350
6C
  0
DICTIONARY
  5
17
102
{ACAD_REACTORS
330
C
102
}
330
C
100
AcDbDictionary
  3
STANDARD
350
18
  0
DICTIONARY
  5
19
102
{ACAD_REACTORS
330
C
102
}
330
C
100
AcDbDictionary
  0
DICTIONARY
  5
47
102
{ACAD_REACTORS
330
C
102
}
330
C
100
AcDbDictionary
  3
A0
350
48
  3
A1
350
49
  3
A2
350
4A
  3
A3
350
4B
  3
A4
350
4C
  3
A5
350
4D
  3
A6
350
4E
  3
A7
350
4F
  3
A8
350
50
  3
A9
350
51
  3
B0
350
52
  3
B1
350
53
  3
B2
350
54
  3
B3
350
55
  3
B4
350
56
  3
B5
350
57
  3
B6
350
58
  3
B7
350
59
  3
B8
350
5A
  3
B9
350
5B
  3
C0
350
5C
  3
C1
350
5D
  3
C2
350
5E
  3
C3
350
5F
  3
C4
350
60
  3
C5
350
61
  3
C6
350
62
  3
C7
350
63
  3
C8
350
64
  3
C9
350
65
  3
D0
350
66
  3
D1
350
67
  3
D2
350
68
  0
DICTIONARY
  5
2A
102
{ACAD_REACTORS
330
C
102
}
330
C
100
AcDbDictionary
  3
2DWIREFRAME
350
2F
  3
BASIC
350
32
  3
BRIGHTEN
350
36
  3
COLORCHANGE
350
3A
  3
CONCEPTUAL
350
34
  3
DIM
350
35
  3
EDGECOLOROFF
350
3D
  3
FACEPATTERN
350
39
  3
FLAT
350
2B
  3
FLATWITHEDGES
350
2C
  3
GOURAUD
350
2D
  3
GOURAUDWITHEDGES
350
2E
  3
HIDDEN
350
31
  3
JITTEROFF
350
3B
  3
LINEPATTERN
350
38
  3
OVERHANGOFF
350
3C
  3
REALISTIC
350
33
  3
SHADED
350
42
  3
SHADED_WITH_EDGES
350
41
  3
SHADES_OF_GRAY
350
3E
  3
SKETCHY
350
3F
  3
THICKEN
350
37
  3
WIREFRAME
350
30
  3
X-RAY
350
40
  0
DICTIONARY
  5
339
102
{ACAD_REACTORS
330
C
102
}
330
C
100
AcDbDictionary
  3
CEPSNID
350
343
  3
CEPSNTYPE
350
342
  3
DIMSTYLEDATA
350
359
  3
FINGERPRINTGUID
350
344
  3
HYPERLINKBASE
350
33C
  3
INSUNITS
350
341
  3
LAYOUTDICT
350
33E
  3
LWETCUNION
350
340
  3
PLOTSETDICT
350
33F
  3
PSVPSCALE
350
346
  3
PUCSBASE
350
349
  3
PUCSORGBACK
350
34F
  3
PUCSORGBOTTOM
350
34B
  3
PUCSORGFRONT
350
34E
  3
PUCSORGLEFT
350
34C
  3
PUCSORGRIGHT
350
34D
  3
PUCSORGTOP
350
34A
  3
PUCSORTHOREF
350
347
  3
PUCSORTHOVIEW
350
348
  3
STYLESHEET
350
33D
  3
TSTACKALIGN
350
33A
  3
TSTACKSIZE
350
33B
  3
UCSBASE
350
352
  3
UCSORGBACK
350
358
  3
UCSORGBOTTOM
350
354
  3
UCSORGFRONT
350
357
  3
UCSORGLEFT
350
355
  3
UCSORGRIGHT
350
356
  3
UCSORGTOP
350
353
  3
UCSORTHOREF
350
350
  3
UCSORTHOVIEW
350
351
  3
VERSIONGUID
350
345
  0
DICTIONARY
  5
35A
102
{ACAD_REACTORS
330
C
102
}
330
C
100
AcDbDictionary
  3
CANNOSCALE
350
363
  3
CMLEADERSTYLE
350
35C
  3
CTABLESTYLE
350
35B
  3
DIMASSOC
350
35F
  3
HIDETEXT
350
360
  3
MSLTSCALE
350
364
  0
XRECORD
  5
362
102
{ACAD_REACTORS
330
361
102
}
330
361
100
AcDbXrecord
102
VTR_0.000_0.000_1.000_1.000_VISUALSTYLE
340
2F
102
VTR_0.000_0.000_1.000_1.000_GRIDDISPLAY
 70
     3
102
VTR_0.000_0.000_1.000_1.000_GRIDMAJOR
 70
     5
102
VTR_0.000_0.000_1.000_1.000_DEFAULTLIGHTING
280
     1
102
VTR_0.000_0.000_1.000_1.000_DEFAULTLIGHTINGTYPE
 70
     1
102
VTR_0.000_0.000_1.000_1.000_BRIGHTNESS
141
0.0
102
VTR_0.000_0.000_1.000_1.000_CONTRAST
142
0.0
  0
MATERIAL
  5
45
102
{ACAD_REACTORS
330
43
102
}
102
{ACAD_XDICTIONARY
360
367
102
}
330
43
100
AcDbMaterial
  1
BYBLOCK
  0
MATERIAL
  5
44
102
{ACAD_REACTORS
330
43
102
}
102
{ACAD_XDICTIONARY
360
365
102
}
330
43
100
AcDbMaterial
  1
BYLAYER
  0
MATERIAL
  5
46
102
{ACAD_REACTORS
330
43
102
}
102
{ACAD_XDICTIONARY
360
369
102
}
330
43
100
AcDbMaterial
  1
GLOBAL
  0
ACAD_PROXY_OBJECT
  5
6C
102
{ACAD_REACTORS
330
6B
102
}
330
6B
100
AcDbProxyObject
 90
      499
 91
      505
 93
      610
310
40901902A4063FBFFFFFE056BD1B81E855B9FC0AD7A3703D0AD73F4214DD185B99185C9900AD7A3703D0AC73F90141901A02B5E8DC0F42B1CFC02B5E8DC0F42B1CFE5764000000000000300FC0
340
14
340
0
340
11
340
0
 94
        0
1001
ACAD_MLEADERVER
1070
     2
  0
MLINESTYLE
  5
18
102
{ACAD_REACTORS
330
17
102
}
330
17
100
AcDbMlineStyle
  2
Standard
 70
     0
  3

 62
   256
 51
90.0
 52
90.0
 71
     2
 49
0.5
 62
   256
  6
BYLAYER
 49
-0.5
 62
   256
  6
BYLAYER
  0
ACAD_PROXY_OBJECT
  5
48
102
{ACAD_REACTORS
330
47
102
}
330
47
100
AcDbProxyObject
 90
      499
 91
      503
 93
       41
310
903313A31580
  0
ACAD_PROXY_OBJECT
  5
49
102
{ACAD_REACTORS
330
47
102
}
330
47
100
AcDbProxyObject
 90
      499
 91
      503
 93
      105
310
903313A324000000000000004000
  0
ACAD_PROXY_OBJECT
  5
4A
102
{ACAD_REACTORS
330
47
102
}
330
47
100
AcDbProxyObject
 90
      499
 91
      503
 93
      105
310
903313A344000000000000104000
  0
ACAD_PROXY_OBJECT
  5
4B
102
{ACAD_REACTORS
330
47
102
}
330
47
100
AcDbProxyObject
 90
      499
 91
      503
 93
      105
310
903313A354000000000000144000
  0
ACAD_PROXY_OBJECT
  5
4C
102
{ACAD_REACTORS
330
47
102
}
330
47
100
AcDbProxyObject
 90
      499
 91
      503
 93
      105
310
903313A384000000000000204000
  0
ACAD_PROXY_OBJECT
  5
4D
102
{ACAD_REACTORS
330
47
102
}
330
47
100
AcDbProxyObject
 90
      499
 91
      503
 93
      113
310
904313A31304000000000000244000
  0
ACAD_PROXY_OBJECT
  5
4E
102
{ACAD_REACTORS
330
47
102
}
330
47
100
AcDbProxyObject
 90
      499
 91
      503
 93
      113
310
904313A31364000000000000304000
  0
ACAD_PROXY_OBJECT
  5
4F
102
{ACAD_REACTORS
330
47
102
}
330
47
100
AcDbProxyObject
 90
      499
 91
      503
 93
      113
310
904313A32304000000000000344000
  0
ACAD_PROXY_OBJECT
  5
50
102
{ACAD_REACTORS
330
47
102
}
330
47
100
AcDbProxyObject
 90
      499
 91
      503
 93
      113
310
904313A333040000000000003E4000
  0
ACAD_PROXY_OBJECT
  5
51
102
{ACAD_REACTORS
330
47
102
}
330
47
100
AcDbProxyObject
 90
      499
 91
      503
 93
      113
310
904313A34304000000000000444000
  0
ACAD_PROXY_OBJECT
  5
52
102
{ACAD_REACTORS
330
47
102
}
330
47
100
AcDbProxyObject
 90
      499
 91
      503
 93
      113
310
904313A35304000000000000494000
  0
ACAD_PROXY_OBJECT
  5
53
102
{ACAD_REACTORS
330
47
102
}
330
47
100
AcDbProxyObject
 90
      499
 91
      503
 93
      121
310
905313A3130304000000000000594000
  0
ACAD_PROXY_OBJECT
  5
54
102
{ACAD_REACTORS
330
47
102
}
330
47
100
AcDbProxyObject
 90
      499
 91
      503
 93
      105
310
903323A310000000000000010100
  0
ACAD_PROXY_OBJECT
  5
55
102
{ACAD_REACTORS
330
47
102
}
330
47
100
AcDbProxyObject
 90
      499
 91
      503
 93
      105
310
903343A310000000000000410100
  0
ACAD_PROXY_OBJECT
  5
56
102
{ACAD_REACTORS
330
47
102
}
330
47
100
AcDbProxyObject
 90
      499
 91
      503
 93
      105
310
903383A310000000000000810100
  0
ACAD_PROXY_OBJECT
  5
57
102
{ACAD_REACTORS
330
47
102
}
330
47
100
AcDbProxyObject
 90
      499
 91
      503
 93
      113
310
90431303A310000000000000910100
  0
ACAD_PROXY_OBJECT
  5
58
102
{ACAD_REACTORS
330
47
102
}
330
47
100
AcDbProxyObject
 90
      499
 91
      503
 93
      121
310
9053130303A310000000000001650100
  0
ACAD_PROXY_OBJECT
  5
59
102
{ACAD_REACTORS
330
47
102
}
330
47
100
AcDbProxyObject
 90
      499
 91
      503
 93
      257
310
90E312F31323822203D2031272D3022000000000000200FC000000000000284000
  0
ACAD_PROXY_OBJECT
  5
5A
102
{ACAD_REACTORS
330
47
102
}
330
47
100
AcDbProxyObject
 90
      499
 91
      503
 93
      249
310
90D312F363422203D2031272D3022000000000000240FC000000000000284000
  0
ACAD_PROXY_OBJECT
  5
5B
102
{ACAD_REACTORS
330
47
102
}
330
47
100
AcDbProxyObject
 90
      499
 91
      503
 93
      249
310
90D312F333222203D2031272D3022000000000000280FC000000000000284000
  0
ACAD_PROXY_OBJECT
  5
5C
102
{ACAD_REACTORS
330
47
102
}
330
47
100
AcDbProxyObject
 90
      499
 91
      503
 93
      249
310
90D312F313622203D2031272D30220000000000002C0FC000000000000284000
  0
ACAD_PROXY_OBJECT
  5
5D
102
{ACAD_REACTORS
330
47
102
}
330
47
100
AcDbProxyObject
 90
      499
 91
      503
 93
      249
310
90D332F333222203D2031272D30220000000000002E0FC000000000000284000
  0
ACAD_PROXY_OBJECT
  5
5E
102
{ACAD_REACTORS
330
47
102
}
330
47
100
AcDbProxyObject
 90
      499
 91
      503
 93
      241
310
90C312F3822203D2031272D3022000000000000300FC000000000000284000
  0
ACAD_PROXY_OBJECT
  5
5F
102
{ACAD_REACTORS
330
47
102
}
330
47
100
AcDbProxyObject
 90
      499
 91
      503
 93
      249
310
90D332F313622203D2031272D3022000000000000320FC000000000000284000
  0
ACAD_PROXY_OBJECT
  5
60
102
{ACAD_REACTORS
330
47
102
}
330
47
100
AcDbProxyObject
 90
      499
 91
      503
 93
      241
310
90C312F3422203D2031272D3022000000000000340FC000000000000284000
  0
ACAD_PROXY_OBJECT
  5
61
102
{ACAD_REACTORS
330
47
102
}
330
47
100
AcDbProxyObject
 90
      499
 91
      503
 93
      241
310
90C332F3822203D2031272D3022000000000000360FC000000000000284000
  0
ACAD_PROXY_OBJECT
  5
62
102
{ACAD_REACTORS
330
47
102
}
330
47
100
AcDbProxyObject
 90
      499
 91
      503
 93
      241
310
90C312F3222203D2031272D3022000000000000380FC000000000000284000
  0
ACAD_PROXY_OBJECT
  5
63
102
{ACAD_REACTORS
330
47
102
}
330
47
100
AcDbProxyObject
 90
      499
 91
      503
 93
      241
310
90C332F3422203D2031272D30220000000000003A0FC000000000000284000
  0
ACAD_PROXY_OBJECT
  5
64
102
{ACAD_REACTORS
330
47
102
}
330
47
100
AcDbProxyObject
 90
      499
 91
      503
 93
      161
310
90A3122203D2031272D30224000000000000284000
  0
ACAD_PROXY_OBJECT
  5
65
102
{ACAD_REACTORS
330
47
102
}
330
47
100
AcDbProxyObject
 90
      499
 91
      503
 93
      257
310
90E312D312F3222203D2031272D30220000000000003E0FC000000000000284000
  0
ACAD_PROXY_OBJECT
  5
66
102
{ACAD_REACTORS
330
47
102
}
330
47
100
AcDbProxyObject
 90
      499
 91
      503
 93
      225
310
90A3322203D2031272D302200000000000002100000000000000284000
  0
ACAD_PROXY_OBJECT
  5
67
102
{ACAD_REACTORS
330
47
102
}
330
47
100
AcDbProxyObject
 90
      499
 91
      503
 93
      225
310
90A3622203D2031272D302200000000000006100000000000000284000
  0
ACAD_PROXY_OBJECT
  5
68
102
{ACAD_REACTORS
330
47
102
}
330
47
100
AcDbProxyObject
 90
      499
 91
      503
 93
      249
310
90D31272D3022203D2031272D30220000000000000A100000000000000284000
  0
ACAD_PROXY_OBJECT
  5
2F
102
{ACAD_REACTORS
330
2A
102
}
330
2A
100
AcDbProxyObject
 90
      499
 91
      501
 93
      436
310
42CC9915DA5C99599C985B595049028333333333333E33F0000000000000F90107901411070040501600405405064090741402480A0340
1001
ACAD
1000
AcDbSavedByObjectVersion
1070
     0
  0
ACAD_PROXY_OBJECT
  5
32
102
{ACAD_REACTORS
330
2A
102
}
330
2A
100
AcDbProxyObject
 90
      499
 91
      501
 93
      388
310
4150985CDA58D07406404333333333333E33F0000000000000F90107A41107004050150841D405064090741402480A0350
1001
ACAD
1000
AcDbSavedByObjectVersion
1070
     0
  0
ACAD_PROXY_OBJECT
  5
36
102
{ACAD_REACTORS
330
2A
102
}
330
2A
100
AcDbProxyObject
 90
      499
 91
      501
 93
      428
310
42109C9A59DA1D195B90C409028333333333333E33F0000000000000F9010790141107004050150841D405064090741402480A029950
1001
ACAD
1000
AcDbSavedByObjectVersion
1070
     0
  0
ACAD_PROXY_OBJECT
  5
3A
102
{ACAD_REACTORS
330
2A
102
}
330
2A
100
AcDbProxyObject
 90
      499
 91
      501
 93
      452
310
42D0DBDB1BDC90DA185B99D95104090240C333333333333E33F0000000000000F90108901411070040501508421405064090741402480A0350
1001
ACAD
1000
AcDbSavedByObjectVersion
1070
     0
  0
ACAD_PROXY_OBJECT
  5
34
102
{ACAD_REACTORS
330
2A
102
}
330
2A
100
AcDbProxyObject
 90
      499
 91
      501
 93
      500
310
4290DBDB98D95C1D1D585B10940D028333333333333E33F0000000000000F90107902409070040501000000000018199010841D405064090740C02480A0340
1001
ACAD
1000
AcDbSavedByObjectVersion
1070
     0
  0
ACAD_PROXY_OBJECT
  5
35
102
{ACAD_REACTORS
330
2A
102
}
330
2A
100
AcDbProxyObject
 90
      499
 91
      501
 93
      412
310
40D11A5B50B409028333333333333E33F0000000000000F9010790141107004050150841D405064090741402480A02677FFFFFD0
1001
ACAD
1000
AcDbSavedByObjectVersion
1070
     0
  0
ACAD_PROXY_OBJECT
  5
3D
102
{ACAD_REACTORS
330
2A
102
}
330
2A
100
AcDbProxyObject
 90
      499
 91
      501
 93
      452
310
43115919D950DBDB1BDC93D999916409028333333333333E33F0000000000000F9010790141107004050150841D405064090741402480A0350
1001
ACAD
1000
AcDbSavedByObjectVersion
1070
     0
  0
ACAD_PROXY_OBJECT
  5
39
102
{ACAD_REACTORS
330
2A
102
}
330
2A
100
AcDbProxyObject
 90
      499
 91
      501
 93
      444
310
42D19858D95C185D1D195C9B90F409028333333333333E33F0000000000000F9010790141107004050150841D405064090741402480A0350
1001
ACAD
1000
AcDbSavedByObjectVersion
1070
     0
  0
ACAD_PROXY_OBJECT
  5
2B
102
{ACAD_REACTORS
330
2A
102
}
330
2A
100
AcDbProxyObject
 90
      499
 91
      501
 93
      380
310
41119B185D240901404333333333333E33F0000000000000F9010740A907004050150841D405064090741402480A1B50
1001
ACAD
1000
AcDbSavedByObjectVersion
1070
     0
  0
ACAD_PROXY_OBJECT
  5
2C
102
{ACAD_REACTORS
330
2A
102
}
330
2A
100
AcDbProxyObject
 90
      499
 91
      501
 93
      468
310
43519B185D15DA5D1A115919D95CD0140901404333333333333E33F0000000000000F90107409019070040501600405405064090741402480A1B50
1001
ACAD
1000
AcDbSavedByObjectVersion
1070
     0
  0
ACAD_PROXY_OBJECT
  5
2D
102
{ACAD_REACTORS
330
2A
102
}
330
2A
100
AcDbProxyObject
 90
      499
 91
      501
 93
      404
310
41D1DBDD5C985D5910240902404333333333333E33F0000000000000F9010740A9070040501641D405064090741402480A1B50
1001
ACAD
1000
AcDbSavedByObjectVersion
1070
     0
  0
ACAD_PROXY_OBJECT
  5
2E
102
{ACAD_REACTORS
330
2A
102
}
330
2A
100
AcDbProxyObject
 90
      499
 91
      501
 93
      492
310
4411DBDD5C985D5915DA5D1A115919D95CD0340902404333333333333E33F0000000000000F90107409019070040501600405405064090741402480A1B50
1001
ACAD
1000
AcDbSavedByObjectVersion
1070
     0
  0
ACAD_PROXY_OBJECT
  5
31
102
{ACAD_REACTORS
330
2A
102
}
330
2A
100
AcDbProxyObject
 90
      499
 91
      501
 93
      476
310
41921A5919195B90640502408333333333333E33F0000000000000F901079024090700405020000000000001110200405405064090740C02480A0340
1001
ACAD
1000
AcDbSavedByObjectVersion
1070
     0
  0
ACAD_PROXY_OBJECT
  5
3B
102
{ACAD_REACTORS
330
2A
102
}
330
2A
100
AcDbProxyObject
 90
      499
 91
      501
 93
      428
310
42529A5D1D195C93D999914409028333333333333E33F0000000000000F9010790141107004050150A41D405064090741402480A0350
1001
ACAD
1000
AcDbSavedByObjectVersion
1070
     0
  0
ACAD_PROXY_OBJECT
  5
38
102
{ACAD_REACTORS
330
2A
102
}
330
2A
100
AcDbProxyObject
 90
      499
 91
      501
 93
      444
310
42D31A5B995C185D1D195C9B90E409028333333333333E33F0000000000000F9010790141107004050750841D405064090741402483A0350
1001
ACAD
1000
AcDbSavedByObjectVersion
1070
     0
  0
ACAD_PROXY_OBJECT
  5
3C
102
{ACAD_REACTORS
330
2A
102
}
330
2A
100
AcDbProxyObject
 90
      499
 91
      501
 93
      444
310
42D3DD995C9A185B99D3D999915409028333333333333E33F0000000000000F9010790141107004050150941D405064090741402480A0350
1001
ACAD
1000
AcDbSavedByObjectVersion
1070
     0
  0
ACAD_PROXY_OBJECT
  5
33
102
{ACAD_REACTORS
330
2A
102
}
330
2A
100
AcDbProxyObject
 90
      499
 91
      501
 93
      428
310
425499585B1A5CDD1A58D08409038333333333333E33F0000000000000F9010740A907004050150800405405064090740C02480A1B40
1001
ACAD
1000
AcDbSavedByObjectVersion
1070
     0
  0
ACAD_PROXY_OBJECT
  5
42
102
{ACAD_REACTORS
330
2A
102
}
330
2A
100
AcDbProxyObject
 90
      499
 91
      501
 93
      420
310
4194DA1859195911B40902404333333333333E33F0000000000000F9010740A41107004050150800405405064090840C02480A0B40
1001
ACAD
1000
AcDbSavedByObjectVersion
1070
     0
  0
ACAD_PROXY_OBJECT
  5
41
102
{ACAD_REACTORS
330
2A
102
}
330
2A
100
AcDbProxyObject
 90
      499
 91
      501
 93
      516
310
4454DA18591959081DDA5D1A08195919D95CD1A40902404333333333333E33F0000000000000F901074090142907004050250800405405064090740C02480A0B40
1001
ACAD
1000
AcDbSavedByObjectVersion
1070
     0
  0
ACAD_PROXY_OBJECT
  5
3E
102
{ACAD_REACTORS
330
2A
102
}
330
2A
100
AcDbProxyObject
 90
      499
 91
      501
 93
      532
310
4394DA1859195CC81BD98811DC985E5174090240C333333333333E33F0000000000000F901079024090741D01000000000000111010841D405064090740C02480A0340
1001
ACAD
1000
AcDbSavedByObjectVersion
1070
     0
  0
ACAD_PROXY_OBJECT
  5
3F
102
{ACAD_REACTORS
330
2A
102
}
330
2A
100
AcDbProxyObject
 90
      499
 91
      501
 93
      476
310
41D4DAD95D18DA1E51840502408333333333333E33F0000000000000F901079024090741D01000000000000111010B41D405064090741802480A0340
1001
ACAD
1000
AcDbSavedByObjectVersion
1070
     0
  0
ACAD_PROXY_OBJECT
  5
37
102
{ACAD_REACTORS
330
2A
102
}
330
2A
100
AcDbProxyObject
 90
      499
 91
      501
 93
      412
310
41D51A1A58DAD95B90D409028333333333333E33F0000000000000F9010790141107004050150C41D405064090741402480A0350
1001
ACAD
1000
AcDbSavedByObjectVersion
1070
     0
  0
ACAD_PROXY_OBJECT
  5
30
102
{ACAD_REACTORS
330
2A
102
}
330
2A
100
AcDbProxyObject
 90
      499
 91
      501
 93
      420
310
4255DA5C99599C985B595059028333333333333E33F0000000000000F90107901411070040501600405405064090740C02480A0340
1001
ACAD
1000
AcDbSavedByObjectVersion
1070
     0
  0
ACAD_PROXY_OBJECT
  5
40
102
{ACAD_REACTORS
330
2A
102
}
330
2A
100
AcDbProxyObject
 90
      499
 91
      501
 93
      404
310
41560B54985E51940902404000000000000E03F0000000000000F9010740501907004050150841D405064090740C02480A1B40
1001
ACAD
1000
AcDbSavedByObjectVersion
1070
     0
  0
XRECORD
  5
343
102
{ACAD_REACTORS
330
339
102
}
330
339
100
AcDbXrecord
340
0
  0
XRECORD
  5
342
102
{ACAD_REACTORS
330
339
102
}
330
339
100
AcDbXrecord
 90
        0
  0
XRECORD
  5
359
102
{ACAD_REACTORS
330
339
102
}
330
339
100
AcDbXrecord
1000
DSTYLE
1002
{
1070
   179
 70
     2
1070
   171
 70
     2
1070
   143
 40
25.4
1070
   274
 70
     2
1070
    41
 40
3.0
1070
   141
 40
0.09
1070
    43
 40
0.38
1070
   278
 70
    46
1070
    44
 40
1.5
1070
    42
 40
0.0625
1070
   147
 40
1.5
1070
   272
 70
     4
1070
    73
 70
     1
1070
   172
 70
     0
1070
    74
 70
     1
1070
   283
 70
     1
1070
   340
340
6E
1070
   140
 40
3.0
1070
   284
 70
     0
1070
    78
 70
     0
1002
}
  0
XRECORD
  5
344
102
{ACAD_REACTORS
330
339
102
}
330
339
100
AcDbXrecord
  1
{F5BCC551-20D3-49D9-8750-D688F6751814}
  0
XRECORD
  5
33C
102
{ACAD_REACTORS
330
339
102
}
330
339
100
AcDbXrecord
  1

  0
XRECORD
  5
341
102
{ACAD_REACTORS
330
339
102
}
330
339
100
AcDbXrecord
 90
        4
  0
XRECORD
  5
33E
102
{ACAD_REACTORS
330
339
102
}
330
339
100
AcDbXrecord
340
1A
  0
XRECORD
  5
340
102
{ACAD_REACTORS
330
339
102
}
330
339
100
AcDbXrecord
 90
    10269
  0
XRECORD
  5
33F
102
{ACAD_REACTORS
330
339
102
}
330
339
100
AcDbXrecord
340
19
  0
XRECORD
  5
346
102
{ACAD_REACTORS
330
339
102
}
330
339
100
AcDbXrecord
 40
0.0
  0
XRECORD
  5
349
102
{ACAD_REACTORS
330
339
102
}
330
339
100
AcDbXrecord
340
0
  0
XRECORD
  5
34F
102
{ACAD_REACTORS
330
339
102
}
330
339
100
AcDbXrecord
 10
0.0
 20
0.0
 30
0.0
  0
XRECORD
  5
34B
102
{ACAD_REACTORS
330
339
102
}
330
339
100
AcDbXrecord
 10
0.0
 20
0.0
 30
0.0
  0
XRECORD
  5
34E
102
{ACAD_REACTORS
330
339
102
}
330
339
100
AcDbXrecord
 10
0.0
 20
0.0
 30
0.0
  0
XRECORD
  5
34C
102
{ACAD_REACTORS
330
339
102
}
330
339
100
AcDbXrecord
 10
0.0
 20
0.0
 30
0.0
  0
XRECORD
  5
34D
102
{ACAD_REACTORS
330
339
102
}
330
339
100
AcDbXrecord
 10
0.0
 20
0.0
 30
0.0
  0
XRECORD
  5
34A
102
{ACAD_REACTORS
330
339
102
}
330
339
100
AcDbXrecord
 10
0.0
 20
0.0
 30
0.0
  0
XRECORD
  5
347
102
{ACAD_REACTORS
330
339
102
}
330
339
100
AcDbXrecord
340
0
  0
XRECORD
  5
348
102
{ACAD_REACTORS
330
339
102
}
330
339
100
AcDbXrecord
 70
     0
  0
XRECORD
  5
33D
102
{ACAD_REACTORS
330
339
102
}
330
339
100
AcDbXrecord
  1

  0
XRECORD
  5
33A
102
{ACAD_REACTORS
330
339
102
}
330
339
100
AcDbXrecord
 90
        1
  0
XRECORD
  5
33B
102
{ACAD_REACTORS
330
339
102
}
330
339
100
AcDbXrecord
 90
       70
  0
XRECORD
  5
352
102
{ACAD_REACTORS
330
339
102
}
330
339
100
AcDbXrecord
340
0
  0
XRECORD
  5
358
102
{ACAD_REACTORS
330
339
102
}
330
339
100
AcDbXrecord
 10
0.0
 20
0.0
 30
0.0
  0
XRECORD
  5
354
102
{ACAD_REACTORS
330
339
102
}
330
339
100
AcDbXrecord
 10
0.0
 20
0.0
 30
0.0
  0
XRECORD
  5
357
102
{ACAD_REACTORS
330
339
102
}
330
339
100
AcDbXrecord
 10
0.0
 20
0.0
 30
0.0
  0
XRECORD
  5
355
102
{ACAD_REACTORS
330
339
102
}
330
339
100
AcDbXrecord
 10
0.0
 20
0.0
 30
0.0
  0
XRECORD
  5
356
102
{ACAD_REACTORS
330
339
102
}
330
339
100
AcDbXrecord
 10
0.0
 20
0.0
 30
0.0
  0
XRECORD
  5
353
102
{ACAD_REACTORS
330
339
102
}
330
339
100
AcDbXrecord
 10
0.0
 20
0.0
 30
0.0
  0
XRECORD
  5
350
102
{ACAD_REACTORS
330
339
102
}
330
339
100
AcDbXrecord
340
0
  0
XRECORD
  5
351
102
{ACAD_REACTORS
330
339
102
}
330
339
100
AcDbXrecord
 70
     0
  0
XRECORD
  5
345
102
{ACAD_REACTORS
330
339
102
}
330
339
100
AcDbXrecord
  1
{FAEB1C32-E019-11D5-929B-00C0DF256EC4}
  0
DICTIONARYVAR
  5
363
102
{ACAD_REACTORS
330
35A
102
}
330
35A
100
DictionaryVariables
280
     0
  1
1:1
  0
DICTIONARYVAR
  5
35C
102
{ACAD_REACTORS
330
35A
102
}
330
35A
100
DictionaryVariables
280
     0
  1
Standard
  0
DICTIONARYVAR
  5
35B
102
{ACAD_REACTORS
330
35A
102
}
330
35A
100
DictionaryVariables
280
     0
  1
Standard
  0
DICTIONARYVAR
  5
35F
102
{ACAD_REACTORS
330
35A
102
}
330
35A
100
DictionaryVariables
280
     0
  1
2
  0
DICTIONARYVAR
  5
360
102
{ACAD_REACTORS
330
35A
102
}
330
35A
100
DictionaryVariables
280
     0
  1
1
  0
DICTIONARYVAR
  5
364
102
{ACAD_REACTORS
330
35A
102
}
330
35A
100
DictionaryVariables
280
     0
  1
1
  0
DICTIONARY
  5
367
330
45
100
AcDbDictionary
280
     1
  3
ACAD_XREC_ROUNDTRIP
360
368
  0
DICTIONARY
  5
365
330
44
100
AcDbDictionary
280
     1
  3
ACAD_XREC_ROUNDTRIP
360
366
  0
DICTIONARY
  5
369
330
46
100
AcDbDictionary
280
     1
  3
ACAD_XREC_ROUNDTRIP
360
36A
  0
XRECORD
  5
368
102
{ACAD_REACTORS
330
367
102
}
330
367
100
AcDbXrecord
102
MATERIAL
148
0.0
149
0.0
149
0.0
 93
        0
 94
      127
282
     0
 72
     1
 77
     1
171
     1
175
     1
179
     1
273
     0
  0
XRECORD
  5
366
102
{ACAD_REACTORS
330
365
102
}
330
365
100
AcDbXrecord
102
MATERIAL
148
0.0
149
0.0
149
0.0
 93
        0
 94
      127
282
     0
 72
     1
 77
     1
171
     1
175
     1
179
     1
273
     0
  0
XRECORD
  5
36A
102
{ACAD_REACTORS
330
369
102
}
330
369
100
AcDbXrecord
102
MATERIAL
148
0.0
149
0.0
149
0.0
 93
        0
 94
      127
282
     0
 72
     1
 77
     1
171
     1
175
     1
179
     1
273
     0
  0
ENDSEC
  0
EOF
