  0
SECTION
  2
HEADER
  9
$ACADVER
  1
AC1014
  9
$ACADMAINTVER
 70
     9
  9
$DWGCODEPAGE
  3
ANSI_932
  9
$INSBASE
 10
0.0
 20
0.0
 30
0.0
  9
$EXTMIN
 10
-1178.999999999999
 20
0.0
 30
0.0
  9
$EXTMAX
 10
878.15
 20
402.3500000000001
 30
10.0
  9
$LIMMIN
 10
0.0
 20
0.0
  9
$LIMMAX
 10
12.0
 20
9.0
  9
$ORTHOMODE
 70
     0
  9
$REGENMODE
 70
     1
  9
$FILLMODE
 70
     1
  9
$QTEXTMODE
 70
     0
  9
$MIRRTEXT
 70
     1
  9
$DRAGMODE
 70
     2
  9
$LTSCALE
 40
1.0
  9
$OSMODE
 70
    37
  9
$ATTMODE
 70
     1
  9
$TEXTSIZE
 40
0.2
  9
$TRACEWID
 40
0.05
  9
$TEXTSTYLE
  7
STANDARD
  9
$CLAYER
  8
0
  9
$CELTYPE
  6
BYLAYER
  9
$CECOLOR
 62
   256
  9
$CELTSCALE
 40
1.0
  9
$DELOBJ
 70
     1
  9
$DISPSILH
 70
     0
  9
$DIMSCALE
 40
1.0
  9
$DIMASZ
 40
3.0
  9
$DIMEXO
 40
0.0625
  9
$DIMDLI
 40
0.38
  9
$DIMRND
 40
0.0
  9
$DIMDLE
 40
0.0
  9
$DIMEXE
 40
1.5
  9
$DIMTP
 40
0.0
  9
$DIMTM
 40
0.0
  9
$DIMTXT
 40
3.0
  9
$DIMCEN
 40
0.09
  9
$DIMTSZ
 40
0.0
  9
$DIMTOL
 70
     0
  9
$DIMLIM
 70
     0
  9
$DIMTIH
 70
     1
  9
$DIMTOH
 70
     1
  9
$DIMSE1
 70
     0
  9
$DIMSE2
 70
     0
  9
$DIMTAD
 70
     1
  9
$DIMZIN
 70
     0
  9
$DIMBLK
  1

  9
$DIMASO
 70
     1
  9
$DIMSHO
 70
     1
  9
$DIMPOST
  1

  9
$DIMAPOST
  1

  9
$DIMALT
 70
     0
  9
$DIMALTD
 70
     2
  9
$DIMALTF
 40
25.4
  9
$DIMLFAC
 40
1.0
  9
$DIMTOFL
 70
     0
  9
$DIMTVP
 40
0.0
  9
$DIMTIX
 70
     0
  9
$DIMSOXD
 70
     0
  9
$DIMSAH
 70
     0
  9
$DIMBLK1
  1

  9
$DIMBLK2
  1

  9
$DIMSTYLE
  2
STANDARD
  9
$DIMCLRD
 70
     0
  9
$DIMCLRE
 70
     0
  9
$DIMCLRT
 70
     0
  9
$DIMTFAC
 40
1.0
  9
$DIMGAP
 40
1.5
  9
$DIMJUST
 70
     0
  9
$DIMSD1
 70
     0
  9
$DIMSD2
 70
     0
  9
$DIMTOLJ
 70
     1
  9
$DIMTZIN
 70
     0
  9
$DIMALTZ
 70
     0
  9
$DIMALTTZ
 70
     0
  9
$DIMFIT
 70
     3
  9
$DIMUPT
 70
     0
  9
$DIMUNIT
 70
     2
  9
$DIMDEC
 70
     2
  9
$DIMTDEC
 70
     4
  9
$DIMALTU
 70
     2
  9
$DIMALTTD
 70
     2
  9
$DIMTXSTY
  7
ＭＳ_ゴシック
  9
$DIMAUNIT
 70
     0
  9
$LUNITS
 70
     2
  9
$LUPREC
 70
     4
  9
$SKETCHINC
 40
0.1
  9
$FILLETRAD
 40
0.5
  9
$AUNITS
 70
     0
  9
$AUPREC
 70
     0
  9
$MENU
  1
.
  9
$ELEVATION
 40
0.0
  9
$PELEVATION
 40
0.0
  9
$THICKNESS
 40
0.0
  9
$LIMCHECK
 70
     0
  9
$CHAMFERA
 40
0.0
  9
$CHAMFERB
 40
0.0
  9
$CHAMFERC
 40
0.0
  9
$CHAMFERD
 40
0.0
  9
$SKPOLY
 70
     0
  9
$TDCREATE
 40
2460354.55758566
  9
$TDUPDATE
 40
2460354.557586123
  9
$TDINDWG
 40
0.0000000116
  9
$TDUSRTIMER
 40
0.0000000116
  9
$USRTIMER
 70
     1
  9
$ANGBASE
 50
0.0
  9
$ANGDIR
 70
     0
  9
$PDMODE
 70
     0
  9
$PDSIZE
 40
0.0
  9
$PLINEWID
 40
0.0
  9
$COORDS
 70
     1
  9
$SPLFRAME
 70
     0
  9
$SPLINETYPE
 70
     6
  9
$SPLINESEGS
 70
     8
  9
$ATTDIA
 70
     0
  9
$ATTREQ
 70
     1
  9
$HANDLING
 70
     1
  9
$HANDSEED
  5
654
  9
$SURFTAB1
 70
     6
  9
$SURFTAB2
 70
     6
  9
$SURFTYPE
 70
     6
  9
$SURFU
 70
     6
  9
$SURFV
 70
     6
  9
$UCSNAME
  2

  9
$UCSORG
 10
0.0
 20
0.0
 30
0.0
  9
$UCSXDIR
 10
1.0
 20
0.0
 30
0.0
  9
$UCSYDIR
 10
0.0
 20
1.0
 30
0.0
  9
$PUCSNAME
  2

  9
$PUCSORG
 10
0.0
 20
0.0
 30
0.0
  9
$PUCSXDIR
 10
1.0
 20
0.0
 30
0.0
  9
$PUCSYDIR
 10
0.0
 20
1.0
 30
0.0
  9
$USERI1
 70
     0
  9
$USERI2
 70
     0
  9
$USERI3
 70
     0
  9
$USERI4
 70
     0
  9
$USERI5
 70
     0
  9
$USERR1
 40
0.0
  9
$USERR2
 40
0.0
  9
$USERR3
 40
0.0
  9
$USERR4
 40
0.0
  9
$USERR5
 40
0.0
  9
$WORLDVIEW
 70
     1
  9
$SHADEDGE
 70
     3
  9
$SHADEDIF
 70
    70
  9
$TILEMODE
 70
     1
  9
$MAXACTVP
 70
    64
  9
$PINSBASE
 10
0.0
 20
0.0
 30
0.0
  9
$PLIMCHECK
 70
     0
  9
$PEXTMIN
 10
1.000000000000000E+20
 20
1.000000000000000E+20
 30
1.000000000000000E+20
  9
$PEXTMAX
 10
-1.000000000000000E+20
 20
-1.000000000000000E+20
 30
-1.000000000000000E+20
  9
$PLIMMIN
 10
0.0
 20
0.0
  9
$PLIMMAX
 10
12.0
 20
9.0
  9
$UNITMODE
 70
     0
  9
$VISRETAIN
 70
     1
  9
$PLINEGEN
 70
     0
  9
$PSLTSCALE
 70
     1
  9
$TREEDEPTH
 70
  3020
  9
$PICKSTYLE
 70
     1
  9
$CMLSTYLE
  2
STANDARD
  9
$CMLJUST
 70
     0
  9
$CMLSCALE
 40
1.0
  9
$PROXYGRAPHICS
 70
     1
  9
$MEASUREMENT
 70
     1
  0
ENDSEC
  0
SECTION
  2
CLASSES
  0
CLASS
  1
ACDBDICTIONARYWDFLT
  2
AcDbDictionaryWithDefault
  3
ObjectDBX Classes
 90
        0
280
     0
281
     0
  0
CLASS
  1
VISUALSTYLE
  2
AcDbVisualStyle
  3
ObjectDBX Classes
 90
     4095
280
     0
281
     0
  0
CLASS
  1
MATERIAL
  2
AcDbMaterial
  3
ObjectDBX Classes
 90
     1153
280
     0
281
     0
  0
CLASS
  1
SCALE
  2
AcDbScale
  3
ObjectDBX Classes
 90
     1153
280
     0
281
     0
  0
CLASS
  1
TABLESTYLE
  2
AcDbTableStyle
  3
ObjectDBX Classes
 90
     4095
280
     0
281
     0
  0
CLASS
  1
MLEADERSTYLE
  2
AcDbMLeaderStyle
  3
ACDB_MLEADERSTYLE_CLASS
 90
     4095
280
     0
281
     0
  0
CLASS
  1
SUN
  2
AcDbSun
  3
SCENEOE
 90
     1153
280
     0
281
     0
  0
CLASS
  1
DICTIONARYVAR
  2
AcDbDictionaryVar
  3
ObjectDBX Classes
 90
        0
280
     0
281
     0
  0
CLASS
  1
XRECORD
  2
AcDbXrecord
  3
ObjectDBX Classes
 90
        0
280
     0
281
     0
  0
CLASS
  1
LWPOLYLINE
  2
AcDbPolyline
  3
ObjectDBX Classes
 90
        0
280
     0
281
     1
  0
CLASS
  1
HATCH
  2
AcDbHatch
  3
ObjectDBX Classes
 90
        0
280
     0
281
     1
  0
CLASS
  1
ACDBPLACEHOLDER
  2
AcDbPlaceHolder
  3
ObjectDBX Classes
 90
        0
280
     0
281
     0
  0
CLASS
  1
LAYOUT
  2
AcDbLayout
  3
ObjectDBX Classes
 90
        0
280
     0
281
     0
  0
ENDSEC
  0
SECTION
  2
TABLES
  0
TABLE
  2
VPORT
  5
8
102
{ACAD_XDICTIONARY
360
649
102
}
330
0
100
AcDbSymbolTable
 70
     1
  0
VPORT
  5
29
330
8
100
AcDbSymbolTableRecord
100
AcDbViewportTableRecord
  2
*ACTIVE
 70
     0
 10
0.0
 20
0.0
 11
1.0
 21
1.0
 12
-150.4249999999996
 22
201.175
 13
0.0
 23
0.0
 14
0.5
 24
0.5
 15
0.5
 25
0.5
 16
0.0
 26
0.0
 36
1.0
 17
0.0
 27
0.0
 37
0.0
 40
402.3500000000001
 41
1.6
 42
50.0
 43
0.0
 44
0.0
 50
0.0
 51
0.0
 71
     0
 72
   100
 73
     1
 74
     3
 75
     0
 76
     0
 77
     0
 78
     0
  0
ENDTAB
  0
TABLE
  2
LTYPE
  5
5
330
0
100
AcDbSymbolTable
 70
     2
  0
LTYPE
  5
14
330
5
100
AcDbSymbolTableRecord
100
AcDbLinetypeTableRecord
  2
BYBLOCK
 70
     0
  3

 72
    65
 73
     0
 40
0.0
  0
LTYPE
  5
15
330
5
100
AcDbSymbolTableRecord
100
AcDbLinetypeTableRecord
  2
BYLAYER
 70
     0
  3

 72
    65
 73
     0
 40
0.0
  0
LTYPE
  5
16
330
5
100
AcDbSymbolTableRecord
100
AcDbLinetypeTableRecord
  2
CONTINUOUS
 70
     0
  3
Solid line
 72
    65
 73
     0
 40
0.0
  0
LTYPE
  5
E6
330
5
100
AcDbSymbolTableRecord
100
AcDbLinetypeTableRecord
  2
CENTER
 70
     0
  3

 72
    65
 73
     0
 40
0.0
  0
ENDTAB
  0
TABLE
  2
LAYER
  5
2
330
0
100
AcDbSymbolTable
 70
     2
  0
LAYER
  5
10
330
2
100
AcDbSymbolTableRecord
100
AcDbLayerTableRecord
  2
0
 70
     0
 62
     7
  6
CONTINUOUS
  0
LAYER
  5
6E
330
2
100
AcDbSymbolTableRecord
100
AcDbLayerTableRecord
  2
1
 70
     0
 62
     7
  6
CONTINUOUS
  0
ENDTAB
  0
TABLE
  2
STYLE
  5
3
330
0
100
AcDbSymbolTable
 70
     2
  0
STYLE
  5
11
330
3
100
AcDbSymbolTableRecord
100
AcDbTextStyleTableRecord
  2
STANDARD
 70
     0
 40
0.0
 41
1.0
 50
0.0
 71
     0
 42
0.2
  3
txt
  4

  0
STYLE
  5
6F
330
3
100
AcDbSymbolTableRecord
100
AcDbTextStyleTableRecord
  2
ＭＳ_ゴシック
 70
     0
 40
0.0
 41
1.0
 50
0.0
 71
     0
 42
0.2
  3
ＭＳ ゴシック.shx
  4

  0
ENDTAB
  0
TABLE
  2
VIEW
  5
6
330
0
100
AcDbSymbolTable
 70
     0
  0
ENDTAB
  0
TABLE
  2
UCS
  5
7
330
0
100
AcDbSymbolTable
 70
     0
  0
ENDTAB
  0
TABLE
  2
APPID
  5
9
330
0
100
AcDbSymbolTable
 70
     2
  0
APPID
  5
12
330
9
100
AcDbSymbolTableRecord
100
AcDbRegAppTableRecord
  2
ACAD
 70
     0
  0
APPID
  5
653
330
9
100
AcDbSymbolTableRecord
100
AcDbRegAppTableRecord
  2
ACAD_MLEADERVER
 70
     0
  0
ENDTAB
  0
TABLE
  2
DIMSTYLE
  5
A
330
0
100
AcDbSymbolTable
 70
     1
  0
DIMSTYLE
105
27
330
A
100
AcDbSymbolTableRecord
100
AcDbDimStyleTableRecord
  2
STANDARD
 70
     0
  3

  4

  5

  6

  7

 40
1.0
 41
0.18
 42
0.0625
 43
0.38
 44
0.18
 45
0.0
 46
0.0
 47
0.0
 48
0.0
140
0.18
141
0.09
142
0.0
143
25.4
144
1.0
145
0.0
146
1.0
147
0.09
 71
     0
 72
     0
 73
     1
 74
     1
 75
     0
 76
     0
 77
     0
 78
     0
170
     0
171
     2
172
     0
173
     0
174
     0
175
     0
176
     0
177
     0
178
     0
270
     2
271
     4
272
     4
273
     2
274
     2
340
11
275
     0
280
     0
281
     0
282
     0
283
     1
284
     0
285
     0
286
     0
287
     3
288
     0
  0
ENDTAB
  0
TABLE
  2
BLOCK_RECORD
  5
1
330
0
100
AcDbSymbolTable
 70
     0
  0
BLOCK_RECORD
  5
1F
330
1
100
AcDbSymbolTableRecord
100
AcDbBlockTableRecord
  2
*MODEL_SPACE
  0
BLOCK_RECORD
  5
1B
330
1
100
AcDbSymbolTableRecord
100
AcDbBlockTableRecord
  2
*PAPER_SPACE
  0
ENDTAB
  0
ENDSEC
  0
SECTION
  2
BLOCKS
  0
BLOCK
  5
20
330
1F
100
AcDbEntity
  8
0
100
AcDbBlockBegin
  2
*MODEL_SPACE
 70
     0
 10
0.0
 20
0.0
 30
0.0
  3
*MODEL_SPACE
  1

  0
ENDBLK
  5
21
330
1F
100
AcDbEntity
  8
0
100
AcDbBlockEnd
  0
BLOCK
  5
1C
330
1B
100
AcDbEntity
 67
     1
  8
0
100
AcDbBlockBegin
  2
*PAPER_SPACE
 70
     0
 10
0.0
 20
0.0
 30
0.0
  3
*PAPER_SPACE
  1

  0
ENDBLK
  5
1D
330
1B
100
AcDbEntity
 67
     1
  8
0
100
AcDbBlockEnd
  0
ENDSEC
  0
SECTION
  2
ENTITIES
  0
LWPOLYLINE
  5
70
330
1F
100
AcDbEntity
  8
1
  6
CONTINUOUS
 62
   253
100
AcDbPolyline
 90
        9
 70
     0
 43
0.0
 10
481.8399377853706
 20
328.4851325250266
 10
481.8510819840972
 20
328.3892106484172
 10
481.8798333184742
 20
328.2970444233014
 10
481.9251188580964
 20
328.21207327075
 10
481.9852486559253
 20
328.1374681090917
 10
482.0579788130338
 20
328.0760130228941
 10
482.1405952154986
 20
328.0300013676475
 10
482.230014818581
 20
328.0011501872729
 10
482.3229006985151
 20
327.9905361381873
  0
LWPOLYLINE
  5
71
330
1F
100
AcDbEntity
  8
1
  6
CONTINUOUS
 62
   253
100
AcDbPolyline
 90
        3
 70
     0
 43
0.0
 10
481.4801512768288
 20
324.4937816810236
 10
481.5514097906953
 20
324.3987660126978
 10
481.6270999223464
 20
324.3564439200153
  0
LWPOLYLINE
  5
72
330
1F
100
AcDbEntity
  8
1
  6
CONTINUOUS
 62
   253
100
AcDbPolyline
 90
        8
 70
     0
 43
0.0
 10
481.2551858873684
 20
326.9631737869927
 10
481.2876643665617
 20
326.9623434781992
 10
481.3358499106296
 20
326.961584920692
 10
481.3980624316275
 20
326.9609245631362
 10
481.4721327622553
 20
326.9603854302543
 10
481.5554782883297
 20
326.9599863200211
 10
481.6451929969315
 20
326.9597411482346
 10
481.7381488005129
 20
326.9596584633126
  0
LWPOLYLINE
  5
73
330
1F
100
AcDbEntity
  8
1
  6
CONTINUOUS
 62
   253
100
AcDbPolyline
 90
        8
 70
     0
 43
0.0
 10
495.4646883382751
 20
326.9596584633126
 10
495.5576441418565
 20
326.9597411482346
 10
495.6473588504583
 20
326.9599863200211
 10
495.7307043765327
 20
326.9603854302543
 10
495.8047747071606
 20
326.9609245631362
 10
495.8669872281584
 20
326.961584920692
 10
495.9151727722263
 20
326.9623434781992
 10
495.9476512514196
 20
326.9631737869927
  0
LWPOLYLINE
  5
74
330
1F
100
AcDbEntity
  8
1
  6
CONTINUOUS
 62
   253
100
AcDbPolyline
 90
        9
 70
     0
 43
0.0
 10
481.8399377853705
 20
383.5502411955162
 10
481.8510819840972
 20
383.5481925306356
 10
481.8798333184742
 20
383.551046356971
 10
481.9251188580964
 20
383.5586961766115
 10
481.9852486559252
 20
383.5708565167514
 10
482.0579788130337
 20
383.5870735828468
 10
482.1405952154985
 20
383.606742193132
 10
482.2300148185809
 20
383.6291283625432
 10
482.3229006985151
 20
383.6533966932683
  0
LWPOLYLINE
  5
75
330
1F
100
AcDbEntity
  8
1
  6
CONTINUOUS
 62
   253
100
AcDbPolyline
 90
        9
 70
     0
 43
0.0
 10
495.0927743032972
 20
384.4497265007394
 10
495.1856781208326
 20
384.4254509203689
 10
495.2751135900868
 20
384.4030585331118
 10
495.3577418455077
 20
384.3833853067454
 10
495.4304781530631
 20
384.3671656954897
 10
495.4906070716229
 20
384.3550052208649
 10
495.5358838276475
 20
384.3473578659514
 10
495.5646181185951
 20
384.3445091269857
 10
495.5757372164417
 20
384.3465653550215
  0
LWPOLYLINE
  5
76
330
1F
100
AcDbEntity
  8
1
  6
CONTINUOUS
 62
   253
100
AcDbPolyline
 90
        8
 70
     0
 43
0.0
 10
481.2551858873684
 20
385.7679193582406
 10
481.2876643665617
 20
385.680390949367
 10
481.3358499106296
 20
385.6004263239583
 10
481.3980624316275
 20
385.5308136128896
 10
481.4721327622552
 20
385.4739800062841
 10
481.5554782883297
 20
385.4319071245461
 10
481.6451929969315
 20
385.4060619250952
 10
481.7381488005129
 20
385.3973455538843
  0
LWPOLYLINE
  5
77
330
1F
100
AcDbEntity
  8
1
  6
CONTINUOUS
 62
   253
100
AcDbPolyline
 90
        8
 70
     0
 43
0.0
 10
495.4646883382751
 20
385.3973455538843
 10
495.5576441418565
 20
385.4060619250952
 10
495.6473588504583
 20
385.4319071245461
 10
495.7307043765328
 20
385.4739800062841
 10
495.8047747071606
 20
385.5308136128896
 10
495.8669872281585
 20
385.6004263239583
 10
495.9151727722263
 20
385.680390949367
 10
495.9476512514196
 20
385.7679193582406
  0
LWPOLYLINE
  5
78
330
1F
100
AcDbEntity
  8
1
  6
CONTINUOUS
 62
     7
100
AcDbPolyline
 90
        8
 70
     0
 43
0.0
 10
-560.1604606739031
 20
263.4806597861829
 10
-560.2753090159182
 20
263.4238791171215
 10
-560.375574375576
 20
263.3574002566595
 10
-560.4665742908111
 20
263.2749038848666
 10
-560.5355166570497
 20
263.1843787047831
 10
-560.5840326030573
 20
263.0771867184532
 10
-560.6014025407468
 20
262.9647839382079
 10
-560.601418569394
 20
262.9612515077877
210
0.0
220
0.0
230
-1.0
  0
LWPOLYLINE
  5
79
330
1F
100
AcDbEntity
  8
1
  6
CONTINUOUS
 62
     7
100
AcDbPolyline
 90
        5
 70
     0
 43
0.0
 10
424.3547076987833
 20
265.1354117466635
 10
424.4632735123676
 20
265.2941351413168
 10
424.5399717222478
 20
265.4572920855424
 10
424.5860445966017
 20
265.6245861935261
 10
424.601418569394
 20
265.7940208992092
  0
LWPOLYLINE
  5
7A
330
1F
100
AcDbEntity
  8
1
  6
CONTINUOUS
 62
     7
100
AcDbPolyline
 90
       35
 70
     0
 43
0.0
 10
559.6076679327502
 20
356.453244900303
 10
559.6445885348046
 20
356.4541613212507
 10
559.6814617663147
 20
356.4564405587541
 10
559.718184070968
 20
356.4600695759825
 10
559.7546518924522
 20
356.4650353361051
 10
559.7919591267953
 20
356.4715498464605
 10
559.828926522866
 20
356.4794559690686
 10
559.8654535609028
 20
356.4887161470686
 10
559.9014397211445
 20
356.4992928235997
 10
559.9357675555549
 20
356.5107788800574
 10
559.9695399513989
 20
356.5234527740811
 10
560.0026842025264
 20
356.5372665849544
 10
560.0351276027867
 20
356.5521723919607
 10
560.0783473794161
 20
356.574287087893
 10
560.1201701680262
 20
356.5983041240455
 10
560.1604606739031
 20
356.6240861050543
 10
560.2005006712544
 20
356.6525411451959
 10
560.2388168471151
 20
356.6826943954858
 10
560.2753090159182
 20
356.7143940889315
 10
560.31069620316
 20
356.7482991801929
 10
560.3441400961357
 20
356.7836281921931
 10
560.375574375576
 20
356.8202302798468
 10
560.4084677132549
 20
356.8627453769948
 10
560.4388187482284
 20
356.906639776731
 10
560.4665742908111
 20
356.9517220551061
 10
560.4922607437367
 20
356.9989171655379
 10
560.5152512697045
 20
357.0471398371826
 10
560.5355166570497
 20
357.0962088989381
 10
560.5551492894004
 20
357.1525729271665
 10
560.5713277074192
 20
357.209770293799
 10
560.5840326030573
 20
357.2675653048449
 10
560.5934505823419
 20
357.3272625816156
 10
560.5992429104552
 20
357.387341389636
 10
560.6014025407468
 20
357.4475634793484
 10
560.601418569394
 20
357.4532253728412
  0
LWPOLYLINE
  5
7B
330
1F
100
AcDbEntity
  8
1
  6
CONTINUOUS
 62
     7
100
AcDbPolyline
 90
        7
 70
     0
 43
0.0
 10
560.1983635691604
 20
267.0312513157362
 10
560.3143247929493
 20
267.0820444056304
 10
560.4119207883576
 20
267.1405444065695
 10
560.4965698223128
 20
267.2121801793535
 10
560.570273658118
 20
267.3144766799393
 10
560.6001684551493
 20
267.4178244321697
 10
560.601418569394
 20
267.4439934763641
  0
LWPOLYLINE
  5
7C
330
1F
100
AcDbEntity
  8
1
  6
CONTINUOUS
 62
     7
100
AcDbPolyline
 90
       36
 70
     0
 43
0.0
 10
-416.601418569394
 20
295.3467746271588
 10
-416.6014345980413
 20
295.3524365206515
 10
-416.6035012961898
 20
295.4112398943897
 10
-416.6090312874449
 20
295.4699093451818
 10
-416.6180181305219
 20
295.5282231786214
 10
-416.627273998492
 20
295.5726899600112
 10
-416.6385821213482
 20
295.6168446783028
 10
-416.6519338365954
 20
295.6605806273638
 10
-416.6673204817385
 20
295.7037911010619
 10
-416.6871276614896
 20
295.7518279183467
 10
-416.7095453816347
 20
295.7990558493821
 10
-416.7345464636086
 20
295.8453052202149
 10
-416.7627606448342
 20
295.8914280173756
 10
-416.7936848633083
 20
295.936317476053
 10
-416.8272627632122
 20
295.9797697201532
 10
-416.8580082450041
 20
296.0156072759384
 10
-416.8906790341577
 20
296.0502270980541
 10
-416.9252132976643
 20
296.0834878892131
 10
-416.9623966064927
 20
296.1159592687251
 10
-417.0014864465107
 20
296.1468218636725
 10
-417.042376464885
 20
296.1759138949456
 10
-417.0816439546814
 20
296.2010746636365
 10
-417.1223694710018
 20
296.224559450121
 10
-417.1644281571911
 20
296.2462407908606
 10
-417.1976369436074
 20
296.2616267753714
 10
-417.2315868490504
 20
296.2758677075221
 10
-417.2661997236768
 20
296.288911777727
 10
-417.3013974176437
 20
296.3007071764003
 10
-417.3362906496282
 20
296.310984452383
 10
-417.371693388715
 20
296.32002414327
 10
-417.4075141783994
 20
296.3277917040687
 10
-417.4436615621768
 20
296.3342525897861
 10
-417.4812343672199
 20
296.3395220390514
 10
-417.5190855022369
 20
296.3433720639465
 10
-417.557101578189
 20
296.3457879792392
 10
-417.5951692060378
 20
296.3467550996969
210
0.0
220
0.0
230
-1.0
  0
LWPOLYLINE
  5
7D
330
1F
100
AcDbEntity
  8
1
  6
CONTINUOUS
 62
     7
100
AcDbPolyline
 90
        6
 70
     0
 43
0.0
 10
560.601418569394
 20
385.3560065236358
 10
560.578912188859
 20
385.4662621453302
 10
560.5145264275727
 20
385.5683013873271
 10
560.4198286202387
 20
385.653696444614
 10
560.3274152735717
 20
385.7111566744928
 10
560.2262511992376
 20
385.7578835683107
  0
LWPOLYLINE
  5
7E
330
1F
100
AcDbEntity
  8
1
  6
CONTINUOUS
 62
   253
100
AcDbPolyline
 90
        3
 70
     0
 43
0.0
 10
481.6270999223464
 20
328.4435560799847
 10
481.5303173011067
 20
328.3790327435175
 10
481.4581269187274
 20
328.2642864335053
  0
LWPOLYLINE
  5
7F
330
1F
100
AcDbEntity
  8
1
  6
CONTINUOUS
 62
   253
100
AcDbPolyline
 90
        8
 70
     0
 43
0.0
 10
495.9476512514196
 20
325.8368262130072
 10
495.9151727722263
 20
325.8376565218007
 10
495.8669872281585
 20
325.8384150793079
 10
495.8047747071606
 20
325.8390754368637
 10
495.7307043765327
 20
325.8396145697456
 10
495.6473588504583
 20
325.8400136799788
 10
495.5576441418565
 20
325.8402588517653
 10
495.4646883382751
 20
325.8403415366873
  0
LWPOLYLINE
  5
80
330
1F
100
AcDbEntity
  8
1
  6
CONTINUOUS
 62
   253
100
AcDbPolyline
 90
        4
 70
     0
 43
0.0
 10
-481.87623281626
 20
327.7169808961315
 10
-481.9412231370573
 20
327.8291818782787
 10
-482.0133660475161
 20
327.9057487687098
 10
-482.1100628354909
 20
327.9488022614008
210
0.0
220
0.0
230
-1.0
  0
LWPOLYLINE
  5
81
330
1F
100
AcDbEntity
  8
1
  6
CONTINUOUS
 62
   253
100
AcDbPolyline
 90
        9
 70
     0
 43
0.0
 10
494.879936440273
 20
383.6533966932683
 10
494.9728223202072
 20
383.6291283625432
 10
495.0622419232895
 20
383.606742193132
 10
495.1448583257543
 20
383.5870735828468
 10
495.2175884828629
 20
383.5708565167514
 10
495.2777182806917
 20
383.5586961766115
 10
495.3230038203139
 20
383.551046356971
 10
495.3517551546909
 20
383.5481925306356
 10
495.3628993534176
 20
383.5502411955162
  0
LWPOLYLINE
  5
82
330
1F
100
AcDbEntity
  8
1
  6
CONTINUOUS
 62
   253
100
AcDbPolyline
 90
        8
 70
     0
 43
0.0
 10
481.7381488005129
 20
267.4026544461156
 10
481.6451929969315
 20
267.3939380749047
 10
481.5554782883297
 20
267.3680928754538
 10
481.4721327622552
 20
267.3260199937158
 10
481.3980624316275
 20
267.2691863871103
 10
481.3358499106296
 20
267.1995736760416
 10
481.2876643665617
 20
267.1196090506329
 10
481.2551858873684
 20
267.0320806417593
  0
LWPOLYLINE
  5
83
330
1F
100
AcDbEntity
  8
1
  6
CONTINUOUS
 62
     7
100
AcDbPolyline
 90
        5
 70
     0
 43
0.0
 10
424.601418569394
 20
387.0059791007908
 10
424.5842600421272
 20
387.1847881300025
 10
424.5328601567761
 20
387.3611622914065
 10
424.4473324580151
 20
387.5327472119016
 10
424.3358507283144
 20
387.6876531566834
  0
LWPOLYLINE
  5
84
330
1F
100
AcDbEntity
  8
1
  6
CONTINUOUS
 62
   253
100
AcDbPolyline
 90
        9
 70
     0
 43
0.0
 10
482.3229006985151
 20
269.1466033067316
 10
482.2300148185809
 20
269.1708716374568
 10
482.1405952154985
 20
269.1932578068679
 10
482.0579788130337
 20
269.2129264171531
 10
481.9852486559252
 20
269.2291434832485
 10
481.9251188580964
 20
269.2413038233885
 10
481.8798333184741
 20
269.2489536430289
 10
481.8510819840971
 20
269.2518074693643
 10
481.8399377853705
 20
269.2497588044838
  0
LWPOLYLINE
  5
85
330
1F
100
AcDbEntity
  8
1
  6
CONTINUOUS
 62
   253
100
AcDbPolyline
 90
        8
 70
     0
 43
0.0
 10
495.9476512514196
 20
267.0320806417593
 10
495.9151727722263
 20
267.1196090506329
 10
495.8669872281585
 20
267.1995736760416
 10
495.8047747071606
 20
267.2691863871103
 10
495.7307043765328
 20
267.3260199937158
 10
495.6473588504583
 20
267.3680928754538
 10
495.5576441418565
 20
267.3939380749047
 10
495.4646883382751
 20
267.4026544461156
  0
LWPOLYLINE
  5
86
330
1F
100
AcDbEntity
  8
1
  6
CONTINUOUS
 62
     7
100
AcDbPolyline
 90
        5
 70
     0
 43
0.0
 10
-552.601418569394
 20
387.0059791007908
 10
-552.6185770966608
 20
387.1847881300025
 10
-552.6699769820121
 20
387.3611622914065
 10
-552.7555046807729
 20
387.5327472119016
 10
-552.8669864104737
 20
387.6876531566834
210
0.0
220
0.0
230
-1.0
  0
LWPOLYLINE
  5
87
330
1F
100
AcDbEntity
  8
1
  6
CONTINUOUS
 62
   253
100
AcDbPolyline
 90
        9
 70
     0
 43
0.0
 10
482.1100628354909
 20
268.3502734992606
 10
482.0171590179556
 20
268.374549079631
 10
481.9277235487012
 20
268.3969414668882
 10
481.8450952932805
 20
268.4166146932546
 10
481.7723589857251
 20
268.4328343045102
 10
481.7122300671653
 20
268.444994779135
 10
481.6669533111406
 20
268.4526421340485
 10
481.6382190201929
 20
268.4554908730142
 10
481.6270999223464
 20
268.4534346449784
  0
LWPOLYLINE
  5
88
330
1F
100
AcDbEntity
  8
1
  6
CONTINUOUS
 62
     7
100
AcDbPolyline
 90
       36
 70
     0
 43
0.0
 10
560.601418569394
 20
295.3467746271588
 10
560.6014025407468
 20
295.3524365206515
 10
560.5993358425983
 20
295.4112398943897
 10
560.5938058513432
 20
295.4699093451818
 10
560.5848190082662
 20
295.5282231786214
 10
560.5755631402961
 20
295.5726899600112
 10
560.56425501744
 20
295.6168446783028
 10
560.5509033021928
 20
295.6605806273638
 10
560.5355166570497
 20
295.7037911010619
 10
560.5157094772984
 20
295.7518279183467
 10
560.4932917571533
 20
295.7990558493821
 10
560.4682906751796
 20
295.8453052202149
 10
560.4400764939539
 20
295.8914280173756
 10
560.4091522754799
 20
295.936317476053
 10
560.375574375576
 20
295.9797697201532
 10
560.3448288937839
 20
296.0156072759384
 10
560.3121581046303
 20
296.0502270980541
 10
560.2776238411238
 20
296.0834878892131
 10
560.2404405322952
 20
296.1159592687251
 10
560.2013506922775
 20
296.1468218636725
 10
560.1604606739031
 20
296.1759138949456
 10
560.1211931841067
 20
296.2010746636365
 10
560.0804676677863
 20
296.224559450121
 10
560.038408981597
 20
296.2462407908606
 10
560.0052001951806
 20
296.2616267753714
 10
559.9712502897377
 20
296.2758677075221
 10
559.9366374151112
 20
296.288911777727
 10
559.9014397211445
 20
296.3007071764003
 10
559.8665464891598
 20
296.310984452383
 10
559.831143750073
 20
296.32002414327
 10
559.7953229603888
 20
296.3277917040687
 10
559.7591755766113
 20
296.3342525897861
 10
559.7216027715682
 20
296.3395220390514
 10
559.6837516365513
 20
296.3433720639465
 10
559.6457355605992
 20
296.3457879792392
 10
559.6076679327502
 20
296.3467550996969
  0
LWPOLYLINE
  5
89
330
1F
100
AcDbEntity
  8
1
  6
CONTINUOUS
 62
   253
100
AcDbPolyline
 90
        9
 70
     0
 43
0.0
 10
495.3628993534175
 20
324.3148674749733
 10
495.3517551546909
 20
324.4107893515827
 10
495.3230038203139
 20
324.5029555766985
 10
495.2777182806917
 20
324.5879267292499
 10
495.2175884828628
 20
324.6625318909082
 10
495.1448583257543
 20
324.7239869771058
 10
495.0622419232895
 20
324.7699986323524
 10
494.9728223202071
 20
324.798849812727
 10
494.879936440273
 20
324.8094638618126
  0
LWPOLYLINE
  5
8A
330
1F
100
AcDbEntity
  8
1
  6
CONTINUOUS
 62
   253
100
AcDbPolyline
 90
        8
 70
     0
 43
0.0
 10
481.7381488005129
 20
325.8403415366873
 10
481.6451929969315
 20
325.8402588517653
 10
481.5554782883298
 20
325.8400136799788
 10
481.4721327622553
 20
325.8396145697456
 10
481.3980624316275
 20
325.8390754368637
 10
481.3358499106296
 20
325.8384150793079
 10
481.2876643665617
 20
325.8376565218007
 10
481.2551858873684
 20
325.8368262130072
  0
LWPOLYLINE
  5
8B
330
1F
100
AcDbEntity
  8
1
  6
CONTINUOUS
 62
     7
100
AcDbPolyline
 90
        5
 70
     0
 43
0.0
 10
-552.8481294400049
 20
265.1354117466635
 10
-552.7395636264206
 20
265.2941351413168
 10
-552.6628654165403
 20
265.4572920855424
 10
-552.6167925421864
 20
265.6245861935261
 10
-552.601418569394
 20
265.7940208992092
210
0.0
220
0.0
230
-1.0
  0
LWPOLYLINE
  5
8C
330
1F
100
AcDbEntity
  8
1
  6
CONTINUOUS
 62
   253
100
AcDbPolyline
 90
        9
 70
     0
 43
0.0
 10
495.0927743032972
 20
327.9488022614008
 10
495.1856781208326
 20
327.9594204684321
 10
495.2751135900868
 20
327.9882830266645
 10
495.3577418455076
 20
328.0343124195126
 10
495.430478153063
 20
328.0957902464866
 10
495.4906070716229
 20
328.1704213756838
 10
495.5358838276475
 20
328.2554196272083
 10
495.5646181185952
 20
328.3476117887274
 10
495.5757372164417
 20
328.4435560799847
  0
LWPOLYLINE
  5
8D
330
1F
100
AcDbEntity
  8
1
  6
CONTINUOUS
 62
   253
100
AcDbPolyline
 90
        9
 70
     0
 43
0.0
 10
495.5757372164417
 20
324.3564439200153
 10
495.5646181185952
 20
324.4523882112726
 10
495.5358838276475
 20
324.5445803727916
 10
495.4906070716229
 20
324.6295786243162
 10
495.430478153063
 20
324.7042097535134
 10
495.3577418455076
 20
324.7656875804874
 10
495.2751135900868
 20
324.8117169733355
 10
495.1856781208326
 20
324.8405795315678
 10
495.0927743032972
 20
324.8511977385991
  0
LWPOLYLINE
  5
8E
330
1F
100
AcDbEntity
  8
1
  6
CONTINUOUS
 62
   253
100
AcDbPolyline
 90
        9
 70
     0
 43
0.0
 10
494.879936440273
 20
327.9905361381873
 10
494.9728223202071
 20
328.0011501872729
 10
495.0622419232895
 20
328.0300013676475
 10
495.1448583257543
 20
328.0760130228941
 10
495.2175884828628
 20
328.1374681090917
 10
495.2777182806917
 20
328.21207327075
 10
495.3230038203139
 20
328.2970444233014
 10
495.3517551546909
 20
328.3892106484172
 10
495.3628993534175
 20
328.4851325250266
  0
LWPOLYLINE
  5
8F
330
1F
100
AcDbEntity
  8
1
  6
CONTINUOUS
 62
   253
100
AcDbPolyline
 90
        9
 70
     0
 43
0.0
 10
482.1100628354909
 20
324.8511977385991
 10
482.0171590179555
 20
324.8405795315678
 10
481.9277235487013
 20
324.8117169733355
 10
481.8450952932805
 20
324.7656875804874
 10
481.7723589857251
 20
324.7042097535134
 10
481.7122300671652
 20
324.6295786243162
 10
481.6669533111406
 20
324.5445803727916
 10
481.6382190201929
 20
324.4523882112726
 10
481.6270999223464
 20
324.3564439200153
  0
LWPOLYLINE
  5
90
330
1F
100
AcDbEntity
  8
1
  6
CONTINUOUS
 62
     7
100
AcDbPolyline
 90
        6
 70
     0
 43
0.0
 10
-416.601418569394
 20
385.3560065236358
 10
-416.623924949929
 20
385.4662621453302
 10
-416.6883107112155
 20
385.5683013873271
 10
-416.7830085185493
 20
385.653696444614
 10
-416.8754218652165
 20
385.7111566744928
 10
-416.9765859395505
 20
385.7578835683107
210
0.0
220
0.0
230
-1.0
  0
LWPOLYLINE
  5
91
330
1F
100
AcDbEntity
  8
1
  6
CONTINUOUS
 62
     7
100
AcDbPolyline
 90
        5
 70
     0
 43
0.0
 10
-424.4074831352556
 20
384.1540545904308
 10
-424.5024721434459
 20
383.9815857800368
 10
-424.5657979367369
 20
383.8035300696494
 10
-424.5974607302859
 20
383.6220560911241
 10
-424.601418569394
 20
383.5307149487647
210
0.0
220
0.0
230
-1.0
  0
LWPOLYLINE
  5
92
330
1F
100
AcDbEntity
  8
1
  6
CONTINUOUS
 62
     7
100
AcDbPolyline
 90
        5
 70
     0
 43
0.0
 10
552.7953540035326
 20
384.1540545904308
 10
552.7003649953423
 20
383.9815857800368
 10
552.6370392020513
 20
383.8035300696494
 10
552.6053764085023
 20
383.6220560911241
 10
552.601418569394
 20
383.5307149487647
  0
LWPOLYLINE
  5
93
330
1F
100
AcDbEntity
  8
1
  6
CONTINUOUS
 62
     7
100
AcDbPolyline
 90
        7
 70
     0
 43
0.0
 10
-560.601418569394
 20
389.8387484922122
 10
-560.5848190082662
 20
389.7254455108471
 10
-560.5355166570497
 20
389.6156212952168
 10
-560.4682906751796
 20
389.5269599209422
 10
-560.375574375576
 20
389.4425997433404
 10
-560.2776238411238
 20
389.3774519635508
 10
-560.1604606739031
 20
389.319340213817
210
0.0
220
0.0
230
-1.0
  0
LWPOLYLINE
  5
94
330
1F
100
AcDbEntity
  8
1
  6
CONTINUOUS
 62
     7
100
AcDbPolyline
 90
        7
 70
     0
 43
0.0
 10
-417.0044735696276
 20
267.0312513157362
 10
-416.8885123458389
 20
267.0820444056304
 10
-416.7909163504305
 20
267.1405444065695
 10
-416.7062673164753
 20
267.2121801793535
 10
-416.6325634806701
 20
267.3144766799393
 10
-416.6026686836387
 20
267.4178244321697
 10
-416.601418569394
 20
267.4439934763641
210
0.0
220
0.0
230
-1.0
  0
LWPOLYLINE
  5
95
330
1F
100
AcDbEntity
  8
1
  6
CONTINUOUS
 62
     7
100
AcDbPolyline
 90
        8
 70
     0
 43
0.0
 10
417.042376464885
 20
263.4806597861829
 10
416.92752812287
 20
263.4238791171215
 10
416.8272627632122
 20
263.3574002566595
 10
416.736262847977
 20
263.2749038848666
 10
416.6673204817385
 20
263.1843787047831
 10
416.6188045357309
 20
263.0771867184532
 10
416.6014345980413
 20
262.9647839382079
 10
416.601418569394
 20
262.9612515077877
  0
LWPOLYLINE
  5
96
330
1F
100
AcDbEntity
  8
1
  6
CONTINUOUS
 62
   253
100
AcDbPolyline
 90
        4
 70
     0
 43
0.0
 10
495.3266043225281
 20
327.7169808961315
 10
495.2616140017308
 20
327.8291818782787
 10
495.189471091272
 20
327.9057487687098
 10
495.0927743032972
 20
327.9488022614008
  0
LWPOLYLINE
  5
97
330
1F
100
AcDbEntity
  8
1
  6
CONTINUOUS
 62
   253
100
AcDbPolyline
 90
        3
 70
     0
 43
0.0
 10
-495.5757372164417
 20
328.4435560799847
 10
-495.6725198376814
 20
328.3790327435175
 10
-495.7447102200607
 20
328.2642864335053
210
0.0
220
0.0
230
-1.0
  0
LWPOLYLINE
  5
98
330
1F
100
AcDbEntity
  8
1
  6
CONTINUOUS
 62
   253
100
AcDbPolyline
 90
        3
 70
     0
 43
0.0
 10
-495.7226858619593
 20
324.4937816810236
 10
-495.6514273480928
 20
324.3987660126978
 10
-495.5757372164417
 20
324.3564439200153
210
0.0
220
0.0
230
-1.0
  0
LWPOLYLINE
  5
99
330
1F
100
AcDbEntity
  8
1
  6
CONTINUOUS
 62
     7
100
AcDbPolyline
 90
       35
 70
     0
 43
0.0
 10
-417.5951692060379
 20
356.453244900303
 10
-417.5582486039836
 20
356.4541613212507
 10
-417.5213753724735
 20
356.4564405587541
 10
-417.48465306782
 20
356.4600695759825
 10
-417.4481852463359
 20
356.4650353361051
 10
-417.4108780119927
 20
356.4715498464605
 10
-417.3739106159221
 20
356.4794559690686
 10
-417.3373835778852
 20
356.4887161470686
 10
-417.3013974176437
 20
356.4992928235997
 10
-417.2670695832333
 20
356.5107788800574
 10
-417.2332971873892
 20
356.5234527740811
 10
-417.2001529362617
 20
356.5372665849544
 10
-417.1677095360013
 20
356.5521723919607
 10
-417.124489759372
 20
356.574287087893
 10
-417.082666970762
 20
356.5983041240455
 10
-417.042376464885
 20
356.6240861050543
 10
-417.0023364675337
 20
356.6525411451959
 10
-416.964020291673
 20
356.6826943954858
 10
-416.92752812287
 20
356.7143940889315
 10
-416.8921409356282
 20
356.7482991801929
 10
-416.8586970426525
 20
356.7836281921931
 10
-416.8272627632122
 20
356.8202302798468
 10
-416.7943694255333
 20
356.8627453769948
 10
-416.7640183905597
 20
356.906639776731
 10
-416.736262847977
 20
356.9517220551061
 10
-416.7105763950514
 20
356.9989171655379
 10
-416.6875858690835
 20
357.0471398371826
 10
-416.6673204817385
 20
357.0962088989381
 10
-416.6476878493878
 20
357.1525729271665
 10
-416.6315094313688
 20
357.209770293799
 10
-416.6188045357309
 20
357.2675653048449
 10
-416.6093865564462
 20
357.3272625816156
 10
-416.6035942283329
 20
357.387341389636
 10
-416.6014345980413
 20
357.4475634793484
 10
-416.601418569394
 20
357.4532253728412
210
0.0
220
0.0
230
-1.0
  0
LWPOLYLINE
  5
9A
330
1F
100
AcDbEntity
  8
1
  6
CONTINUOUS
 62
   253
100
AcDbPolyline
 90
        4
 70
     0
 43
0.0
 10
495.0927743032972
 20
324.8511977385991
 10
495.1866088441494
 20
324.8920224514483
 10
495.2731568956995
 20
324.9872666450854
 10
495.332834444023
 20
325.0966892810903
  0
LWPOLYLINE
  5
9B
330
1F
100
AcDbEntity
  8
1
  6
CONTINUOUS
 62
   253
100
AcDbPolyline
 90
        9
 70
     0
 43
0.0
 10
482.3229006985151
 20
324.8094638618126
 10
482.230014818581
 20
324.798849812727
 10
482.1405952154986
 20
324.7699986323524
 10
482.0579788130337
 20
324.7239869771058
 10
481.9852486559253
 20
324.6625318909082
 10
481.9251188580964
 20
324.5879267292499
 10
481.8798333184742
 20
324.5029555766985
 10
481.8510819840972
 20
324.4107893515827
 10
481.8399377853706
 20
324.3148674749733
  0
LWPOLYLINE
  5
9C
330
1F
100
AcDbEntity
  8
1
  6
CONTINUOUS
 62
   253
100
AcDbPolyline
 90
        4
 70
     0
 43
0.0
 10
-482.1100628354909
 20
324.8511977385991
 10
-482.0162282946387
 20
324.8920224514483
 10
-481.9296802430886
 20
324.9872666450854
 10
-481.870002694765
 20
325.0966892810903
210
0.0
220
0.0
230
-1.0
  0
LWPOLYLINE
  5
9D
330
1F
100
AcDbEntity
  8
1
  6
CONTINUOUS
 62
   253
100
AcDbPolyline
 90
        9
 70
     0
 43
0.0
 10
481.6270999223464
 20
328.4435560799847
 10
481.6382190201929
 20
328.3476117887274
 10
481.6669533111406
 20
328.2554196272083
 10
481.7122300671652
 20
328.1704213756838
 10
481.7723589857251
 20
328.0957902464866
 10
481.8450952932805
 20
328.0343124195126
 10
481.9277235487013
 20
327.9882830266645
 10
482.0171590179555
 20
327.9594204684321
 10
482.1100628354909
 20
327.9488022614008
  0
LWPOLYLINE
  5
9E
330
1F
100
AcDbEntity
  8
1
  6
CONTINUOUS
 62
     7
100
AcDbPolyline
 90
        7
 70
     0
 43
0.0
 10
416.601418569394
 20
389.8387484922122
 10
416.6180181305219
 20
389.7254455108471
 10
416.6673204817385
 20
389.6156212952168
 10
416.7345464636086
 20
389.5269599209422
 10
416.8272627632122
 20
389.4425997433404
 10
416.9252132976643
 20
389.3774519635508
 10
417.042376464885
 20
389.319340213817
  0
LWPOLYLINE
  5
9F
330
1F
100
AcDbEntity
  8
1
  6
CONTINUOUS
 62
   253
100
AcDbPolyline
 90
        9
 70
     0
 43
0.0
 10
495.3628993534176
 20
269.2497588044838
 10
495.351755154691
 20
269.2518074693643
 10
495.3230038203139
 20
269.2489536430289
 10
495.2777182806917
 20
269.2413038233885
 10
495.2175884828629
 20
269.2291434832485
 10
495.1448583257544
 20
269.2129264171531
 10
495.0622419232895
 20
269.1932578068679
 10
494.9728223202072
 20
269.1708716374568
 10
494.879936440273
 20
269.1466033067316
  0
LWPOLYLINE
  5
A0
330
1F
100
AcDbEntity
  8
1
  6
CONTINUOUS
 62
   253
100
AcDbPolyline
 90
        9
 70
     0
 43
0.0
 10
481.6270999223464
 20
384.3465653550215
 10
481.6382190201929
 20
384.3445091269857
 10
481.6669533111406
 20
384.3473578659514
 10
481.7122300671652
 20
384.3550052208649
 10
481.772358985725
 20
384.3671656954897
 10
481.8450952932804
 20
384.3833853067454
 10
481.9277235487012
 20
384.4030585331118
 10
482.0171590179555
 20
384.4254509203689
 10
482.1100628354909
 20
384.4497265007394
  0
LWPOLYLINE
  5
A1
330
1F
100
AcDbEntity
  8
1
  6
CONTINUOUS
 62
   253
100
AcDbPolyline
 90
        9
 70
     0
 43
0.0
 10
495.5757372164417
 20
268.4534346449784
 10
495.5646181185951
 20
268.4554908730142
 10
495.5358838276475
 20
268.4526421340485
 10
495.4906070716228
 20
268.444994779135
 10
495.430478153063
 20
268.4328343045102
 10
495.3577418455076
 20
268.4166146932546
 10
495.2751135900868
 20
268.3969414668882
 10
495.1856781208325
 20
268.374549079631
 10
495.0927743032972
 20
268.3502734992606
  0
LINE
  5
A2
330
1F
100
AcDbEntity
  8
1
  6
CONTINUOUS
 62
   253
100
AcDbLine
 10
773.1022029754814
 20
385.2265366368231
 30
0.0
 11
773.1022029754814
 21
385.1844307460726
 31
0.0
  0
LINE
  5
A3
330
1F
100
AcDbEntity
  8
1
  6
CONTINUOUS
 62
   253
100
AcDbLine
 10
770.2044254966142
 20
269.209299745021
 30
0.0
 11
770.2044254966142
 21
269.2692850512353
 31
0.0
  0
LINE
  5
A4
330
1F
100
AcDbEntity
  8
1
  6
CONTINUOUS
 62
   253
100
AcDbLine
 10
838.5955745033859
 20
383.5907002549789
 30
0.0
 11
838.5955745033859
 21
383.5307149487646
 31
0.0
  0
LINE
  5
A5
330
1F
100
AcDbEntity
  8
1
  6
CONTINUOUS
 62
     7
100
AcDbLine
 10
834.4532249042056
 20
385.8647769221132
 30
0.0
 11
835.4532253728413
 21
385.3560065236358
 31
0.0
  0
LINE
  5
A6
330
1F
100
AcDbEntity
  8
1
  6
CONTINUOUS
 62
     7
100
AcDbLine
 10
745.4439934763641
 20
295.3467746271588
 30
0.0
 11
744.9352233337158
 21
296.346774627167
 31
0.0
  0
ARC
  5
A7
330
1F
100
AcDbEntity
  8
1
  6
CONTINUOUS
 62
     7
100
AcDbCircle
 10
804.6861345092682
 20
326.6861345092682
 30
0.0
 40
67.04206544903374
100
AcDbArc
 50
212.5088732068075
 51
237.4911267931925
  0
LINE
  5
A8
330
1F
100
AcDbEntity
  8
1
  6
CONTINUOUS
 62
     7
100
AcDbLine
 10
774.3467750957947
 20
266.9352230778867
 30
0.0
 11
773.3467746271589
 21
267.4439934763641
 31
0.0
  0
ARC
  5
A9
330
1F
100
AcDbEntity
  8
1
  6
CONTINUOUS
 62
     7
100
AcDbCircle
 10
481.7381488005129
 20
385.9
 30
0.0
 40
0.5000000000000004
100
AcDbArc
 50
195.0000000000003
 51
270.0000000000001
  0
LINE
  5
AA
330
1F
100
AcDbEntity
  8
1
  6
CONTINUOUS
 62
   253
100
AcDbLine
 10
861.5307149487647
 20
360.5955745033858
 30
0.0
 11
861.5907002549791
 21
360.5955745033858
 31
0.0
  0
ARC
  5
AB
330
1F
100
AcDbEntity
  8
1
  6
CONTINUOUS
 62
     7
100
AcDbCircle
 10
804.1138654907318
 20
326.6861345092682
 30
0.0
 40
67.04206544903373
100
AcDbArc
 50
302.5088732068075
 51
327.4911267931925
  0
LINE
  5
AC
330
1F
100
AcDbEntity
  8
1
  6
CONTINUOUS
 62
     7
100
AcDbLine
 10
745.6155692539274
 20
295.1022029754813
 30
0.0
 11
747.2692850512353
 21
292.2044254966141
 31
0.0
  0
LINE
  5
AD
330
1F
100
AcDbEntity
  8
1
  6
CONTINUOUS
 62
     7
100
AcDbLine
 10
774.3127004534479
 20
385.8456769279751
 30
0.0
 11
773.1022029754813
 21
385.1844307460725
 31
0.0
  0
ARC
  5
AE
330
1F
100
AcDbEntity
  8
1
  6
CONTINUOUS
 62
     7
100
AcDbCircle
 10
804.1138654907318
 20
326.1138654907317
 30
0.0
 40
67.04206544903374
100
AcDbArc
 50
32.50887320680755
 51
57.49112679319251
  0
LINE
  5
AF
330
1F
100
AcDbEntity
  8
1
  6
CONTINUOUS
 62
     7
100
AcDbLine
 10
744.9352230778867
 20
356.4532249042055
 30
0.0
 11
745.4439934763641
 21
357.4532253728412
 31
0.0
  0
LINE
  5
B0
330
1F
100
AcDbEntity
  8
1
  6
CONTINUOUS
 62
   253
100
AcDbLine
 10
835.6977970245188
 20
267.5734633631768
 30
0.0
 11
835.6977970245189
 21
267.6155692539274
 31
0.0
  0
LINE
  5
B1
330
1F
100
AcDbEntity
  8
1
  6
CONTINUOUS
 62
     7
100
AcDbLine
 10
774.3467746271671
 20
385.8647766662841
 30
0.0
 11
774.3127004534479
 21
385.845676927975
 31
0.0
  0
LINE
  5
B2
330
1F
100
AcDbEntity
  8
1
  6
CONTINUOUS
 62
   253
100
AcDbLine
 10
863.1844307460725
 20
295.1022029754813
 30
0.0
 11
863.2265366368231
 21
295.1022029754813
 31
0.0
  0
LINE
  5
B3
330
1F
100
AcDbEntity
  8
1
  6
CONTINUOUS
 62
     7
100
AcDbLine
 10
747.2692850512354
 20
360.5955745033859
 30
0.0
 11
745.6155692539276
 21
357.6977970245186
 31
0.0
  0
LINE
  5
B4
330
1F
100
AcDbEntity
  8
1
  6
CONTINUOUS
 62
     7
100
AcDbLine
 10
863.8647769221133
 20
296.3467750957944
 30
0.0
 11
863.3560065236359
 21
295.3467746271588
 31
0.0
  0
LINE
  5
B5
330
1F
100
AcDbEntity
  8
1
  6
CONTINUOUS
 62
     7
100
AcDbLine
 10
744.9352233337158
 20
296.346774627167
 30
0.0
 11
744.9543230720249
 21
296.3127004534479
 31
0.0
  0
LINE
  5
B6
330
1F
100
AcDbEntity
  8
1
  6
CONTINUOUS
 62
   253
100
AcDbLine
 10
770.2044254966142
 20
383.5307149487647
 30
0.0
 11
770.2044254966142
 21
383.5907002549789
 31
0.0
  0
LINE
  5
B7
330
1F
100
AcDbEntity
  8
1
  6
CONTINUOUS
 62
   253
100
AcDbLine
 10
861.590700254979
 20
292.2044254966141
 30
0.0
 11
861.5307149487646
 21
292.2044254966141
 31
0.0
  0
LINE
  5
B8
330
1F
100
AcDbEntity
  8
1
  6
CONTINUOUS
 62
   253
100
AcDbLine
 10
835.6977970245188
 20
385.1844307460726
 30
0.0
 11
835.6977970245188
 21
385.2265366368231
 31
0.0
  0
ARC
  5
B9
330
1F
100
AcDbEntity
  8
1
  6
CONTINUOUS
 62
     7
100
AcDbCircle
 10
804.6861345092691
 20
326.1138654907311
 30
0.0
 40
67.04206544903471
100
AcDbArc
 50
122.5088732068077
 51
147.4911267931924
  0
ARC
  5
BA
330
1F
100
AcDbEntity
  8
1
  6
CONTINUOUS
 62
     7
100
AcDbCircle
 10
559.6014185693941
 20
397.0312793053802
 30
0.0
 40
1.000000000000001
100
AcDbArc
 50
270.3580644756535
 51
0.0
  0
LINE
  5
BB
330
1F
100
AcDbEntity
  8
1
  6
CONTINUOUS
 62
   253
100
AcDbLine
 10
838.5955745033859
 20
269.2692850512353
 30
0.0
 11
838.5955745033859
 21
269.209299745021
 31
0.0
  0
ARC
  5
BC
330
1F
100
AcDbEntity
  8
1
  6
CONTINUOUS
 62
     7
100
AcDbCircle
 10
804.4
 20
326.4
 30
0.0
 40
66.58269975131392
100
AcDbArc
 50
120.9026190171381
 51
149.0973809828619
  0
CIRCLE
  5
BD
330
1F
100
AcDbEntity
  8
1
  6
CONTINUOUS
 62
   253
100
AcDbCircle
 10
804.4
 20
326.4
 30
0.0
 40
65.5137442963835
  0
LINE
  5
BE
330
1F
100
AcDbEntity
  8
1
  6
CONTINUOUS
 62
     7
100
AcDbLine
 10
863.1844307460727
 20
357.6977970245186
 30
0.0
 11
861.5307149487647
 21
360.5955745033858
 31
0.0
  0
LINE
  5
BF
330
1F
100
AcDbEntity
  8
1
  6
CONTINUOUS
 62
     7
100
AcDbLine
 10
745.6155692539274
 20
357.6977970245186
 30
0.0
 11
744.954323072025
 21
356.4872995465521
 31
0.0
  0
CIRCLE
  5
C0
330
1F
100
AcDbEntity
  8
1
  6
CONTINUOUS
 62
   253
100
AcDbCircle
 10
804.4
 20
326.4
 30
0.0
 40
66.25490454972477
  0
LINE
  5
C1
330
1F
100
AcDbEntity
  8
1
  6
CONTINUOUS
 62
   253
100
AcDbLine
 10
747.2692850512354
 20
292.2044254966141
 30
0.0
 11
747.2092997450211
 21
292.2044254966141
 31
0.0
  0
LINE
  5
C2
330
1F
100
AcDbEntity
  8
1
  6
CONTINUOUS
 62
     7
100
AcDbLine
 10
863.8647766662841
 20
356.4532253728329
 30
0.0
 11
863.8456769279751
 21
356.487299546552
 31
0.0
  0
LINE
  5
C3
330
1F
100
AcDbEntity
  8
1
  6
CONTINUOUS
 62
     7
100
AcDbLine
 10
861.5307149487647
 20
292.2044254966141
 30
0.0
 11
863.1844307460726
 21
295.1022029754813
 31
0.0
  0
LINE
  5
C4
330
1F
100
AcDbEntity
  8
1
  6
CONTINUOUS
 62
   253
100
AcDbLine
 10
773.1022029754814
 20
267.6155692539274
 30
0.0
 11
773.1022029754814
 21
267.5734633631768
 31
0.0
  0
LINE
  5
C5
330
1F
100
AcDbEntity
  8
1
  6
CONTINUOUS
 62
   253
100
AcDbLine
 10
745.573463363177
 20
295.1022029754813
 30
0.0
 11
745.6155692539276
 21
295.1022029754813
 31
0.0
  0
LINE
  5
C6
330
1F
100
AcDbEntity
  8
1
  6
CONTINUOUS
 62
   253
100
AcDbLine
 10
863.2265366368232
 20
357.6977970245186
 30
0.0
 11
863.1844307460727
 21
357.6977970245186
 31
0.0
  0
LINE
  5
C7
330
1F
100
AcDbEntity
  8
1
  6
CONTINUOUS
 62
     7
100
AcDbLine
 10
773.3467746271589
 20
385.3560065236358
 30
0.0
 11
774.3467746271672
 21
385.8647766662841
 31
0.0
  0
ARC
  5
C8
330
1F
100
AcDbEntity
  8
1
  6
CONTINUOUS
 62
     7
100
AcDbCircle
 10
804.4
 20
326.4
 30
0.0
 40
66.58269975131387
100
AcDbArc
 50
210.902619017138
 51
239.0973809828619
  0
LINE
  5
C9
330
1F
100
AcDbEntity
  8
1
  6
CONTINUOUS
 62
     7
100
AcDbLine
 10
863.3560065236359
 20
357.4532253728412
 30
0.0
 11
863.8647766662841
 21
356.4532253728329
 31
0.0
  0
LINE
  5
CA
330
1F
100
AcDbEntity
  8
1
  6
CONTINUOUS
 62
     7
100
AcDbLine
 10
744.954323072025
 20
356.4872995465521
 30
0.0
 11
744.9352233163148
 21
356.4532253728414
 31
0.0
  0
LINE
  5
CB
330
1F
100
AcDbEntity
  8
1
  6
CONTINUOUS
 62
     7
100
AcDbLine
 10
863.8456769279752
 20
296.3127004534478
 30
0.0
 11
863.8647766836855
 21
296.3467746271585
 31
0.0
  0
LINE
  5
CC
330
1F
100
AcDbEntity
  8
1
  6
CONTINUOUS
 62
     7
100
AcDbLine
 10
773.1022029754814
 20
385.1844307460726
 30
0.0
 11
770.2044254966142
 21
383.5307149487647
 31
0.0
  0
LINE
  5
CD
330
1F
100
AcDbEntity
  8
1
  6
CONTINUOUS
 62
     7
100
AcDbLine
 10
835.6977970245186
 20
385.1844307460725
 30
0.0
 11
834.4872995465521
 21
385.8456769279751
 31
0.0
  0
ARC
  5
CE
330
1F
100
AcDbEntity
  8
1
  6
CONTINUOUS
 62
     7
100
AcDbCircle
 10
804.4
 20
326.4
 30
0.0
 40
66.74041016788746
100
AcDbArc
 50
237.4877617572435
 51
302.5122382427564
  0
CIRCLE
  5
CF
330
1F
100
AcDbEntity
  8
1
  6
CONTINUOUS
 62
   253
100
AcDbCircle
 10
804.4
 20
326.4
 30
0.0
 40
56.41180954897479
  0
CIRCLE
  5
D0
330
1F
100
AcDbEntity
  8
1
  6
CONTINUOUS
 62
     7
100
AcDbCircle
 10
804.4
 20
326.4
 30
0.0
 40
48.99999999999999
  0
LINE
  5
D1
330
1F
100
AcDbEntity
  8
1
  6
CONTINUOUS
 62
   253
100
AcDbLine
 10
747.209299745021
 20
360.5955745033859
 30
0.0
 11
747.2692850512353
 21
360.5955745033859
 31
0.0
  0
LINE
  5
D2
330
1F
100
AcDbEntity
  8
1
  6
CONTINUOUS
 62
     7
100
AcDbLine
 10
863.8456769279751
 20
356.487299546552
 30
0.0
 11
863.1844307460725
 21
357.6977970245185
 31
0.0
  0
ARC
  5
D3
330
1F
100
AcDbEntity
  8
1
  6
CONTINUOUS
 62
     7
100
AcDbCircle
 10
804.4
 20
326.4
 30
0.0
 40
66.63417675090962
100
AcDbArc
 50
207.7766106965466
 51
242.2233893034534
  0
ARC
  5
D4
330
1F
100
AcDbEntity
  8
1
  6
CONTINUOUS
 62
     7
100
AcDbCircle
 10
804.4
 20
326.4
 30
0.0
 40
66.6341767509096
100
AcDbArc
 50
117.7766106965466
 51
152.2233893034534
  0
LINE
  5
D5
330
1F
100
AcDbEntity
  8
1
  6
CONTINUOUS
 62
   253
100
AcDbLine
 10
745.6155692539274
 20
357.6977970245186
 30
0.0
 11
745.5734633631769
 21
357.6977970245186
 31
0.0
  0
LINE
  5
D6
330
1F
100
AcDbEntity
  8
1
  6
CONTINUOUS
 62
     7
100
AcDbLine
 10
834.4532253728329
 20
266.9352233337158
 30
0.0
 11
834.4872995465521
 21
266.9543230720249
 31
0.0
  0
CIRCLE
  5
D7
330
1F
100
AcDbEntity
  8
1
  6
CONTINUOUS
 62
     7
100
AcDbCircle
 10
804.4
 20
326.4
 30
0.0
 40
71.75000000000003
  0
LINE
  5
D8
330
1F
100
AcDbEntity
  8
1
  6
CONTINUOUS
 62
     7
100
AcDbLine
 10
744.9543230720249
 20
296.3127004534478
 30
0.0
 11
745.6155692539273
 21
295.1022029754813
 31
0.0
  0
LINE
  5
D9
330
1F
100
AcDbEntity
  8
1
  6
CONTINUOUS
 62
   253
100
AcDbLine
 10
-316.5035701153299
 20
272.9
 30
0.0
 11
-316.5035701153299
 21
379.9
 31
0.0
  0
LINE
  5
DA
330
1F
100
AcDbEntity
  8
1
  6
CONTINUOUS
 62
   253
100
AcDbLine
 10
99.94907444130237
 20
381.3104086949114
 30
0.0
 11
99.94907444130237
 21
271.4895913050885
 31
0.0
  0
LINE
  5
DB
330
1F
100
AcDbEntity
  8
1
  6
CONTINUOUS
 62
   253
100
AcDbLine
 10
179.1490744413023
 20
381.3104086949114
 30
0.0
 11
179.1490744413023
 21
271.4895913050885
 31
0.0
  0
LINE
  5
DC
330
1F
100
AcDbEntity
  8
1
  6
CONTINUOUS
 62
     7
100
AcDbLine
 10
-875.0935927458816
 20
379.9
 30
0.0
 11
-875.0935927458816
 21
272.9
 31
0.0
  0
LINE
  5
DD
330
1F
100
AcDbEntity
  8
1
  6
CONTINUOUS
 62
   253
100
AcDbLine
 10
290.6964298846699
 20
379.9
 30
0.0
 11
290.6964298846699
 21
272.9
 31
0.0
  0
LINE
  5
DE
330
1F
100
AcDbEntity
  8
1
  6
CONTINUOUS
 62
   253
100
AcDbLine
 10
-290.1035701153299
 20
272.9
 30
0.0
 11
-290.1035701153299
 21
379.9
 31
0.0
  0
LINE
  5
DF
330
1F
100
AcDbEntity
  8
1
  6
CONTINUOUS
 62
   253
100
AcDbLine
 10
207.3064072541182
 20
272.9
 30
0.0
 11
207.3064072541182
 21
379.9
 31
0.0
  0
LINE
  5
E0
330
1F
100
AcDbEntity
  8
1
  6
CONTINUOUS
 62
   253
100
AcDbLine
 10
396.2964298846699
 20
379.9
 30
0.0
 11
396.2964298846699
 21
272.9
 31
0.0
  0
LINE
  5
E1
330
1F
100
AcDbEntity
  8
1
  6
CONTINUOUS
 62
   253
100
AcDbLine
 10
339.3064072541182
 20
379.9
 30
0.0
 11
339.3064072541182
 21
272.9
 31
0.0
  0
LINE
  5
E2
330
1F
100
AcDbEntity
  8
1
  6
CONTINUOUS
 62
   253
100
AcDbLine
 10
392.1064072541182
 20
272.9
 30
0.0
 11
392.1064072541182
 21
379.9
 31
0.0
  0
LINE
  5
E3
330
1F
100
AcDbEntity
  8
1
  6
CONTINUOUS
 62
   253
100
AcDbLine
 10
415.601418569394
 20
398.15
 30
0.0
 11
415.601418569394
 21
254.6499999999999
 31
0.0
  0
LINE
  5
E4
330
1F
100
AcDbEntity
  8
1
  6
CONTINUOUS
 62
     7
100
AcDbLine
 10
416.601418569394
 20
255.6499999999999
 30
0.0
 11
416.601418569394
 21
397.1499999999999
 31
0.0
  0
LINE
  5
E5
330
1F
100
AcDbEntity
  8
1
  6
CENTER
 62
     1
100
AcDbLine
 10
-892.3499999999997
 20
326.4
 30
0.0
 11
581.6014185693938
 21
326.4
 31
0.0
  0
LINE
  5
E7
330
1F
100
AcDbEntity
  8
1
  6
CONTINUOUS
 62
   253
100
AcDbLine
 10
561.6014185693941
 20
398.15
 30
0.0
 11
561.6014185693941
 21
254.6499999999999
 31
0.0
  0
LINE
  5
E8
330
1F
100
AcDbEntity
  8
1
  6
CONTINUOUS
 62
   253
100
AcDbLine
 10
105.89642988467
 20
272.9
 30
0.0
 11
105.89642988467
 21
379.9
 31
0.0
  0
LINE
  5
E9
330
1F
100
AcDbEntity
  8
1
  6
CONTINUOUS
 62
   253
100
AcDbLine
 10
-162.2935927458818
 20
379.9
 30
0.0
 11
-162.2935927458818
 21
272.9
 31
0.0
  0
LINE
  5
EA
330
1F
100
AcDbEntity
  8
1
  6
CONTINUOUS
 62
   253
100
AcDbLine
 10
-83.09359274588174
 20
379.9
 30
0.0
 11
-83.09359274588174
 21
272.9
 31
0.0
  0
LINE
  5
EB
330
1F
100
AcDbEntity
  8
1
  6
CONTINUOUS
 62
   253
100
AcDbLine
 10
-215.0935927458818
 20
272.9
 30
0.0
 11
-215.0935927458818
 21
379.9
 31
0.0
  0
LINE
  5
EC
330
1F
100
AcDbEntity
  8
1
  6
CONTINUOUS
 62
   253
100
AcDbLine
 10
-109.4935927458818
 20
272.9
 30
0.0
 11
-109.4935927458818
 21
379.9
 31
0.0
  0
LINE
  5
ED
330
1F
100
AcDbEntity
  8
1
  6
CONTINUOUS
 62
   253
100
AcDbLine
 10
213.2537626974859
 20
381.3104086949114
 30
0.0
 11
213.2537626974859
 21
271.4895913050885
 31
0.0
  0
LINE
  5
EE
330
1F
100
AcDbEntity
  8
1
  6
CONTINUOUS
 62
   253
100
AcDbLine
 10
345.2537626974859
 20
381.3104086949114
 30
0.0
 11
345.2537626974859
 21
271.4895913050885
 31
0.0
  0
LINE
  5
EF
330
1F
100
AcDbEntity
  8
1
  6
CONTINUOUS
 62
   253
100
AcDbLine
 10
-294.2935927458817
 20
379.9
 30
0.0
 11
-294.2935927458817
 21
272.9
 31
0.0
  0
LINE
  5
F0
330
1F
100
AcDbEntity
  8
1
  6
CONTINUOUS
 62
   253
100
AcDbLine
 10
28.45376269748585
 20
381.3104086949114
 30
0.0
 11
28.45376269748585
 21
271.4895913050885
 31
0.0
  0
LINE
  5
F1
330
1F
100
AcDbEntity
  8
1
  6
CONTINUOUS
 62
   253
100
AcDbLine
 10
-131.70357011533
 20
379.9
 30
0.0
 11
-131.70357011533
 21
272.9
 31
0.0
  0
LINE
  5
F2
330
1F
100
AcDbEntity
  8
1
  6
CONTINUOUS
 62
   253
100
AcDbLine
 10
-320.6935927458817
 20
272.9
 30
0.0
 11
-320.6935927458817
 21
379.9
 31
0.0
  0
LINE
  5
F3
330
1F
100
AcDbEntity
  8
1
  6
CONTINUOUS
 62
   253
100
AcDbLine
 10
-210.90357011533
 20
272.9
 30
0.0
 11
-210.90357011533
 21
379.9
 31
0.0
  0
LINE
  5
F4
330
1F
100
AcDbEntity
  8
1
  6
CONTINUOUS
 62
   253
100
AcDbLine
 10
365.7064072541182
 20
379.9
 30
0.0
 11
365.7064072541182
 21
272.9
 31
0.0
  0
LINE
  5
F5
330
1F
100
AcDbEntity
  8
1
  6
CONTINUOUS
 62
   253
100
AcDbLine
 10
369.8964298846699
 20
379.9
 30
0.0
 11
369.8964298846699
 21
272.9
 31
0.0
  0
LINE
  5
F6
330
1F
100
AcDbEntity
  8
1
  6
CONTINUOUS
 62
   253
100
AcDbLine
 10
-369.3035701153299
 20
379.9
 30
0.0
 11
-369.3035701153299
 21
272.9
 31
0.0
  0
LINE
  5
F7
330
1F
100
AcDbEntity
  8
1
  6
CONTINUOUS
 62
   253
100
AcDbLine
 10
390.3490744413023
 20
381.3104086949114
 30
0.0
 11
390.3490744413023
 21
271.4895913050885
 31
0.0
  0
LINE
  5
F8
330
1F
100
AcDbEntity
  8
1
  6
CONTINUOUS
 62
   253
100
AcDbLine
 10
264.2964298846699
 20
379.9
 30
0.0
 11
264.2964298846699
 21
272.9
 31
0.0
  0
LINE
  5
F9
330
1F
100
AcDbEntity
  8
1
  6
CONTINUOUS
 62
   253
100
AcDbLine
 10
128.1064072541183
 20
379.9
 30
0.0
 11
128.1064072541183
 21
272.9
 31
0.0
  0
LINE
  5
FA
330
1F
100
AcDbEntity
  8
1
  6
CONTINUOUS
 62
   253
100
AcDbLine
 10
-342.90357011533
 20
379.9
 30
0.0
 11
-342.90357011533
 21
272.9
 31
0.0
  0
LINE
  5
FB
330
1F
100
AcDbEntity
  8
1
  6
CONTINUOUS
 62
   253
100
AcDbLine
 10
211.49642988467
 20
272.9
 30
0.0
 11
211.49642988467
 21
379.9
 31
0.0
  0
LINE
  5
FC
330
1F
100
AcDbEntity
  8
1
  6
CONTINUOUS
 62
   253
100
AcDbLine
 10
239.6537626974859
 20
381.3104086949114
 30
0.0
 11
239.6537626974859
 21
271.4895913050885
 31
0.0
  0
LINE
  5
FD
330
1F
100
AcDbEntity
  8
1
  6
CONTINUOUS
 62
   253
100
AcDbLine
 10
-3.893592745881788
 20
272.9
 30
0.0
 11
-3.893592745881788
 21
379.9
 31
0.0
  0
LINE
  5
FE
330
1F
100
AcDbEntity
  8
1
  6
CONTINUOUS
 62
   253
100
AcDbLine
 10
53.09642988467002
 20
379.9
 30
0.0
 11
53.09642988467002
 21
272.9
 31
0.0
  0
LINE
  5
FF
330
1F
100
AcDbEntity
  8
1
  6
CONTINUOUS
 62
   253
100
AcDbLine
 10
260.1064072541182
 20
379.9
 30
0.0
 11
260.1064072541182
 21
272.9
 31
0.0
  0
LINE
  5
100
330
1F
100
AcDbEntity
  8
1
  6
CONTINUOUS
 62
   253
100
AcDbLine
 10
22.50640725411825
 20
379.9
 30
0.0
 11
22.50640725411825
 21
272.9
 31
0.0
  0
LINE
  5
101
330
1F
100
AcDbEntity
  8
1
  6
CONTINUOUS
 62
   253
100
AcDbLine
 10
-241.4935927458817
 20
272.9
 30
0.0
 11
-241.4935927458817
 21
379.9
 31
0.0
  0
LINE
  5
102
330
1F
100
AcDbEntity
  8
1
  6
CONTINUOUS
 62
   253
100
AcDbLine
 10
-26.10357011533009
 20
379.9
 30
0.0
 11
-26.10357011533009
 21
272.9
 31
0.0
  0
LINE
  5
103
330
1F
100
AcDbEntity
  8
1
  6
CONTINUOUS
 62
   253
100
AcDbLine
 10
-184.50357011533
 20
272.9
 30
0.0
 11
-184.50357011533
 21
379.9
 31
0.0
  0
LINE
  5
104
330
1F
100
AcDbEntity
  8
1
  6
CONTINUOUS
 62
   253
100
AcDbLine
 10
284.7490744413023
 20
381.3104086949114
 30
0.0
 11
284.7490744413023
 21
271.4895913050885
 31
0.0
  0
LINE
  5
105
330
1F
100
AcDbEntity
  8
1
  6
CONTINUOUS
 62
   253
100
AcDbLine
 10
205.5490744413023
 20
381.3104086949114
 30
0.0
 11
205.5490744413023
 21
271.4895913050885
 31
0.0
  0
LINE
  5
106
330
1F
100
AcDbEntity
  8
1
  6
CONTINUOUS
 62
   253
100
AcDbLine
 10
-135.8935927458818
 20
272.9
 30
0.0
 11
-135.8935927458818
 21
379.9
 31
0.0
  0
LINE
  5
107
330
1F
100
AcDbEntity
  8
1
  6
CONTINUOUS
 62
   253
100
AcDbLine
 10
-267.8935927458817
 20
379.9
 30
0.0
 11
-267.8935927458817
 21
272.9
 31
0.0
  0
LINE
  5
108
330
1F
100
AcDbEntity
  8
1
  6
CONTINUOUS
 62
   253
100
AcDbLine
 10
-56.69359274588174
 20
379.9
 30
0.0
 11
-56.69359274588174
 21
272.9
 31
0.0
  0
LINE
  5
109
330
1F
100
AcDbEntity
  8
1
  6
CONTINUOUS
 62
   253
100
AcDbLine
 10
158.69642988467
 20
379.9
 30
0.0
 11
158.69642988467
 21
272.9
 31
0.0
  0
LINE
  5
10A
330
1F
100
AcDbEntity
  8
1
  6
CONTINUOUS
 62
     7
100
AcDbLine
 10
560.601418569394
 20
255.6499999999999
 30
0.0
 11
560.601418569394
 21
397.1499999999999
 31
0.0
  0
LINE
  5
10B
330
1F
100
AcDbEntity
  8
1
  6
CONTINUOUS
 62
   253
100
AcDbLine
 10
-188.6935927458818
 20
379.9
 30
0.0
 11
-188.6935927458818
 21
272.9
 31
0.0
  0
LINE
  5
10C
330
1F
100
AcDbEntity
  8
1
  6
CONTINUOUS
 62
   253
100
AcDbLine
 10
134.0537626974859
 20
381.3104086949114
 30
0.0
 11
134.0537626974859
 21
271.4895913050885
 31
0.0
  0
LINE
  5
10D
330
1F
100
AcDbEntity
  8
1
  6
CONTINUOUS
 62
   253
100
AcDbLine
 10
286.5064072541182
 20
272.9
 30
0.0
 11
286.5064072541182
 21
379.9
 31
0.0
  0
LINE
  5
10E
330
1F
100
AcDbEntity
  8
1
  6
CONTINUOUS
 62
   253
100
AcDbLine
 10
343.49642988467
 20
272.9
 30
0.0
 11
343.49642988467
 21
379.9
 31
0.0
  0
LINE
  5
10F
330
1F
100
AcDbEntity
  8
1
  6
CONTINUOUS
 62
   253
100
AcDbLine
 10
73.5490744413024
 20
381.3104086949114
 30
0.0
 11
73.5490744413024
 21
271.4895913050885
 31
0.0
  0
LINE
  5
110
330
1F
100
AcDbEntity
  8
1
  6
CONTINUOUS
 62
   253
100
AcDbLine
 10
75.30640725411826
 20
272.9
 30
0.0
 11
75.30640725411826
 21
379.9
 31
0.0
  0
LINE
  5
111
330
1F
100
AcDbEntity
  8
1
  6
CONTINUOUS
 62
   253
100
AcDbLine
 10
237.89642988467
 20
272.9
 30
0.0
 11
237.89642988467
 21
379.9
 31
0.0
  0
LINE
  5
112
330
1F
100
AcDbEntity
  8
1
  6
CONTINUOUS
 62
   253
100
AcDbLine
 10
48.90640725411822
 20
379.9
 30
0.0
 11
48.90640725411822
 21
272.9
 31
0.0
  0
LINE
  5
113
330
1F
100
AcDbEntity
  8
1
  6
CONTINUOUS
 62
   253
100
AcDbLine
 10
154.5064072541182
 20
379.9
 30
0.0
 11
154.5064072541182
 21
272.9
 31
0.0
  0
LINE
  5
114
330
1F
100
AcDbEntity
  8
1
  6
CONTINUOUS
 62
   253
100
AcDbLine
 10
180.9064072541182
 20
272.9
 30
0.0
 11
180.9064072541182
 21
379.9
 31
0.0
  0
LINE
  5
115
330
1F
100
AcDbEntity
  8
1
  6
CONTINUOUS
 62
   253
100
AcDbLine
 10
0.2964298846700048
 20
272.9
 30
0.0
 11
0.2964298846700048
 21
379.9
 31
0.0
  0
LINE
  5
116
330
1F
100
AcDbEntity
  8
1
  6
CONTINUOUS
 62
   253
100
AcDbLine
 10
-60.06973737447056
 20
388.6123969181465
 30
0.0
 11
-60.06973737447056
 21
264.1876030818534
 31
0.0
  0
LINE
  5
117
330
1F
100
AcDbEntity
  8
1
  6
CONTINUOUS
 62
   253
100
AcDbLine
 10
56.47257451325878
 20
388.6123969181465
 30
0.0
 11
56.47257451325878
 21
264.1876030818534
 31
0.0
  0
LINE
  5
118
330
1F
100
AcDbEntity
  8
1
  6
CONTINUOUS
 62
   253
100
AcDbLine
 10
-192.0697373744705
 20
388.6123969181465
 30
0.0
 11
-192.0697373744705
 21
264.1876030818534
 31
0.0
  0
LINE
  5
119
330
1F
100
AcDbEntity
  8
1
  6
CONTINUOUS
 62
   253
100
AcDbLine
 10
-233.9274254867412
 20
388.6123969181467
 30
0.0
 11
-233.9274254867412
 21
264.1876030818534
 31
0.0
  0
LINE
  5
11A
330
1F
100
AcDbEntity
  8
1
  6
CONTINUOUS
 62
   253
100
AcDbLine
 10
-30.29359274588177
 20
272.9
 30
0.0
 11
-30.29359274588177
 21
379.9
 31
0.0
  0
LINE
  5
11B
330
1F
100
AcDbEntity
  8
1
  6
CONTINUOUS
 62
   253
100
AcDbLine
 10
200.803234480554
 20
391.5449538761623
 30
0.0
 11
200.803234480554
 21
261.2550461238376
 31
0.0
  0
LINE
  5
11C
330
1F
100
AcDbEntity
  8
1
  6
CONTINUOUS
 62
   253
100
AcDbLine
 10
230.3302626255295
 20
388.6123969181465
 30
0.0
 11
230.3302626255295
 21
264.1876030818534
 31
0.0
  0
LINE
  5
11D
330
1F
100
AcDbEntity
  8
1
  6
CONTINUOUS
 62
   253
100
AcDbLine
 10
-347.0935927458817
 20
272.9
 30
0.0
 11
-347.0935927458817
 21
379.9
 31
0.0
  0
LINE
  5
11E
330
1F
100
AcDbEntity
  8
1
  6
CONTINUOUS
 62
   253
100
AcDbLine
 10
33.19960265823426
 20
391.5449538761623
 30
0.0
 11
33.19960265823426
 21
261.2550461238376
 31
0.0
  0
LINE
  5
11F
330
1F
100
AcDbEntity
  8
1
  6
CONTINUOUS
 62
   253
100
AcDbLine
 10
349.9996026582342
 20
391.5449538761623
 30
0.0
 11
349.9996026582342
 21
261.2550461238376
 31
0.0
  0
LINE
  5
120
330
1F
100
AcDbEntity
  8
1
  6
CONTINUOUS
 62
   253
100
AcDbLine
 10
-204.4003973417657
 20
391.5449538761623
 30
0.0
 11
-204.4003973417657
 21
261.2550461238376
 31
0.0
  0
LINE
  5
121
330
1F
100
AcDbEntity
  8
1
  6
CONTINUOUS
 62
   253
100
AcDbLine
 10
79.49642988467
 20
379.9
 30
0.0
 11
79.49642988467
 21
272.9
 31
0.0
  0
LINE
  5
122
330
1F
100
AcDbEntity
  8
1
  6
CONTINUOUS
 62
   253
100
AcDbLine
 10
45.53026262552946
 20
388.6123969181465
 30
0.0
 11
45.53026262552946
 21
264.1876030818534
 31
0.0
  0
LINE
  5
123
330
1F
100
AcDbEntity
  8
1
  6
CONTINUOUS
 62
   253
100
AcDbLine
 10
-49.12742548674125
 20
388.6123969181465
 30
0.0
 11
-49.12742548674125
 21
264.1876030818534
 31
0.0
  0
LINE
  5
124
330
1F
100
AcDbEntity
  8
1
  6
CONTINUOUS
 62
   253
100
AcDbLine
 10
244.3996026582342
 20
391.5449538761623
 30
0.0
 11
244.3996026582342
 21
261.2550461238376
 31
0.0
  0
LINE
  5
125
330
1F
100
AcDbEntity
  8
1
  6
CONTINUOUS
 62
   253
100
AcDbLine
 10
217.9996026582342
 20
391.5449538761623
 30
0.0
 11
217.9996026582342
 21
261.2550461238376
 31
0.0
  0
LINE
  5
126
330
1F
100
AcDbEntity
  8
1
  6
CONTINUOUS
 62
   253
100
AcDbLine
 10
-237.3035701153299
 20
379.9
 30
0.0
 11
-237.3035701153299
 21
272.9
 31
0.0
  0
LINE
  5
127
330
1F
100
AcDbEntity
  8
1
  6
CONTINUOUS
 62
   253
100
AcDbLine
 10
-111.2509255586976
 20
381.3104086949114
 30
0.0
 11
-111.2509255586976
 21
271.4895913050885
 31
0.0
  0
LINE
  5
128
330
1F
100
AcDbEntity
  8
1
  6
CONTINUOUS
 62
   253
100
AcDbLine
 10
101.7064072541182
 20
272.9
 30
0.0
 11
101.7064072541182
 21
379.9
 31
0.0
  0
LINE
  5
129
330
1F
100
AcDbEntity
  8
1
  6
CONTINUOUS
 62
   253
100
AcDbLine
 10
-128.3274254867413
 20
388.6123969181467
 30
0.0
 11
-128.3274254867413
 21
264.1876030818534
 31
0.0
  0
LINE
  5
12A
330
1F
100
AcDbEntity
  8
1
  6
CONTINUOUS
 62
   253
100
AcDbLine
 10
124.7302626255295
 20
388.6123969181465
 30
0.0
 11
124.7302626255295
 21
264.1876030818534
 31
0.0
  0
LINE
  5
12B
330
1F
100
AcDbEntity
  8
1
  6
CONTINUOUS
 62
   253
100
AcDbLine
 10
-297.6697373744704
 20
388.6123969181465
 30
0.0
 11
-297.6697373744704
 21
264.1876030818534
 31
0.0
  0
LINE
  5
12C
330
1F
100
AcDbEntity
  8
1
  6
CONTINUOUS
 62
   253
100
AcDbLine
 10
-78.90357011532993
 20
272.9
 30
0.0
 11
-78.90357011532993
 21
379.9
 31
0.0
  0
LINE
  5
12D
330
1F
100
AcDbEntity
  8
1
  6
CONTINUOUS
 62
   253
100
AcDbLine
 10
-263.7035701153299
 20
379.9
 30
0.0
 11
-263.7035701153299
 21
272.9
 31
0.0
  0
LINE
  5
12E
330
1F
100
AcDbEntity
  8
1
  6
CONTINUOUS
 62
   253
100
AcDbLine
 10
188.4725745132587
 20
388.6123969181465
 30
0.0
 11
188.4725745132587
 21
264.1876030818534
 31
0.0
  0
LINE
  5
12F
330
1F
100
AcDbEntity
  8
1
  6
CONTINUOUS
 62
   253
100
AcDbLine
 10
185.09642988467
 20
379.9
 30
0.0
 11
185.09642988467
 21
272.9
 31
0.0
  0
LINE
  5
130
330
1F
100
AcDbEntity
  8
1
  6
CONTINUOUS
 62
   253
100
AcDbLine
 10
-32.05092555869764
 20
381.3104086949114
 30
0.0
 11
-32.05092555869764
 21
271.4895913050885
 31
0.0
  0
LINE
  5
131
330
1F
100
AcDbEntity
  8
1
  6
CONTINUOUS
 62
   253
100
AcDbLine
 10
174.4032344805539
 20
391.5449538761623
 30
0.0
 11
174.4032344805539
 21
261.2550461238376
 31
0.0
  0
LINE
  5
132
330
1F
100
AcDbEntity
  8
1
  6
CONTINUOUS
 62
   253
100
AcDbLine
 10
-243.2509255586976
 20
381.3104086949114
 30
0.0
 11
-243.2509255586976
 21
271.4895913050885
 31
0.0
  0
LINE
  5
133
330
1F
100
AcDbEntity
  8
1
  6
CONTINUOUS
 62
   253
100
AcDbLine
 10
-52.50357011533006
 20
379.9
 30
0.0
 11
-52.50357011533006
 21
272.9
 31
0.0
  0
LINE
  5
134
330
1F
100
AcDbEntity
  8
1
  6
CONTINUOUS
 62
   253
100
AcDbLine
 10
-348.8509255586976
 20
381.3104086949114
 30
0.0
 11
-348.8509255586976
 21
271.4895913050885
 31
0.0
  0
LINE
  5
135
330
1F
100
AcDbEntity
  8
1
  6
CONTINUOUS
 62
   253
100
AcDbLine
 10
-365.9274254867412
 20
388.6123969181467
 30
0.0
 11
-365.9274254867412
 21
264.1876030818534
 31
0.0
  0
LINE
  5
136
330
1F
100
AcDbEntity
  8
1
  6
CONTINUOUS
 62
   253
100
AcDbLine
 10
82.87257451325875
 20
388.6123969181465
 30
0.0
 11
82.87257451325875
 21
264.1876030818534
 31
0.0
  0
LINE
  5
137
330
1F
100
AcDbEntity
  8
1
  6
CONTINUOUS
 62
   253
100
AcDbLine
 10
267.6725745132587
 20
388.6123969181465
 30
0.0
 11
267.6725745132587
 21
264.1876030818534
 31
0.0
  0
LINE
  5
138
330
1F
100
AcDbEntity
  8
1
  6
CONTINUOUS
 62
   253
100
AcDbLine
 10
6.799602658234274
 20
391.5449538761623
 30
0.0
 11
6.799602658234274
 21
261.2550461238376
 31
0.0
  0
LINE
  5
139
330
1F
100
AcDbEntity
  8
1
  6
CONTINUOUS
 62
   253
100
AcDbLine
 10
-86.46973737447055
 20
388.6123969181465
 30
0.0
 11
-86.46973737447055
 21
264.1876030818534
 31
0.0
  0
LINE
  5
13A
330
1F
100
AcDbEntity
  8
1
  6
CONTINUOUS
 62
   253
100
AcDbLine
 10
-158.10357011533
 20
379.9
 30
0.0
 11
-158.10357011533
 21
272.9
 31
0.0
  0
LINE
  5
13B
330
1F
100
AcDbEntity
  8
1
  6
CONTINUOUS
 62
   253
100
AcDbLine
 10
68.80323448055398
 20
391.5449538761623
 30
0.0
 11
68.80323448055398
 21
261.2550461238376
 31
0.0
  0
LINE
  5
13C
330
1F
100
AcDbEntity
  8
1
  6
CONTINUOUS
 62
   253
100
AcDbLine
 10
233.7064072541182
 20
379.9
 30
0.0
 11
233.7064072541182
 21
272.9
 31
0.0
  0
LINE
  5
13D
330
1F
100
AcDbEntity
  8
1
  6
CONTINUOUS
 62
   253
100
AcDbLine
 10
132.29642988467
 20
272.9
 30
0.0
 11
132.29642988467
 21
379.9
 31
0.0
  0
LINE
  5
13E
330
1F
100
AcDbEntity
  8
1
  6
CONTINUOUS
 62
   253
100
AcDbLine
 10
-98.80039734176576
 20
391.5449538761623
 30
0.0
 11
-98.80039734176576
 21
261.2550461238376
 31
0.0
  0
LINE
  5
13F
330
1F
100
AcDbEntity
  8
1
  6
CONTINUOUS
 62
   253
100
AcDbLine
 10
2.053762697485875
 20
381.3104086949114
 30
0.0
 11
2.053762697485875
 21
271.4895913050885
 31
0.0
  0
LINE
  5
140
330
1F
100
AcDbEntity
  8
1
  6
CONTINUOUS
 62
   253
100
AcDbLine
 10
362.3302626255294
 20
388.6123969181465
 30
0.0
 11
362.3302626255294
 21
264.1876030818534
 31
0.0
  0
LINE
  5
141
330
1F
100
AcDbEntity
  8
1
  6
CONTINUOUS
 62
   253
100
AcDbLine
 10
107.6537626974859
 20
381.3104086949114
 30
0.0
 11
107.6537626974859
 21
271.4895913050885
 31
0.0
  0
LINE
  5
142
330
1F
100
AcDbEntity
  8
1
  6
CONTINUOUS
 62
   253
100
AcDbLine
 10
-216.8509255586976
 20
381.3104086949114
 30
0.0
 11
-216.8509255586976
 21
271.4895913050885
 31
0.0
  0
LINE
  5
143
330
1F
100
AcDbEntity
  8
1
  6
CONTINUOUS
 62
   253
100
AcDbLine
 10
335.9302626255295
 20
388.6123969181467
 30
0.0
 11
335.9302626255295
 21
264.1876030818534
 31
0.0
  0
LINE
  5
144
330
1F
100
AcDbEntity
  8
1
  6
CONTINUOUS
 62
   253
100
AcDbLine
 10
-22.72742548674127
 20
388.6123969181467
 30
0.0
 11
-22.72742548674127
 21
264.1876030818534
 31
0.0
  0
LINE
  5
145
330
1F
100
AcDbEntity
  8
1
  6
CONTINUOUS
 62
   253
100
AcDbLine
 10
-105.30357011533
 20
272.9
 30
0.0
 11
-105.30357011533
 21
379.9
 31
0.0
  0
LINE
  5
146
330
1F
100
AcDbEntity
  8
1
  6
CONTINUOUS
 62
   253
100
AcDbLine
 10
-77.14623730251407
 20
381.3104086949114
 30
0.0
 11
-77.14623730251407
 21
271.4895913050885
 31
0.0
  0
LINE
  5
147
330
1F
100
AcDbEntity
  8
1
  6
CONTINUOUS
 62
   253
100
AcDbLine
 10
-182.7462373025141
 20
381.3104086949114
 30
0.0
 11
-182.7462373025141
 21
271.4895913050885
 31
0.0
  0
LINE
  5
148
330
1F
100
AcDbEntity
  8
1
  6
CONTINUOUS
 62
   253
100
AcDbLine
 10
162.0725745132587
 20
388.6123969181465
 30
0.0
 11
162.0725745132587
 21
264.1876030818534
 31
0.0
  0
LINE
  5
149
330
1F
100
AcDbEntity
  8
1
  6
CONTINUOUS
 62
   253
100
AcDbLine
 10
306.4032344805539
 20
402.3500000000001
 30
0.0
 11
306.4032344805539
 21
252.3500000000002
 31
0.0
  0
LINE
  5
14A
330
1F
100
AcDbEntity
  8
1
  6
CONTINUOUS
 62
   253
100
AcDbLine
 10
19.13026262552948
 20
388.6123969181465
 30
0.0
 11
19.13026262552948
 21
264.1876030818534
 31
0.0
  0
LINE
  5
14B
330
1F
100
AcDbEntity
  8
1
  6
CONTINUOUS
 62
   253
100
AcDbLine
 10
-154.7274254867413
 20
388.6123969181467
 30
0.0
 11
-154.7274254867413
 21
264.1876030818534
 31
0.0
  0
LINE
  5
14C
330
1F
100
AcDbEntity
  8
1
  6
CONTINUOUS
 62
   253
100
AcDbLine
 10
-260.3274254867412
 20
388.6123969181467
 30
0.0
 11
-260.3274254867412
 21
264.1876030818534
 31
0.0
  0
LINE
  5
14D
330
1F
100
AcDbEntity
  8
1
  6
CONTINUOUS
 62
   253
100
AcDbLine
 10
373.2725745132587
 20
388.6123969181465
 30
0.0
 11
373.2725745132587
 21
264.1876030818534
 31
0.0
  0
LINE
  5
14E
330
1F
100
AcDbEntity
  8
1
  6
CONTINUOUS
 62
   253
100
AcDbLine
 10
26.69642988466998
 20
272.9
 30
0.0
 11
26.69642988466998
 21
379.9
 31
0.0
  0
LINE
  5
14F
330
1F
100
AcDbEntity
  8
1
  6
CONTINUOUS
 62
   253
100
AcDbLine
 10
-103.5462373025141
 20
381.3104086949114
 30
0.0
 11
-103.5462373025141
 21
271.4895913050885
 31
0.0
  0
LINE
  5
150
330
1F
100
AcDbEntity
  8
1
  6
CONTINUOUS
 62
   253
100
AcDbLine
 10
-271.2697373744704
 20
388.6123969181465
 30
0.0
 11
-271.2697373744704
 21
264.1876030818534
 31
0.0
  0
LINE
  5
151
330
1F
100
AcDbEntity
  8
1
  6
CONTINUOUS
 62
   253
100
AcDbLine
 10
256.7302626255295
 20
388.6123969181465
 30
0.0
 11
256.7302626255295
 21
264.1876030818534
 31
0.0
  0
LINE
  5
152
330
1F
100
AcDbEntity
  8
1
  6
CONTINUOUS
 62
   253
100
AcDbLine
 10
294.0725745132587
 20
388.6123969181465
 30
0.0
 11
294.0725745132587
 21
264.1876030818534
 31
0.0
  0
LINE
  5
153
330
1F
100
AcDbEntity
  8
1
  6
CONTINUOUS
 62
   253
100
AcDbLine
 10
-5.650925558697659
 20
381.3104086949114
 30
0.0
 11
-5.650925558697659
 21
271.4895913050885
 31
0.0
  0
ARC
  5
154
330
1F
100
AcDbEntity
  8
1
  6
CONTINUOUS
 62
     7
100
AcDbCircle
 10
555.0903050895718
 20
385.358670064237
 30
0.0
 40
3.219830460401248
100
AcDbArc
 50
94.72706020184638
 51
133.6703346253359
  0
LINE
  5
155
330
1F
100
AcDbEntity
  8
1
  6
CONTINUOUS
 62
   253
100
AcDbLine
 10
-327.1967655194459
 20
391.5449538761623
 30
0.0
 11
-327.1967655194459
 21
261.2550461238376
 31
0.0
  0
ARC
  5
156
330
1F
100
AcDbEntity
  8
1
  6
CONTINUOUS
 62
     7
100
AcDbCircle
 10
421.601418569394
 20
360.5955745033859
 30
0.0
 40
3.000000000000055
100
AcDbArc
 50
285.0000000000017
 51
359.9999999999996
  0
ARC
  5
157
330
1F
100
AcDbEntity
  8
1
  6
CONTINUOUS
 62
     7
100
AcDbCircle
 10
555.6014185693941
 20
360.5955745033859
 30
0.0
 40
3.000000000000055
100
AcDbArc
 50
180.0000000000004
 51
254.9999999999983
  0
ARC
  5
158
330
1F
100
AcDbEntity
  8
1
  6
CONTINUOUS
 62
     7
100
AcDbCircle
 10
555.0636598587547
 20
267.3704275108241
 30
0.0
 40
3.14704154762085
100
AcDbArc
 50
225.2508503170486
 51
265.6500225493136
  0
LINE
  5
159
330
1F
100
AcDbEntity
  8
1
  6
CONTINUOUS
 62
     7
100
AcDbLine
 10
554.8249614340863
 20
264.2324514808786
 30
0.0
 11
559.3425995242912
 21
263.6063578722695
 31
0.0
  0
LINE
  5
15A
330
1F
100
AcDbEntity
  8
1
  6
CONTINUOUS
 62
   253
100
AcDbLine
 10
497.8055630504849
 20
260.0955882924582
 30
0.0
 11
497.8055630504849
 21
392.7044117075418
 31
0.0
  0
LINE
  5
15B
330
1F
100
AcDbEntity
  8
1
  6
CONTINUOUS
 62
     7
100
AcDbLine
 10
552.601418569394
 20
269.2692850512353
 30
0.0
 11
552.6198406590495
 21
269.0733800581236
 31
0.0
  0
LINE
  5
15C
330
1F
100
AcDbEntity
  8
1
  6
CONTINUOUS
 62
     7
100
AcDbLine
 10
559.6076679327502
 20
356.453244900303
 30
0.0
 11
559.3425995242916
 21
356.4872995465521
 31
0.0
  0
LINE
  5
15D
330
1F
100
AcDbEntity
  8
1
  6
CONTINUOUS
 62
   253
100
AcDbLine
 10
-339.5274254867412
 20
388.6123969181465
 30
0.0
 11
-339.5274254867412
 21
264.1876030818534
 31
0.0
  0
LINE
  5
15E
330
1F
100
AcDbEntity
  8
1
  6
CONTINUOUS
 62
   253
100
AcDbLine
 10
559.6076679327502
 20
256.7687011671579
 30
0.0
 11
559.6076679327502
 21
263.5882156907562
 31
0.0
  0
LINE
  5
15F
330
1F
100
AcDbEntity
  8
1
  6
CONTINUOUS
 62
   253
100
AcDbLine
 10
-165.6697373744705
 20
388.6123969181465
 30
0.0
 11
-165.6697373744705
 21
264.1876030818534
 31
0.0
  0
LINE
  5
160
330
1F
100
AcDbEntity
  8
1
  6
CONTINUOUS
 62
   253
100
AcDbLine
 10
-310.0003973417657
 20
391.5449538761623
 30
0.0
 11
-310.0003973417657
 21
261.2550461238376
 31
0.0
  0
LINE
  5
161
330
1F
100
AcDbEntity
  8
1
  6
CONTINUOUS
 62
   253
100
AcDbLine
 10
-142.3967655194461
 20
391.5449538761623
 30
0.0
 11
-142.3967655194461
 21
261.2550461238376
 31
0.0
  0
LINE
  5
162
330
1F
100
AcDbEntity
  8
1
  6
CONTINUOUS
 62
     7
100
AcDbLine
 10
424.601418569394
 20
269.2692850512353
 30
0.0
 11
424.5829964797387
 21
269.0733800581236
 31
0.0
  0
LINE
  5
163
330
1F
100
AcDbEntity
  8
1
  6
CONTINUOUS
 62
   253
100
AcDbLine
 10
-314.7462373025141
 20
381.3104086949114
 30
0.0
 11
-314.7462373025141
 21
271.4895913050885
 31
0.0
  0
LINE
  5
164
330
1F
100
AcDbEntity
  8
1
  6
CONTINUOUS
 62
   253
100
AcDbLine
 10
501.6442689022172
 20
395.6690574172844
 30
0.0
 11
501.6442689022172
 21
257.1309425827156
 31
0.0
  0
ARC
  5
165
330
1F
100
AcDbEntity
  8
1
  6
CONTINUOUS
 62
     7
100
AcDbCircle
 10
423.373621927167
 20
269.3180760623051
 30
0.0
 40
1.233881251527212
100
AcDbArc
 50
319.1974714789701
 51
348.5616126875243
  0
ARC
  5
166
330
1F
100
AcDbEntity
  8
1
  6
CONTINUOUS
 62
     7
100
AcDbCircle
 10
422.0900674665626
 20
270.760970656365
 30
0.0
 40
3.15854136658001
100
AcDbArc
 50
275.2280786340969
 51
314.5944316708474
  0
LINE
  5
167
330
1F
100
AcDbEntity
  8
1
  6
CONTINUOUS
 62
   253
100
AcDbLine
 10
323.5996026582342
 20
402.3500000000001
 30
0.0
 11
323.5996026582342
 21
252.3500000000002
 31
0.0
  0
LINE
  5
168
330
1F
100
AcDbEntity
  8
1
  6
CONTINUOUS
 62
   253
100
AcDbLine
 10
475.5585682365707
 20
395.6690574172844
 30
0.0
 11
475.5585682365707
 21
257.1309425827156
 31
0.0
  0
LINE
  5
169
330
1F
100
AcDbEntity
  8
1
  6
CONTINUOUS
 62
     7
100
AcDbLine
 10
422.3778757047018
 20
388.5675485191214
 30
0.0
 11
417.8602376144968
 21
389.1936421277304
 31
0.0
  0
LINE
  5
16A
330
1F
100
AcDbEntity
  8
1
  6
CONTINUOUS
 62
   253
100
AcDbLine
 10
-221.596765519446
 20
391.5449538761623
 30
0.0
 11
-221.596765519446
 21
261.2550461238376
 31
0.0
  0
LINE
  5
16B
330
1F
100
AcDbEntity
  8
1
  6
CONTINUOUS
 62
     7
100
AcDbLine
 10
559.3425995242917
 20
296.3127004534478
 30
0.0
 11
559.6076679327504
 21
296.3467550996969
 31
0.0
  0
LINE
  5
16C
330
1F
100
AcDbEntity
  8
1
  6
CONTINUOUS
 62
     7
100
AcDbLine
 10
552.601418569394
 20
265.7940208992092
 30
0.0
 11
552.601418569394
 21
292.2044254966141
 31
0.0
  0
LINE
  5
16D
330
1F
100
AcDbEntity
  8
1
  6
CONTINUOUS
 62
   253
100
AcDbLine
 10
-115.996765519446
 20
391.5449538761623
 30
0.0
 11
-115.996765519446
 21
261.2550461238376
 31
0.0
  0
ARC
  5
16E
330
1F
100
AcDbEntity
  8
1
  6
CONTINUOUS
 62
     7
100
AcDbCircle
 10
422.1125320492164
 20
385.358670064237
 30
0.0
 40
3.219830460401248
100
AcDbArc
 50
46.32966537466421
 51
85.27293979815369
  0
LINE
  5
16F
330
1F
100
AcDbEntity
  8
1
  6
CONTINUOUS
 62
   253
100
AcDbLine
 10
-10.39676551944606
 20
391.5449538761623
 30
0.0
 11
-10.39676551944606
 21
261.2550461238376
 31
0.0
  0
ARC
  5
170
330
1F
100
AcDbEntity
  8
1
  6
CONTINUOUS
 62
     7
100
AcDbCircle
 10
553.8292152116212
 20
269.3180760623051
 30
0.0
 40
1.233881251527212
100
AcDbArc
 50
191.4383873124756
 51
220.8025285210299
  0
ARC
  5
171
330
1F
100
AcDbEntity
  8
1
  6
CONTINUOUS
 62
     7
100
AcDbCircle
 10
422.1391772800334
 20
267.3704275108241
 30
0.0
 40
3.14704154762085
100
AcDbArc
 50
274.3499774506864
 51
314.7491496829513
  0
LINE
  5
172
330
1F
100
AcDbEntity
  8
1
  6
CONTINUOUS
 62
   253
100
AcDbLine
 10
280.0032344805539
 20
391.5449538761623
 30
0.0
 11
280.0032344805539
 21
261.2550461238376
 31
0.0
  0
LINE
  5
173
330
1F
100
AcDbEntity
  8
1
  6
CONTINUOUS
 62
     7
100
AcDbLine
 10
559.3425995242915
 20
389.1936421277304
 30
0.0
 11
554.8249614340866
 21
388.5675485191214
 31
0.0
  0
LINE
  5
174
330
1F
100
AcDbEntity
  8
1
  6
CONTINUOUS
 62
   253
100
AcDbLine
 10
398.0537626974858
 20
271.4895913050886
 30
0.0
 11
398.0537626974858
 21
381.3104086949113
 31
0.0
  0
LINE
  5
175
330
1F
100
AcDbEntity
  8
1
  6
CONTINUOUS
 62
   253
100
AcDbLine
 10
-288.346237302514
 20
381.3104086949114
 30
0.0
 11
-288.346237302514
 21
271.4895913050885
 31
0.0
  0
LINE
  5
176
330
1F
100
AcDbEntity
  8
1
  6
CONTINUOUS
 62
   253
100
AcDbLine
 10
151.1302626255295
 20
388.6123969181465
 30
0.0
 11
151.1302626255295
 21
264.1876030818534
 31
0.0
  0
LINE
  5
177
330
1F
100
AcDbEntity
  8
1
  6
CONTINUOUS
 62
   253
100
AcDbLine
 10
-353.5967655194459
 20
391.5449538761623
 30
0.0
 11
-353.5967655194459
 21
261.2550461238376
 31
0.0
  0
ARC
  5
178
330
1F
100
AcDbEntity
  8
1
  6
CONTINUOUS
 62
     7
100
AcDbCircle
 10
421.6005042273904
 20
292.2037238973185
 30
0.0
 40
3.000914424018877
100
AcDbArc
 50
0.0133954765893968
 51
74.98660452341176
  0
LINE
  5
179
330
1F
100
AcDbEntity
  8
1
  6
CONTINUOUS
 62
   253
100
AcDbLine
 10
363.9490744413023
 20
271.4895913050886
 30
0.0
 11
363.9490744413023
 21
381.3104086949113
 31
0.0
  0
LINE
  5
17A
330
1F
100
AcDbEntity
  8
1
  6
CONTINUOUS
 62
   253
100
AcDbLine
 10
-209.1462373025141
 20
381.3104086949114
 30
0.0
 11
-209.1462373025141
 21
271.4895913050885
 31
0.0
  0
LINE
  5
17B
330
1F
100
AcDbEntity
  8
1
  6
CONTINUOUS
 62
   253
100
AcDbLine
 10
-36.79676551944603
 20
391.5449538761623
 30
0.0
 11
-36.79676551944603
 21
261.2550461238376
 31
0.0
  0
LINE
  5
17C
330
1F
100
AcDbEntity
  8
1
  6
CONTINUOUS
 62
   253
100
AcDbLine
 10
-72.40039734176577
 20
391.5449538761623
 30
0.0
 11
-72.40039734176577
 21
261.2550461238376
 31
0.0
  0
LINE
  5
17D
330
1F
100
AcDbEntity
  8
1
  6
CONTINUOUS
 62
     7
100
AcDbLine
 10
417.8602376144966
 20
266.9543230720249
 30
0.0
 11
422.3778757047016
 21
267.6155692539274
 31
0.0
  0
LINE
  5
17E
330
1F
100
AcDbEntity
  8
1
  6
CONTINUOUS
 62
   253
100
AcDbLine
 10
385.6032344805539
 20
391.5449538761623
 30
0.0
 11
385.6032344805539
 21
261.2550461238376
 31
0.0
  0
LINE
  5
17F
330
1F
100
AcDbEntity
  8
1
  6
CONTINUOUS
 62
   253
100
AcDbLine
 10
138.7996026582343
 20
391.5449538761623
 30
0.0
 11
138.7996026582343
 21
261.2550461238376
 31
0.0
  0
LINE
  5
180
330
1F
100
AcDbEntity
  8
1
  6
CONTINUOUS
 62
   253
100
AcDbLine
 10
417.5951692060378
 20
296.3467550996969
 30
0.0
 11
417.5951692060378
 21
356.453244900303
 31
0.0
  0
LINE
  5
181
330
1F
100
AcDbEntity
  8
1
  6
CONTINUOUS
 62
     7
100
AcDbLine
 10
417.8602376144965
 20
296.3127004534478
 30
0.0
 11
417.5951692060378
 21
296.3467550996969
 31
0.0
  0
LINE
  5
182
330
1F
100
AcDbEntity
  8
1
  6
CONTINUOUS
 62
   253
100
AcDbLine
 10
-178.0003973417657
 20
391.5449538761623
 30
0.0
 11
-178.0003973417657
 21
261.2550461238376
 31
0.0
  0
ARC
  5
183
330
1F
100
AcDbEntity
  8
1
  6
CONTINUOUS
 62
     7
100
AcDbCircle
 10
555.6023329113976
 20
292.2037238973185
 30
0.0
 40
3.000914424018877
100
AcDbArc
 50
105.0133954765882
 51
179.9866045234106
  0
LINE
  5
184
330
1F
100
AcDbEntity
  8
1
  6
CONTINUOUS
 62
   253
100
AcDbLine
 10
479.3972740883032
 20
260.0955882924582
 30
0.0
 11
479.3972740883032
 21
392.7044117075418
 31
0.0
  0
LINE
  5
185
330
1F
100
AcDbEntity
  8
1
  6
CONTINUOUS
 62
     7
100
AcDbLine
 10
398.601418569394
 20
254.6499999999999
 30
0.0
 11
398.601418569394
 21
398.1499999999999
 31
0.0
  0
ARC
  5
186
330
1F
100
AcDbEntity
  8
1
  6
CONTINUOUS
 62
     7
100
AcDbCircle
 10
555.1127696722255
 20
270.760970656365
 30
0.0
 40
3.15854136658001
100
AcDbArc
 50
225.4055683291526
 51
264.771921365903
  0
LINE
  5
187
330
1F
100
AcDbEntity
  8
1
  6
CONTINUOUS
 62
   253
100
AcDbLine
 10
95.20323448055397
 20
391.5449538761623
 30
0.0
 11
95.20323448055397
 21
261.2550461238376
 31
0.0
  0
LINE
  5
188
330
1F
100
AcDbEntity
  8
1
  6
CONTINUOUS
 62
   253
100
AcDbLine
 10
-137.6509255586977
 20
381.3104086949114
 30
0.0
 11
-137.6509255586977
 21
271.4895913050885
 31
0.0
  0
LINE
  5
189
330
1F
100
AcDbEntity
  8
1
  6
CONTINUOUS
 62
   253
100
AcDbLine
 10
-247.996765519446
 20
391.5449538761623
 30
0.0
 11
-247.996765519446
 21
261.2550461238376
 31
0.0
  0
LINE
  5
18A
330
1F
100
AcDbEntity
  8
1
  6
CONTINUOUS
 62
   253
100
AcDbLine
 10
417.5951692060378
 20
389.2117843092437
 30
0.0
 11
417.5951692060378
 21
396.031298832842
 31
0.0
  0
LINE
  5
18B
330
1F
100
AcDbEntity
  8
1
  6
CONTINUOUS
 62
     7
100
AcDbLine
 10
422.3778757047015
 20
295.1022029754814
 30
0.0
 11
417.8602376144965
 21
296.3127004534479
 31
0.0
  0
LINE
  5
18C
330
1F
100
AcDbEntity
  8
1
  6
CONTINUOUS
 62
   253
100
AcDbLine
 10
112.3996026582343
 20
391.5449538761623
 30
0.0
 11
112.3996026582343
 21
261.2550461238376
 31
0.0
  0
LINE
  5
18D
330
1F
100
AcDbEntity
  8
1
  6
CONTINUOUS
 62
   253
100
AcDbLine
 10
-322.4509255586976
 20
381.3104086949114
 30
0.0
 11
-322.4509255586976
 21
271.4895913050885
 31
0.0
  0
LINE
  5
18E
330
1F
100
AcDbEntity
  8
1
  6
CONTINUOUS
 62
   253
100
AcDbLine
 10
-283.6003973417656
 20
391.5449538761623
 30
0.0
 11
-283.6003973417656
 21
261.2550461238376
 31
0.0
  0
LINE
  5
18F
330
1F
100
AcDbEntity
  8
1
  6
CONTINUOUS
 62
   253
100
AcDbLine
 10
417.5951692060378
 20
256.7687011671579
 30
0.0
 11
417.5951692060378
 21
263.5882156907562
 31
0.0
  0
LINE
  5
190
330
1F
100
AcDbEntity
  8
1
  6
CONTINUOUS
 62
     7
100
AcDbLine
 10
417.5951692060379
 20
356.453244900303
 30
0.0
 11
417.8602376144966
 21
356.4872995465521
 31
0.0
  0
ARC
  5
191
330
1F
100
AcDbEntity
  8
1
  6
CONTINUOUS
 62
     7
100
AcDbCircle
 10
417.5923449134287
 20
384.0511204271663
 30
0.0
 40
1.814441934557447
100
AcDbArc
 50
81.5095430316066
 51
109.8382209385264
  0
LINE
  5
192
330
1F
100
AcDbEntity
  8
1
  6
CONTINUOUS
 62
   253
100
AcDbLine
 10
371.6537626974858
 20
271.4895913050886
 30
0.0
 11
371.6537626974858
 21
381.3104086949113
 31
0.0
  0
ARC
  5
193
330
1F
100
AcDbEntity
  8
1
  6
CONTINUOUS
 62
     7
100
AcDbCircle
 10
422.1377948152542
 20
382.1974044912024
 30
0.0
 40
2.996658919657238
100
AcDbArc
 50
40.76392723041118
 51
85.40475574415551
  0
LINE
  5
194
330
1F
100
AcDbEntity
  8
1
  6
CONTINUOUS
 62
     7
100
AcDbLine
 10
422.3778757047016
 20
385.1844307460726
 30
0.0
 11
417.8602376144966
 21
385.8456769279751
 31
0.0
  0
LINE
  5
195
330
1F
100
AcDbEntity
  8
1
  6
CONTINUOUS
 62
     7
100
AcDbLine
 10
417.8602376144965
 20
389.1936421277304
 30
0.0
 11
417.5951692060378
 21
389.2117843092437
 31
0.0
  0
LINE
  5
196
330
1F
100
AcDbEntity
  8
1
  6
CONTINUOUS
 62
     7
100
AcDbLine
 10
417.5951692060379
 20
263.5882156907562
 30
0.0
 11
417.8602376144966
 21
263.6063578722695
 31
0.0
  0
ARC
  5
197
330
1F
100
AcDbEntity
  8
1
  6
CONTINUOUS
 62
     7
100
AcDbCircle
 10
559.6104922253594
 20
384.0511204271663
 30
0.0
 40
1.814441934557447
100
AcDbArc
 50
70.16177906147358
 51
98.49045696839339
  0
LINE
  5
198
330
1F
100
AcDbEntity
  8
1
  6
CONTINUOUS
 62
   253
100
AcDbLine
 10
481.8399377853705
 20
328.4851325250267
 30
0.0
 11
481.6270999223464
 21
328.4435560799847
 31
0.0
  0
ARC
  5
199
330
1F
100
AcDbEntity
  8
1
  6
CONTINUOUS
 62
     7
100
AcDbCircle
 10
555.065042323534
 20
382.1974044912024
 30
0.0
 40
2.996658919657238
100
AcDbArc
 50
94.59524425584452
 51
139.2360727695889
  0
LINE
  5
19A
330
1F
100
AcDbEntity
  8
1
  6
CONTINUOUS
 62
   253
100
AcDbLine
 10
559.6076679327502
 20
389.2117843092437
 30
0.0
 11
559.6076679327502
 21
396.031298832842
 31
0.0
  0
LINE
  5
19B
330
1F
100
AcDbEntity
  8
1
  6
CONTINUOUS
 62
     7
100
AcDbLine
 10
554.8249614340866
 20
267.6155692539274
 30
0.0
 11
559.3425995242917
 21
266.9543230720249
 31
0.0
  0
LINE
  5
19C
330
1F
100
AcDbEntity
  8
1
  6
CONTINUOUS
 62
   253
100
AcDbLine
 10
481.7381488005129
 20
325.8403415366873
 30
0.0
 11
495.4646883382751
 21
325.8403415366873
 31
0.0
  0
ARC
  5
19D
330
1F
100
AcDbEntity
  8
1
  6
CONTINUOUS
 62
     7
100
AcDbCircle
 10
417.5877310850664
 20
390.64789611521
 30
0.0
 40
1.436131068140844
100
AcDbArc
 50
247.6824986742763
 51
270.2967520541773
  0
LINE
  5
19E
330
1F
100
AcDbEntity
  8
1
  6
CONTINUOUS
 62
     7
100
AcDbLine
 10
417.8602376144966
 20
263.6063578722695
 30
0.0
 11
422.3778757047016
 21
264.2324514808785
 31
0.0
  0
LINE
  5
19F
330
1F
100
AcDbEntity
  8
1
  6
CONTINUOUS
 62
   253
100
AcDbLine
 10
554.8249614340866
 20
388.5675485191214
 30
0.0
 11
554.8249614340865
 21
385.1844307460726
 31
0.0
  0
LINE
  5
1A0
330
1F
100
AcDbEntity
  8
1
  6
CONTINUOUS
 62
     7
100
AcDbLine
 10
424.601418569394
 20
265.7940208992092
 30
0.0
 11
424.601418569394
 21
292.2044254966141
 31
0.0
  0
ARC
  5
1A1
330
1F
100
AcDbEntity
  8
1
  6
CONTINUOUS
 62
   253
100
AcDbCircle
 10
484.6135306385344
 20
325.7089989655137
 30
0.0
 40
3.360776587767451
100
AcDbArc
 50
177.8202273693654
 51
201.1977672322539
  0
ARC
  5
1A2
330
1F
100
AcDbEntity
  8
1
  6
CONTINUOUS
 62
   253
100
AcDbCircle
 10
483.6293637034881
 20
327.006079487385
 30
0.0
 40
1.891784533373531
100
AcDbArc
 50
157.92725394972
 51
181.4060775421096
  0
ARC
  5
1A3
330
1F
100
AcDbEntity
  8
1
  6
CONTINUOUS
 62
   253
100
AcDbCircle
 10
493.5734734352999
 20
327.006079487385
 30
0.0
 40
1.891784533373531
100
AcDbArc
 50
358.5939224578905
 51
22.07274605027999
  0
LINE
  5
1A4
330
1F
100
AcDbEntity
  8
1
  6
CONTINUOUS
 62
     7
100
AcDbLine
 10
417.8602376144964
 20
356.487299546552
 30
0.0
 11
422.3778757047015
 21
357.6977970245186
 31
0.0
  0
LINE
  5
1A5
330
1F
100
AcDbEntity
  8
1
  6
CONTINUOUS
 62
   253
100
AcDbLine
 10
481.7381488005129
 20
325.8403415366873
 30
0.0
 11
481.7381488005129
 21
326.9596584633125
 31
0.0
  0
LINE
  5
1A6
330
1F
100
AcDbEntity
  8
1
  6
CONTINUOUS
 62
   253
100
AcDbLine
 10
495.3628993534175
 20
328.4851325250267
 30
0.0
 11
495.3628993534175
 21
383.5502411955163
 31
0.0
  0
LINE
  5
1A7
330
1F
100
AcDbEntity
  8
1
  6
CONTINUOUS
 62
   253
100
AcDbLine
 10
495.4646883382751
 20
325.8403415366873
 30
0.0
 11
495.4646883382751
 21
326.9596584633125
 31
0.0
  0
ARC
  5
1A8
330
1F
100
AcDbEntity
  8
1
  6
CONTINUOUS
 62
   253
100
AcDbCircle
 10
488.601418569394
 20
421.2079936539345
 30
0.0
 40
97.12875744662246
100
AcDbArc
 50
266.0082070076132
 51
273.9917929923868
  0
LINE
  5
1A9
330
1F
100
AcDbEntity
  8
1
  6
CONTINUOUS
 62
     7
100
AcDbLine
 10
559.3425995242917
 20
356.487299546552
 30
0.0
 11
554.8249614340866
 21
357.6977970245186
 31
0.0
  0
LINE
  5
1AA
330
1F
100
AcDbEntity
  8
1
  6
CONTINUOUS
 62
   253
100
AcDbLine
 10
495.0927743032972
 20
327.9488022614008
 30
0.0
 11
494.879936440273
 21
327.9905361381873
 31
0.0
  0
LINE
  5
1AB
330
1F
100
AcDbEntity
  8
1
  6
CONTINUOUS
 62
   253
100
AcDbLine
 10
481.2551858873684
 20
385.7679193582406
 30
0.0
 11
481.6270999223464
 21
384.3465653550216
 31
0.0
  0
ARC
  5
1AC
330
1F
100
AcDbEntity
  8
1
  6
CONTINUOUS
 62
   253
100
AcDbCircle
 10
488.601418569394
 20
250.2825533148765
 30
0.0
 40
77.96121074690224
100
AcDbArc
 50
85.38074685338533
 51
94.61925314661471
  0
LINE
  5
1AD
330
1F
100
AcDbEntity
  8
1
  6
CONTINUOUS
 62
   253
100
AcDbLine
 10
422.3778757047016
 20
267.6155692539274
 30
0.0
 11
422.3778757047016
 21
264.2324514808785
 31
0.0
  0
LINE
  5
1AE
330
1F
100
AcDbEntity
  8
1
  6
CONTINUOUS
 62
   253
100
AcDbLine
 10
481.6270999223464
 20
268.4534346449784
 30
0.0
 11
481.2551858873684
 21
267.0320806417593
 31
0.0
  0
LINE
  5
1AF
330
1F
100
AcDbEntity
  8
1
  6
CONTINUOUS
 62
   253
100
AcDbLine
 10
481.2551858873684
 20
267.0320806417593
 30
0.0
 11
481.2551858873684
 21
267.0294095225512
 31
0.0
  0
LINE
  5
1B0
330
1F
100
AcDbEntity
  8
1
  6
CONTINUOUS
 62
     7
100
AcDbLine
 10
554.8249614340866
 20
295.1022029754814
 30
0.0
 11
559.3425995242917
 21
296.3127004534479
 31
0.0
  0
LINE
  5
1B1
330
1F
100
AcDbEntity
  8
1
  6
CONTINUOUS
 62
   253
100
AcDbLine
 10
495.5757372164417
 20
384.3465653550216
 30
0.0
 11
495.3628993534175
 21
383.5502411955162
 31
0.0
  0
LINE
  5
1B2
330
1F
100
AcDbEntity
  8
1
  6
CONTINUOUS
 62
     7
100
AcDbLine
 10
559.3425995242918
 20
385.8456769279751
 30
0.0
 11
554.8249614340867
 21
385.1844307460726
 31
0.0
  0
LINE
  5
1B3
330
1F
100
AcDbEntity
  8
1
  6
CONTINUOUS
 62
   253
100
AcDbLine
 10
495.3628993534175
 20
328.4851325250267
 30
0.0
 11
495.5757372164417
 21
328.4435560799847
 31
0.0
  0
LINE
  5
1B4
330
1F
100
AcDbEntity
  8
1
  6
CONTINUOUS
 62
   253
100
AcDbLine
 10
481.6270999223464
 20
384.3465653550216
 30
0.0
 11
481.8399377853705
 21
383.5502411955162
 31
0.0
  0
ARC
  5
1B5
330
1F
100
AcDbEntity
  8
1
  6
CONTINUOUS
 62
     7
100
AcDbCircle
 10
417.5932087456097
 20
262.123950981434
 30
0.0
 40
1.464266021722683
100
AcDbArc
 50
89.92328843233969
 51
112.0974608392095
  0
LINE
  5
1B6
330
1F
100
AcDbEntity
  8
1
  6
CONTINUOUS
 62
   253
100
AcDbLine
 10
417.8602376144966
 20
263.6063578722695
 30
0.0
 11
417.8602376144965
 21
266.9543230720248
 31
0.0
  0
LINE
  5
1B7
330
1F
100
AcDbEntity
  8
1
  6
CONTINUOUS
 62
   253
100
AcDbLine
 10
559.6076679327502
 20
296.3467550996969
 30
0.0
 11
559.6076679327502
 21
356.453244900303
 31
0.0
  0
LINE
  5
1B8
330
1F
100
AcDbEntity
  8
1
  6
CONTINUOUS
 62
   253
100
AcDbLine
 10
495.5757372164417
 20
268.4534346449784
 30
0.0
 11
495.9476512514196
 21
267.0320806417593
 31
0.0
  0
LINE
  5
1B9
330
1F
100
AcDbEntity
  8
1
  6
CONTINUOUS
 62
     7
100
AcDbLine
 10
559.6076679327502
 20
263.5882156907562
 30
0.0
 11
559.3425995242916
 21
263.6063578722695
 31
0.0
  0
LINE
  5
1BA
330
1F
100
AcDbEntity
  8
1
  6
CONTINUOUS
 62
   253
100
AcDbLine
 10
481.8399377853705
 20
328.4851325250267
 30
0.0
 11
481.8399377853705
 21
383.5502411955163
 31
0.0
  0
ARC
  5
1BB
330
1F
100
AcDbEntity
  8
1
  6
CONTINUOUS
 62
     7
100
AcDbCircle
 10
417.5921820088652
 20
268.7707258848196
 30
0.0
 40
1.836075430378358
100
AcDbArc
 50
251.3316633467929
 51
278.3948314328809
  0
LINE
  5
1BC
330
1F
100
AcDbEntity
  8
1
  6
CONTINUOUS
 62
     7
100
AcDbLine
 10
552.601418569394
 20
360.5955745033858
 30
0.0
 11
552.601418569394
 21
387.0059791007907
 31
0.0
  0
ARC
  5
1BD
330
1F
100
AcDbEntity
  8
1
  6
CONTINUOUS
 62
   253
100
AcDbCircle
 10
484.6738121914258
 20
327.0963367710358
 30
0.0
 40
3.421218816023348
100
AcDbArc
 50
160.0387774129347
 51
182.2306684135132
  0
ARC
  5
1BE
330
1F
100
AcDbEntity
  8
1
  6
CONTINUOUS
 62
     7
100
AcDbCircle
 10
559.6151060537217
 20
390.64789611521
 30
0.0
 40
1.436131068140844
100
AcDbArc
 50
269.7032479458227
 51
292.3175013257236
  0
LINE
  5
1BF
330
1F
100
AcDbEntity
  8
1
  6
CONTINUOUS
 62
   253
100
AcDbLine
 10
495.9476512514196
 20
385.7705904774486
 30
0.0
 11
495.9476512514196
 21
385.7679193582406
 31
0.0
  0
LINE
  5
1C0
330
1F
100
AcDbEntity
  8
1
  6
CONTINUOUS
 62
   253
100
AcDbLine
 10
481.6270999223464
 20
324.3564439200153
 30
0.0
 11
481.8399377853705
 21
324.3148674749733
 31
0.0
  0
LINE
  5
1C1
330
1F
100
AcDbEntity
  8
1
  6
CONTINUOUS
 62
   253
100
AcDbLine
 10
495.5757372164417
 20
324.3564439200153
 30
0.0
 11
495.3628993534175
 21
324.3148674749733
 31
0.0
  0
ARC
  5
1C2
330
1F
100
AcDbEntity
  8
1
  6
CONTINUOUS
 62
   253
100
AcDbCircle
 10
492.5893065002537
 20
325.7089989655137
 30
0.0
 40
3.360776587767451
100
AcDbArc
 50
338.802232767746
 51
2.179772630634659
  0
ARC
  5
1C3
330
1F
100
AcDbEntity
  8
1
  6
CONTINUOUS
 62
   253
100
AcDbCircle
 10
493.5554809969714
 20
325.7953398034113
 30
0.0
 40
1.909737633311366
100
AcDbArc
 50
338.5409675782697
 51
1.350263002008091
  0
ARC
  5
1C4
330
1F
100
AcDbEntity
  8
1
  6
CONTINUOUS
 62
     7
100
AcDbCircle
 10
559.6096283931785
 20
262.123950981434
 30
0.0
 40
1.464266021722683
100
AcDbArc
 50
67.90253916079052
 51
90.07671156766037
  0
LINE
  5
1C5
330
1F
100
AcDbEntity
  8
1
  6
CONTINUOUS
 62
     7
100
AcDbLine
 10
578.601418569394
 20
254.6499999999999
 30
0.0
 11
578.601418569394
 21
398.1499999999999
 31
0.0
  0
LINE
  5
1C6
330
1F
100
AcDbEntity
  8
1
  6
CONTINUOUS
 62
   253
100
AcDbLine
 10
495.9476512514196
 20
326.9631737869927
 30
0.0
 11
495.9476512514196
 21
325.8368262130072
 31
0.0
  0
LINE
  5
1C7
330
1F
100
AcDbEntity
  8
1
  6
CONTINUOUS
 62
   253
100
AcDbLine
 10
495.0927743032972
 20
324.8511977385991
 30
0.0
 11
482.1100628354909
 21
324.8511977385991
 31
0.0
  0
LINE
  5
1C8
330
1F
100
AcDbEntity
  8
1
  6
CONTINUOUS
 62
   253
100
AcDbLine
 10
481.8399377853705
 20
269.2497588044837
 30
0.0
 11
481.6270999223464
 21
268.4534346449784
 31
0.0
  0
LINE
  5
1C9
330
1F
100
AcDbEntity
  8
1
  6
CONTINUOUS
 62
     7
100
AcDbLine
 10
424.601418569394
 20
360.5955745033858
 30
0.0
 11
424.601418569394
 21
387.0059791007907
 31
0.0
  0
LINE
  5
1CA
330
1F
100
AcDbEntity
  8
1
  6
CONTINUOUS
 62
   253
100
AcDbLine
 10
495.9476512514196
 20
385.7679193582406
 30
0.0
 11
495.5757372164417
 21
384.3465653550216
 31
0.0
  0
LINE
  5
1CB
330
1F
100
AcDbEntity
  8
1
  6
CONTINUOUS
 62
   253
100
AcDbLine
 10
481.2551858873684
 20
385.7705904774486
 30
0.0
 11
481.2551858873684
 21
385.7679193582406
 31
0.0
  0
ARC
  5
1CC
330
1F
100
AcDbEntity
  8
1
  6
CONTINUOUS
 62
   253
100
AcDbCircle
 10
492.5290249473622
 20
327.0963367710358
 30
0.0
 40
3.421218816023348
100
AcDbArc
 50
357.7693315864869
 51
19.96122258706527
  0
ARC
  5
1CD
330
1F
100
AcDbEntity
  8
1
  6
CONTINUOUS
 62
     7
100
AcDbCircle
 10
559.6106551299227
 20
268.7707258848196
 30
0.0
 40
1.836075430378358
100
AcDbArc
 50
261.6051685671191
 51
288.668336653207
  0
LINE
  5
1CE
330
1F
100
AcDbEntity
  8
1
  6
CONTINUOUS
 62
     7
100
AcDbLine
 10
559.3425995242917
 20
389.1936421277304
 30
0.0
 11
559.6076679327504
 21
389.2117843092437
 31
0.0
  0
ARC
  5
1CF
330
1F
100
AcDbEntity
  8
1
  6
CONTINUOUS
 62
   253
100
AcDbCircle
 10
488.601418569394
 20
402.5174466851226
 30
0.0
 40
77.9612107469015
100
AcDbArc
 50
265.3807468533853
 51
274.6192531466147
  0
LINE
  5
1D0
330
1F
100
AcDbEntity
  8
1
  6
CONTINUOUS
 62
   253
100
AcDbLine
 10
495.0927743032972
 20
268.3502734992605
 30
0.0
 11
494.879936440273
 21
269.1466033067315
 31
0.0
  0
ARC
  5
1D1
330
1F
100
AcDbEntity
  8
1
  6
CONTINUOUS
 62
     7
100
AcDbCircle
 10
-278.9985814306058
 20
361.9
 30
0.0
 40
29.99999999999999
100
AcDbArc
 50
81.17634251609576
 51
98.82365748390424
  0
LINE
  5
1D2
330
1F
100
AcDbEntity
  8
1
  6
CONTINUOUS
 62
   253
100
AcDbLine
 10
495.0927743032972
 20
384.4497265007394
 30
0.0
 11
495.4646883382751
 21
385.3973455538843
 31
0.0
  0
ARC
  5
1D3
330
1F
100
AcDbEntity
  8
1
  6
CONTINUOUS
 62
     7
100
AcDbCircle
 10
-120.5985814306059
 20
290.8999999999999
 30
0.0
 40
29.99999999999999
100
AcDbArc
 50
261.1763425160958
 51
278.8236574839045
  0
ARC
  5
1D4
330
1F
100
AcDbEntity
  8
1
  6
CONTINUOUS
 62
     7
100
AcDbCircle
 10
-305.3985814306058
 20
361.9
 30
0.0
 40
29.99999999999999
100
AcDbArc
 50
81.17634251609576
 51
98.82365748390448
  0
LINE
  5
1D5
330
1F
100
AcDbEntity
  8
1
  6
CONTINUOUS
 62
   253
100
AcDbLine
 10
494.879936440273
 20
383.6533966932683
 30
0.0
 11
495.0927743032972
 21
384.4497265007394
 31
0.0
  0
ARC
  5
1D6
330
1F
100
AcDbEntity
  8
1
  6
CONTINUOUS
 62
     7
100
AcDbCircle
 10
-252.5985814306058
 20
290.8999999999999
 30
0.0
 40
30.0
100
AcDbArc
 50
261.1763425160955
 51
278.8236574839042
  0
LINE
  5
1D7
330
1F
100
AcDbEntity
  8
1
  6
CONTINUOUS
 62
   253
100
AcDbLine
 10
495.4646883382751
 20
385.3973455538843
 30
0.0
 11
495.4646883382751
 21
385.4
 31
0.0
  0
LINE
  5
1D8
330
1F
100
AcDbEntity
  8
1
  6
CONTINUOUS
 62
   253
100
AcDbLine
 10
481.7381488005129
 20
267.4026544461155
 30
0.0
 11
482.1100628354909
 21
268.3502734992605
 31
0.0
  0
LINE
  5
1D9
330
1F
100
AcDbEntity
  8
1
  6
CONTINUOUS
 62
     7
100
AcDbLine
 10
481.7381488005129
 20
385.3973455538843
 30
0.0
 11
495.4646883382751
 21
385.3973455538843
 31
0.0
  0
LINE
  5
1DA
330
1F
100
AcDbEntity
  8
1
  6
CONTINUOUS
 62
   253
100
AcDbLine
 10
481.7381488005129
 20
267.4
 30
0.0
 11
481.7381488005129
 21
267.4026544461157
 31
0.0
  0
LINE
  5
1DB
330
1F
100
AcDbEntity
  8
1
  6
CONTINUOUS
 62
   253
100
AcDbLine
 10
482.1100628354909
 20
327.9488022614008
 30
0.0
 11
495.0927743032972
 21
327.9488022614008
 31
0.0
  0
ARC
  5
1DC
330
1F
100
AcDbEntity
  8
1
  6
CONTINUOUS
 62
   253
100
AcDbCircle
 10
488.601418569394
 20
267.4565975409582
 30
0.0
 40
6.995216201785876
100
AcDbArc
 50
14.85306487045318
 51
165.1469351295468
  0
LINE
  5
1DD
330
1F
100
AcDbEntity
  8
1
  6
CONTINUOUS
 62
   253
100
AcDbLine
 10
481.8399377853705
 20
269.2497588044838
 30
0.0
 11
481.8399377853705
 21
324.3148674749733
 31
0.0
  0
LINE
  5
1DE
330
1F
100
AcDbEntity
  8
1
  6
CONTINUOUS
 62
   253
100
AcDbLine
 10
495.4646883382751
 20
326.9596584633126
 30
0.0
 11
481.7381488005129
 21
326.9596584633126
 31
0.0
  0
ARC
  5
1DF
330
1F
100
AcDbEntity
  8
1
  6
CONTINUOUS
 62
     7
100
AcDbCircle
 10
-41.39858143060586
 20
290.8999999999999
 30
0.0
 40
30.0
100
AcDbArc
 50
261.1763425160955
 51
278.8236574839042
  0
ARC
  5
1E0
330
1F
100
AcDbEntity
  8
1
  6
CONTINUOUS
 62
   253
100
AcDbCircle
 10
488.601418569394
 20
385.3165967505673
 30
0.0
 40
6.495076680497752
100
AcDbArc
 50
194.837049592837
 51
345.1629504071632
  0
ARC
  5
1E1
330
1F
100
AcDbEntity
  8
1
  6
CONTINUOUS
 62
     7
100
AcDbCircle
 10
-67.79858143060584
 20
361.9
 30
0.0
 40
29.99999999999999
100
AcDbArc
 50
81.17634251609576
 51
98.82365748390448
  0
ARC
  5
1E2
330
1F
100
AcDbEntity
  8
1
  6
CONTINUOUS
 62
     7
100
AcDbCircle
 10
-305.3985814306058
 20
290.8999999999999
 30
0.0
 40
30.0
100
AcDbArc
 50
261.1763425160955
 51
278.8236574839042
  0
LINE
  5
1E3
330
1F
100
AcDbEntity
  8
1
  6
CONTINUOUS
 62
   253
100
AcDbLine
 10
481.7381488005129
 20
385.3973455538843
 30
0.0
 11
481.7381488005129
 21
385.4
 31
0.0
  0
ARC
  5
1E4
330
1F
100
AcDbEntity
  8
1
  6
CONTINUOUS
 62
     7
100
AcDbCircle
 10
-173.3985814306059
 20
290.8999999999999
 30
0.0
 40
29.99999999999999
100
AcDbArc
 50
261.1763425160958
 51
278.8236574839045
  0
LINE
  5
1E5
330
1F
100
AcDbEntity
  8
1
  6
CONTINUOUS
 62
   253
100
AcDbLine
 10
482.1100628354909
 20
268.3502734992605
 30
0.0
 11
482.3229006985151
 21
269.1466033067315
 31
0.0
  0
ARC
  5
1E6
330
1F
100
AcDbEntity
  8
1
  6
CONTINUOUS
 62
     7
100
AcDbCircle
 10
-199.7985814306059
 20
290.8999999999999
 30
0.0
 40
29.99999999999999
100
AcDbArc
 50
261.1763425160958
 51
278.8236574839042
  0
ARC
  5
1E7
330
1F
100
AcDbEntity
  8
1
  6
CONTINUOUS
 62
   253
100
AcDbCircle
 10
488.601418569394
 20
231.5920063460646
 30
0.0
 40
97.12875744662335
100
AcDbArc
 50
86.00820700761312
 51
93.99179299238676
  0
ARC
  5
1E8
330
1F
100
AcDbEntity
  8
1
  6
CONTINUOUS
 62
     7
100
AcDbCircle
 10
-358.1985814306058
 20
361.9
 30
0.0
 40
30.0
100
AcDbArc
 50
81.17634251609556
 51
98.82365748390428
  0
ARC
  5
1E9
330
1F
100
AcDbEntity
  8
1
  6
CONTINUOUS
 62
     7
100
AcDbCircle
 10
-331.7985814306059
 20
290.8999999999999
 30
0.0
 40
29.99999999999999
100
AcDbArc
 50
261.1763425160958
 51
278.8236574839045
  0
LINE
  5
1EA
330
1F
100
AcDbEntity
  8
1
  6
CONTINUOUS
 62
   253
100
AcDbLine
 10
482.1100628354909
 20
327.9488022614008
 30
0.0
 11
482.3229006985151
 21
327.9905361381873
 31
0.0
  0
LINE
  5
1EB
330
1F
100
AcDbEntity
  8
1
  6
CONTINUOUS
 62
   253
100
AcDbLine
 10
494.879936440273
 20
324.8094638618126
 30
0.0
 11
495.0927743032972
 21
324.8511977385991
 31
0.0
  0
LINE
  5
1EC
330
1F
100
AcDbEntity
  8
1
  6
CONTINUOUS
 62
   253
100
AcDbLine
 10
495.3628993534175
 20
269.2497588044837
 30
0.0
 11
495.5757372164417
 21
268.4534346449784
 31
0.0
  0
LINE
  5
1ED
330
1F
100
AcDbEntity
  8
1
  6
CONTINUOUS
 62
   253
100
AcDbLine
 10
495.4646883382751
 20
267.4
 30
0.0
 11
495.4646883382751
 21
267.4026544461157
 31
0.0
  0
LINE
  5
1EE
330
1F
100
AcDbEntity
  8
1
  6
CONTINUOUS
 62
   253
100
AcDbLine
 10
495.0927743032972
 20
384.4497265007394
 30
0.0
 11
482.1100628354909
 21
384.4497265007394
 31
0.0
  0
ARC
  5
1EF
330
1F
100
AcDbEntity
  8
1
  6
CONTINUOUS
 62
     7
100
AcDbCircle
 10
37.80141856939407
 20
290.8999999999999
 30
0.0
 40
29.99999999999999
100
AcDbArc
 50
261.1763425160958
 51
278.8236574839045
  0
ARC
  5
1F0
330
1F
100
AcDbEntity
  8
1
  6
CONTINUOUS
 62
     7
100
AcDbCircle
 10
-226.1985814306058
 20
361.9
 30
0.0
 40
29.99999999999999
100
AcDbArc
 50
81.17634251609576
 51
98.82365748390424
  0
ARC
  5
1F1
330
1F
100
AcDbEntity
  8
1
  6
CONTINUOUS
 62
     7
100
AcDbCircle
 10
90.60141856939414
 20
290.8999999999999
 30
0.0
 40
30.0
100
AcDbArc
 50
261.1763425160956
 51
278.8236574839042
  0
ARC
  5
1F2
330
1F
100
AcDbEntity
  8
1
  6
CONTINUOUS
 62
     7
100
AcDbCircle
 10
-14.99858143060588
 20
290.8999999999999
 30
0.0
 40
30.0
100
AcDbArc
 50
261.1763425160955
 51
278.8236574839042
  0
ARC
  5
1F3
330
1F
100
AcDbEntity
  8
1
  6
CONTINUOUS
 62
   253
100
AcDbCircle
 10
488.601418569394
 20
385.3434024590417
 30
0.0
 40
6.995216201785878
100
AcDbArc
 50
194.8530648704532
 51
345.1469351295466
  0
ARC
  5
1F4
330
1F
100
AcDbEntity
  8
1
  6
CONTINUOUS
 62
     7
100
AcDbCircle
 10
-252.5985814306058
 20
361.9
 30
0.0
 40
29.99999999999999
100
AcDbArc
 50
81.17634251609576
 51
98.82365748390448
  0
ARC
  5
1F5
330
1F
100
AcDbEntity
  8
1
  6
CONTINUOUS
 62
   253
100
AcDbCircle
 10
488.601418569394
 20
267.4834032494326
 30
0.0
 40
6.495076680497759
100
AcDbArc
 50
14.83704959283716
 51
165.1629504071629
  0
LINE
  5
1F6
330
1F
100
AcDbEntity
  8
1
  6
CONTINUOUS
 62
   253
100
AcDbLine
 10
495.9476512514196
 20
267.0320806417593
 30
0.0
 11
495.9476512514196
 21
267.0294095225512
 31
0.0
  0
LINE
  5
1F7
330
1F
100
AcDbEntity
  8
1
  6
CONTINUOUS
 62
   253
100
AcDbLine
 10
559.3425995242917
 20
385.8456769279751
 30
0.0
 11
559.3425995242917
 21
389.1936421277304
 31
0.0
  0
LINE
  5
1F8
330
1F
100
AcDbEntity
  8
1
  6
CONTINUOUS
 62
   253
100
AcDbLine
 10
554.8249614340864
 20
267.6155692539274
 30
0.0
 11
554.8249614340863
 21
264.2324514808785
 31
0.0
  0
LINE
  5
1F9
330
1F
100
AcDbEntity
  8
1
  6
CONTINUOUS
 62
   253
100
AcDbLine
 10
417.8602376144965
 20
385.8456769279751
 30
0.0
 11
417.8602376144965
 21
389.1936421277304
 31
0.0
  0
ARC
  5
1FA
330
1F
100
AcDbEntity
  8
1
  6
CONTINUOUS
 62
     7
100
AcDbCircle
 10
-278.9985814306058
 20
290.8999999999999
 30
0.0
 40
29.99999999999999
100
AcDbArc
 50
261.1763425160958
 51
278.8236574839042
  0
LINE
  5
1FB
330
1F
100
AcDbEntity
  8
1
  6
CONTINUOUS
 62
   253
100
AcDbLine
 10
422.3778757047015
 20
388.5675485191214
 30
0.0
 11
422.3778757047016
 21
385.1844307460726
 31
0.0
  0
ARC
  5
1FC
330
1F
100
AcDbEntity
  8
1
  6
CONTINUOUS
 62
     7
100
AcDbCircle
 10
-94.19858143060594
 20
361.9
 30
0.0
 40
30.0
100
AcDbArc
 50
81.17634251609556
 51
98.82365748390428
  0
ARC
  5
1FD
330
1F
100
AcDbEntity
  8
1
  6
CONTINUOUS
 62
     7
100
AcDbCircle
 10
37.80141856939407
 20
361.9
 30
0.0
 40
30.0
100
AcDbArc
 50
81.17634251609556
 51
98.82365748390428
  0
LINE
  5
1FE
330
1F
100
AcDbEntity
  8
1
  6
CONTINUOUS
 62
   253
100
AcDbLine
 10
495.3628993534175
 20
269.2497588044838
 30
0.0
 11
495.3628993534175
 21
324.3148674749733
 31
0.0
  0
ARC
  5
1FF
330
1F
100
AcDbEntity
  8
1
  6
CONTINUOUS
 62
     7
100
AcDbCircle
 10
-41.39858143060586
 20
361.9
 30
0.0
 40
29.99999999999999
100
AcDbArc
 50
81.17634251609576
 51
98.82365748390448
  0
LINE
  5
200
330
1F
100
AcDbEntity
  8
1
  6
CONTINUOUS
 62
   253
100
AcDbLine
 10
482.3229006985151
 20
383.6533966932683
 30
0.0
 11
482.1100628354909
 21
384.4497265007394
 31
0.0
  0
LINE
  5
201
330
1F
100
AcDbEntity
  8
1
  6
CONTINUOUS
 62
     7
100
AcDbLine
 10
495.4646883382751
 20
267.4026544461155
 30
0.0
 11
481.7381488005129
 21
267.4026544461155
 31
0.0
  0
LINE
  5
202
330
1F
100
AcDbEntity
  8
1
  6
CONTINUOUS
 62
   253
100
AcDbLine
 10
481.2551858873684
 20
326.9631737869927
 30
0.0
 11
481.2551858873684
 21
325.8368262130072
 31
0.0
  0
ARC
  5
203
330
1F
100
AcDbEntity
  8
1
  6
CONTINUOUS
 62
     7
100
AcDbCircle
 10
-146.9985814306059
 20
290.8999999999999
 30
0.0
 40
29.99999999999999
100
AcDbArc
 50
261.1763425160958
 51
278.8236574839042
  0
LINE
  5
204
330
1F
100
AcDbEntity
  8
1
  6
CONTINUOUS
 62
   253
100
AcDbLine
 10
482.1100628354909
 20
268.3502734992605
 30
0.0
 11
495.0927743032972
 21
268.3502734992605
 31
0.0
  0
ARC
  5
205
330
1F
100
AcDbEntity
  8
1
  6
CONTINUOUS
 62
     7
100
AcDbCircle
 10
-173.3985814306059
 20
361.9
 30
0.0
 40
30.0
100
AcDbArc
 50
81.17634251609556
 51
98.82365748390428
  0
ARC
  5
206
330
1F
100
AcDbEntity
  8
1
  6
CONTINUOUS
 62
     7
100
AcDbCircle
 10
90.60141856939414
 20
361.9
 30
0.0
 40
29.99999999999999
100
AcDbArc
 50
81.17634251609576
 51
98.82365748390433
  0
ARC
  5
207
330
1F
100
AcDbEntity
  8
1
  6
CONTINUOUS
 62
   253
100
AcDbCircle
 10
483.6473561418167
 20
325.7953398034113
 30
0.0
 40
1.909737633311366
100
AcDbArc
 50
178.6497369979919
 51
201.4590324217303
  0
ARC
  5
208
330
1F
100
AcDbEntity
  8
1
  6
CONTINUOUS
 62
     7
100
AcDbCircle
 10
-331.7985814306059
 20
361.9
 30
0.0
 40
30.0
100
AcDbArc
 50
81.17634251609556
 51
98.82365748390428
  0
LINE
  5
209
330
1F
100
AcDbEntity
  8
1
  6
CONTINUOUS
 62
   253
100
AcDbLine
 10
559.3425995242915
 20
263.6063578722695
 30
0.0
 11
559.3425995242916
 21
266.9543230720248
 31
0.0
  0
LINE
  5
20A
330
1F
100
AcDbEntity
  8
1
  6
CONTINUOUS
 62
   253
100
AcDbLine
 10
482.3229006985151
 20
324.8094638618126
 30
0.0
 11
482.1100628354909
 21
324.8511977385991
 31
0.0
  0
LINE
  5
20B
330
1F
100
AcDbEntity
  8
1
  6
CONTINUOUS
 62
   253
100
AcDbLine
 10
482.1100628354909
 20
384.4497265007394
 30
0.0
 11
481.7381488005129
 21
385.3973455538843
 31
0.0
  0
ARC
  5
20C
330
1F
100
AcDbEntity
  8
1
  6
CONTINUOUS
 62
     7
100
AcDbCircle
 10
-248.5796622015262
 20
265.0100736148181
 30
0.0
 40
3.800000000000002
100
AcDbArc
 50
278.8236574839039
 51
347.5000000000004
  0
ARC
  5
20D
330
1F
100
AcDbEntity
  8
1
  6
CONTINUOUS
 62
     7
100
AcDbCircle
 10
381.001418569394
 20
290.8999999999999
 30
0.0
 40
30.00000000000001
100
AcDbArc
 50
261.1763425160956
 51
278.8236574839043
  0
ARC
  5
20E
330
1F
100
AcDbEntity
  8
1
  6
CONTINUOUS
 62
     7
100
AcDbCircle
 10
-67.79858143060584
 20
290.8999999999999
 30
0.0
 40
30.0
100
AcDbArc
 50
261.1763425160955
 51
278.8236574839042
  0
ARC
  5
20F
330
1F
100
AcDbEntity
  8
1
  6
CONTINUOUS
 62
     7
100
AcDbCircle
 10
-335.8175006596854
 20
265.0100736148181
 30
0.0
 40
3.800000000000042
100
AcDbArc
 50
192.5
 51
261.176342516096
  0
ARC
  5
210
330
1F
100
AcDbEntity
  8
1
  6
CONTINUOUS
 62
     7
100
AcDbCircle
 10
301.8014185693941
 20
361.9
 30
0.0
 40
30.0
100
AcDbArc
 50
81.17634251609572
 51
98.82365748390438
  0
ARC
  5
211
330
1F
100
AcDbEntity
  8
1
  6
CONTINUOUS
 62
     7
100
AcDbCircle
 10
-283.0175006596854
 20
265.0100736148181
 30
0.0
 40
3.800000000000035
100
AcDbArc
 50
192.4999999999996
 51
261.176342516096
  0
ARC
  5
212
330
1F
100
AcDbEntity
  8
1
  6
CONTINUOUS
 62
     7
100
AcDbCircle
 10
117.0014185693941
 20
290.8999999999999
 30
0.0
 40
29.99999999999999
100
AcDbArc
 50
261.1763425160958
 51
278.8236574839045
  0
ARC
  5
213
330
1F
100
AcDbEntity
  8
1
  6
CONTINUOUS
 62
     7
100
AcDbCircle
 10
-90.17966220152623
 20
387.7899263851818
 30
0.0
 40
3.800000000000042
100
AcDbArc
 50
12.50000000000003
 51
81.17634251609603
  0
ARC
  5
214
330
1F
100
AcDbEntity
  8
1
  6
CONTINUOUS
 62
     7
100
AcDbCircle
 10
-151.0175006596855
 20
387.7899263851818
 30
0.0
 40
3.799999999999995
100
AcDbArc
 50
98.82365748390399
 51
167.5000000000003
  0
LINE
  5
215
330
1F
100
AcDbEntity
  8
1
  6
CONTINUOUS
 62
   253
100
AcDbLine
 10
495.4646883382751
 20
267.4026544461155
 30
0.0
 11
495.0927743032972
 21
268.3502734992605
 31
0.0
  0
ARC
  5
216
330
1F
100
AcDbEntity
  8
1
  6
CONTINUOUS
 62
     7
100
AcDbCircle
 10
-63.77966220152624
 20
265.0100736148181
 30
0.0
 40
3.799999999999995
100
AcDbArc
 50
278.8236574839039
 51
347.4999999999998
  0
ARC
  5
217
330
1F
100
AcDbEntity
  8
1
  6
CONTINUOUS
 62
     7
100
AcDbCircle
 10
11.4014185693941
 20
361.9
 30
0.0
 40
30.0
100
AcDbArc
 50
81.17634251609566
 51
98.82365748390424
  0
ARC
  5
218
330
1F
100
AcDbEntity
  8
1
  6
CONTINUOUS
 62
     7
100
AcDbCircle
 10
-94.19858143060594
 20
290.8999999999999
 30
0.0
 40
29.99999999999999
100
AcDbArc
 50
261.1763425160958
 51
278.8236574839045
  0
ARC
  5
219
330
1F
100
AcDbEntity
  8
1
  6
CONTINUOUS
 62
     7
100
AcDbCircle
 10
-226.1985814306058
 20
290.8999999999999
 30
0.0
 40
29.99999999999999
100
AcDbArc
 50
261.1763425160958
 51
278.8236574839042
  0
ARC
  5
21A
330
1F
100
AcDbEntity
  8
1
  6
CONTINUOUS
 62
     7
100
AcDbCircle
 10
-199.7985814306059
 20
361.9
 30
0.0
 40
29.99999999999999
100
AcDbArc
 50
81.17634251609576
 51
98.82365748390424
  0
ARC
  5
21B
330
1F
100
AcDbEntity
  8
1
  6
CONTINUOUS
 62
     7
100
AcDbCircle
 10
-309.4175006596853
 20
387.7899263851818
 30
0.0
 40
3.800000000000006
100
AcDbArc
 50
98.82365748390562
 51
167.5000000000003
  0
ARC
  5
21C
330
1F
100
AcDbEntity
  8
1
  6
CONTINUOUS
 62
     7
100
AcDbCircle
 10
328.201418569394
 20
290.8999999999999
 30
0.0
 40
30.0
100
AcDbArc
 50
261.1763425160957
 51
278.8236574839045
  0
ARC
  5
21D
330
1F
100
AcDbEntity
  8
1
  6
CONTINUOUS
 62
     7
100
AcDbCircle
 10
-274.9796622015262
 20
265.0100736148181
 30
0.0
 40
3.799999999999995
100
AcDbArc
 50
278.8236574839039
 51
347.5000000000003
  0
ARC
  5
21E
330
1F
100
AcDbEntity
  8
1
  6
CONTINUOUS
 62
     7
100
AcDbCircle
 10
-169.3796622015263
 20
265.0100736148181
 30
0.0
 40
3.799999999999999
100
AcDbArc
 50
278.8236574839057
 51
347.5000000000004
  0
ARC
  5
21F
330
1F
100
AcDbEntity
  8
1
  6
CONTINUOUS
 62
     7
100
AcDbCircle
 10
-309.4175006596853
 20
265.0100736148181
 30
0.0
 40
3.800000000000035
100
AcDbArc
 50
192.4999999999996
 51
261.1763425160944
  0
ARC
  5
220
330
1F
100
AcDbEntity
  8
1
  6
CONTINUOUS
 62
     7
100
AcDbCircle
 10
328.201418569394
 20
361.9
 30
0.0
 40
30.0
100
AcDbArc
 50
81.17634251609566
 51
98.82365748390433
  0
ARC
  5
221
330
1F
100
AcDbEntity
  8
1
  6
CONTINUOUS
 62
     7
100
AcDbCircle
 10
-256.6175006596854
 20
387.7899263851818
 30
0.0
 40
3.799999999999999
100
AcDbArc
 50
98.82365748390565
 51
167.5000000000003
  0
ARC
  5
222
330
1F
100
AcDbEntity
  8
1
  6
CONTINUOUS
 62
     7
100
AcDbCircle
 10
275.4014185693941
 20
361.9
 30
0.0
 40
30.0
100
AcDbArc
 50
81.17634251609572
 51
98.82365748390438
  0
ARC
  5
223
330
1F
100
AcDbEntity
  8
1
  6
CONTINUOUS
 62
     7
100
AcDbCircle
 10
-169.3796622015263
 20
387.7899263851818
 30
0.0
 40
3.800000000000035
100
AcDbArc
 50
12.49999999999965
 51
81.17634251609438
  0
ARC
  5
224
330
1F
100
AcDbEntity
  8
1
  6
CONTINUOUS
 62
     7
100
AcDbCircle
 10
-124.6175006596855
 20
265.0100736148181
 30
0.0
 40
3.800000000000037
100
AcDbArc
 50
192.4999999999997
 51
261.176342516096
  0
ARC
  5
225
330
1F
100
AcDbEntity
  8
1
  6
CONTINUOUS
 62
     7
100
AcDbCircle
 10
-14.99858143060588
 20
361.9
 30
0.0
 40
29.99999999999999
100
AcDbArc
 50
81.17634251609576
 51
98.82365748390448
  0
ARC
  5
226
330
1F
100
AcDbEntity
  8
1
  6
CONTINUOUS
 62
     7
100
AcDbCircle
 10
-301.3796622015262
 20
387.7899263851818
 30
0.0
 40
3.800000000000035
100
AcDbArc
 50
12.49999999999965
 51
81.17634251609606
  0
ARC
  5
227
330
1F
100
AcDbEntity
  8
1
  6
CONTINUOUS
 62
     7
100
AcDbCircle
 10
196.2014185693941
 20
290.8999999999999
 30
0.0
 40
30.0
100
AcDbArc
 50
261.1763425160956
 51
278.8236574839043
  0
ARC
  5
228
330
1F
100
AcDbEntity
  8
1
  6
CONTINUOUS
 62
     7
100
AcDbCircle
 10
-222.1796622015262
 20
387.7899263851818
 30
0.0
 40
3.800000000000035
100
AcDbArc
 50
12.49999999999965
 51
81.17634251609608
  0
ARC
  5
229
330
1F
100
AcDbEntity
  8
1
  6
CONTINUOUS
 62
     7
100
AcDbCircle
 10
143.4014185693941
 20
290.8999999999999
 30
0.0
 40
29.99999999999999
100
AcDbArc
 50
261.1763425160958
 51
278.8236574839045
  0
ARC
  5
22A
330
1F
100
AcDbEntity
  8
1
  6
CONTINUOUS
 62
     7
100
AcDbCircle
 10
-301.3796622015262
 20
265.0100736148181
 30
0.0
 40
3.799999999999995
100
AcDbArc
 50
278.8236574839039
 51
347.5000000000003
  0
ARC
  5
22B
330
1F
100
AcDbEntity
  8
1
  6
CONTINUOUS
 62
     7
100
AcDbCircle
 10
64.20141856939416
 20
290.8999999999999
 30
0.0
 40
30.0
100
AcDbArc
 50
261.1763425160955
 51
278.8236574839042
  0
ARC
  5
22C
330
1F
100
AcDbEntity
  8
1
  6
CONTINUOUS
 62
     7
100
AcDbCircle
 10
-90.17966220152623
 20
265.0100736148181
 30
0.0
 40
3.799999999999995
100
AcDbArc
 50
278.8236574839039
 51
347.4999999999998
  0
ARC
  5
22D
330
1F
100
AcDbEntity
  8
1
  6
CONTINUOUS
 62
     7
100
AcDbCircle
 10
143.4014185693941
 20
361.9
 30
0.0
 40
30.0
100
AcDbArc
 50
81.17634251609556
 51
98.82365748390428
  0
ARC
  5
22E
330
1F
100
AcDbEntity
  8
1
  6
CONTINUOUS
 62
     7
100
AcDbCircle
 10
-362.2175006596854
 20
387.7899263851818
 30
0.0
 40
3.799999999999995
100
AcDbArc
 50
98.82365748390399
 51
167.5000000000003
  0
ARC
  5
22F
330
1F
100
AcDbEntity
  8
1
  6
CONTINUOUS
 62
     7
100
AcDbCircle
 10
-327.7796622015262
 20
265.0100736148181
 30
0.0
 40
3.800000000000002
100
AcDbArc
 50
278.8236574839039
 51
347.5000000000002
  0
ARC
  5
230
330
1F
100
AcDbEntity
  8
1
  6
CONTINUOUS
 62
     7
100
AcDbCircle
 10
-256.6175006596854
 20
265.0100736148181
 30
0.0
 40
3.800000000000037
100
AcDbArc
 50
192.4999999999997
 51
261.1763425160944
  0
ARC
  5
231
330
1F
100
AcDbEntity
  8
1
  6
CONTINUOUS
 62
     7
100
AcDbCircle
 10
-195.7796622015263
 20
387.7899263851818
 30
0.0
 40
3.800000000000035
100
AcDbArc
 50
12.49999999999965
 51
81.17634251609606
  0
ARC
  5
232
330
1F
100
AcDbEntity
  8
1
  6
CONTINUOUS
 62
     7
100
AcDbCircle
 10
381.001418569394
 20
361.9
 30
0.0
 40
29.99999999999999
100
AcDbArc
 50
81.17634251609572
 51
98.82365748390438
  0
ARC
  5
233
330
1F
100
AcDbEntity
  8
1
  6
CONTINUOUS
 62
     7
100
AcDbCircle
 10
-230.2175006596854
 20
265.0100736148181
 30
0.0
 40
3.800000000000037
100
AcDbArc
 50
192.4999999999997
 51
261.176342516096
  0
ARC
  5
234
330
1F
100
AcDbEntity
  8
1
  6
CONTINUOUS
 62
     7
100
AcDbCircle
 10
-335.8175006596854
 20
387.7899263851818
 30
0.0
 40
3.799999999999995
100
AcDbArc
 50
98.82365748390399
 51
167.5
  0
ARC
  5
235
330
1F
100
AcDbEntity
  8
1
  6
CONTINUOUS
 62
     7
100
AcDbCircle
 10
222.6014185693941
 20
290.8999999999999
 30
0.0
 40
30.0
100
AcDbArc
 50
261.1763425160956
 51
278.8236574839043
  0
ARC
  5
236
330
1F
100
AcDbEntity
  8
1
  6
CONTINUOUS
 62
     7
100
AcDbCircle
 10
-274.9796622015262
 20
387.7899263851818
 30
0.0
 40
3.800000000000035
100
AcDbArc
 50
12.49999999999965
 51
81.17634251609606
  0
ARC
  5
237
330
1F
100
AcDbEntity
  8
1
  6
CONTINUOUS
 62
     7
100
AcDbCircle
 10
249.0014185693941
 20
290.8999999999999
 30
0.0
 40
30.0
100
AcDbArc
 50
261.1763425160957
 51
278.8236574839045
  0
ARC
  5
238
330
1F
100
AcDbEntity
  8
1
  6
CONTINUOUS
 62
     7
100
AcDbCircle
 10
-283.0175006596854
 20
387.7899263851818
 30
0.0
 40
3.800000000000002
100
AcDbArc
 50
98.82365748390394
 51
167.5000000000004
  0
ARC
  5
239
330
1F
100
AcDbEntity
  8
1
  6
CONTINUOUS
 62
     7
100
AcDbCircle
 10
64.20141856939416
 20
361.9
 30
0.0
 40
29.99999999999999
100
AcDbArc
 50
81.17634251609576
 51
98.82365748390448
  0
ARC
  5
23A
330
1F
100
AcDbEntity
  8
1
  6
CONTINUOUS
 62
     7
100
AcDbCircle
 10
275.4014185693941
 20
290.8999999999999
 30
0.0
 40
30.0
100
AcDbArc
 50
261.1763425160956
 51
278.8236574839043
  0
ARC
  5
23B
330
1F
100
AcDbEntity
  8
1
  6
CONTINUOUS
 62
     7
100
AcDbCircle
 10
-151.0175006596855
 20
265.0100736148181
 30
0.0
 40
3.800000000000037
100
AcDbArc
 50
192.4999999999997
 51
261.176342516096
  0
ARC
  5
23C
330
1F
100
AcDbEntity
  8
1
  6
CONTINUOUS
 62
     7
100
AcDbCircle
 10
-358.1985814306058
 20
290.8999999999999
 30
0.0
 40
29.99999999999999
100
AcDbArc
 50
261.1763425160958
 51
278.8236574839045
  0
ARC
  5
23D
330
1F
100
AcDbEntity
  8
1
  6
CONTINUOUS
 62
     7
100
AcDbCircle
 10
-230.2175006596854
 20
387.7899263851818
 30
0.0
 40
3.799999999999995
100
AcDbArc
 50
98.82365748390399
 51
167.5000000000003
  0
ARC
  5
23E
330
1F
100
AcDbEntity
  8
1
  6
CONTINUOUS
 62
     7
100
AcDbCircle
 10
-195.7796622015263
 20
265.0100736148181
 30
0.0
 40
3.799999999999995
100
AcDbArc
 50
278.8236574839039
 51
347.5000000000003
  0
ARC
  5
23F
330
1F
100
AcDbEntity
  8
1
  6
CONTINUOUS
 62
     7
100
AcDbCircle
 10
-124.6175006596855
 20
387.7899263851818
 30
0.0
 40
3.799999999999995
100
AcDbArc
 50
98.82365748390399
 51
167.5000000000003
  0
ARC
  5
240
330
1F
100
AcDbEntity
  8
1
  6
CONTINUOUS
 62
     7
100
AcDbCircle
 10
169.8014185693941
 20
361.9
 30
0.0
 40
30.0
100
AcDbArc
 50
81.17634251609566
 51
98.82365748390424
  0
ARC
  5
241
330
1F
100
AcDbEntity
  8
1
  6
CONTINUOUS
 62
     7
100
AcDbCircle
 10
-146.9985814306059
 20
361.9
 30
0.0
 40
29.99999999999999
100
AcDbArc
 50
81.17634251609576
 51
98.82365748390424
  0
ARC
  5
242
330
1F
100
AcDbEntity
  8
1
  6
CONTINUOUS
 62
     7
100
AcDbCircle
 10
222.6014185693941
 20
361.9
 30
0.0
 40
30.0
100
AcDbArc
 50
81.17634251609566
 51
98.82365748390434
  0
ARC
  5
243
330
1F
100
AcDbEntity
  8
1
  6
CONTINUOUS
 62
     7
100
AcDbCircle
 10
-116.5796622015263
 20
387.7899263851818
 30
0.0
 40
3.800000000000035
100
AcDbArc
 50
12.49999999999965
 51
81.17634251609441
  0
ARC
  5
244
330
1F
100
AcDbEntity
  8
1
  6
CONTINUOUS
 62
     7
100
AcDbCircle
 10
-120.5985814306059
 20
361.9
 30
0.0
 40
30.0
100
AcDbArc
 50
81.17634251609556
 51
98.82365748390428
  0
ARC
  5
245
330
1F
100
AcDbEntity
  8
1
  6
CONTINUOUS
 62
     7
100
AcDbCircle
 10
-362.2175006596854
 20
265.0100736148181
 30
0.0
 40
3.800000000000037
100
AcDbArc
 50
192.4999999999997
 51
261.176342516096
  0
ARC
  5
246
330
1F
100
AcDbEntity
  8
1
  6
CONTINUOUS
 62
     7
100
AcDbCircle
 10
196.2014185693941
 20
361.9
 30
0.0
 40
30.0
100
AcDbArc
 50
81.17634251609566
 51
98.82365748390434
  0
ARC
  5
247
330
1F
100
AcDbEntity
  8
1
  6
CONTINUOUS
 62
     7
100
AcDbCircle
 10
-354.1796622015262
 20
265.0100736148181
 30
0.0
 40
3.800000000000006
100
AcDbArc
 50
278.8236574839056
 51
347.5000000000003
  0
ARC
  5
248
330
1F
100
AcDbEntity
  8
1
  6
CONTINUOUS
 62
     7
100
AcDbCircle
 10
117.0014185693941
 20
361.9
 30
0.0
 40
30.0
100
AcDbArc
 50
81.17634251609566
 51
98.82365748390424
  0
ARC
  5
249
330
1F
100
AcDbEntity
  8
1
  6
CONTINUOUS
 62
     7
100
AcDbCircle
 10
169.8014185693941
 20
290.8999999999999
 30
0.0
 40
29.99999999999999
100
AcDbArc
 50
261.1763425160958
 51
278.8236574839045
  0
ARC
  5
24A
330
1F
100
AcDbEntity
  8
1
  6
CONTINUOUS
 62
     7
100
AcDbCircle
 10
354.6014185693941
 20
290.8999999999999
 30
0.0
 40
30.0
100
AcDbArc
 50
261.1763425160957
 51
278.8236574839045
  0
ARC
  5
24B
330
1F
100
AcDbEntity
  8
1
  6
CONTINUOUS
 62
     7
100
AcDbCircle
 10
301.8014185693941
 20
290.8999999999999
 30
0.0
 40
30.0
100
AcDbArc
 50
261.1763425160956
 51
278.8236574839043
  0
ARC
  5
24C
330
1F
100
AcDbEntity
  8
1
  6
CONTINUOUS
 62
     7
100
AcDbCircle
 10
226.6203377984737
 20
387.7899263851818
 30
0.0
 40
3.799999999999987
100
AcDbArc
 50
12.50000000000012
 51
81.17634251609604
  0
ARC
  5
24D
330
1F
100
AcDbEntity
  8
1
  6
CONTINUOUS
 62
     7
100
AcDbCircle
 10
297.7824993403145
 20
387.7899263851818
 30
0.0
 40
3.8
100
AcDbArc
 50
98.82365748390438
 51
167.4999999999999
  0
ARC
  5
24E
330
1F
100
AcDbEntity
  8
1
  6
CONTINUOUS
 62
     7
100
AcDbCircle
 10
-37.37966220152626
 20
265.0100736148181
 30
0.0
 40
3.800000000000002
100
AcDbArc
 50
278.8236574839039
 51
347.5000000000002
  0
ARC
  5
24F
330
1F
100
AcDbEntity
  8
1
  6
CONTINUOUS
 62
     7
100
AcDbCircle
 10
-354.1796622015262
 20
387.7899263851818
 30
0.0
 40
3.800000000000035
100
AcDbArc
 50
12.49999999999965
 51
81.17634251609441
  0
ARC
  5
250
330
1F
100
AcDbEntity
  8
1
  6
CONTINUOUS
 62
     7
100
AcDbCircle
 10
-203.8175006596855
 20
387.7899263851818
 30
0.0
 40
3.800000000000002
100
AcDbArc
 50
98.82365748390394
 51
167.5000000000004
  0
ARC
  5
251
330
1F
100
AcDbEntity
  8
1
  6
CONTINUOUS
 62
     7
100
AcDbCircle
 10
354.6014185693941
 20
361.9
 30
0.0
 40
29.99999999999999
100
AcDbArc
 50
81.17634251609566
 51
98.82365748390433
  0
ARC
  5
252
330
1F
100
AcDbEntity
  8
1
  6
CONTINUOUS
 62
     7
100
AcDbCircle
 10
-10.97966220152628
 20
387.7899263851818
 30
0.0
 40
3.799999999999984
100
AcDbArc
 50
12.49999999999994
 51
81.17634251609608
  0
ARC
  5
253
330
1F
100
AcDbEntity
  8
1
  6
CONTINUOUS
 62
     7
100
AcDbCircle
 10
33.78249934031448
 20
265.0100736148181
 30
0.0
 40
3.799999999999986
100
AcDbArc
 50
192.5
 51
261.176342516096
  0
ARC
  5
254
330
1F
100
AcDbEntity
  8
1
  6
CONTINUOUS
 62
     7
100
AcDbCircle
 10
11.4014185693941
 20
290.8999999999999
 30
0.0
 40
29.99999999999999
100
AcDbArc
 50
261.1763425160958
 51
278.8236574839045
  0
ARC
  5
255
330
1F
100
AcDbEntity
  8
1
  6
CONTINUOUS
 62
     7
100
AcDbCircle
 10
139.3824993403145
 20
265.0100736148181
 30
0.0
 40
3.799999999999986
100
AcDbArc
 50
192.5
 51
261.176342516096
  0
ARC
  5
256
330
1F
100
AcDbEntity
  8
1
  6
CONTINUOUS
 62
     7
100
AcDbCircle
 10
121.0203377984737
 20
387.7899263851818
 30
0.0
 40
3.799999999999986
100
AcDbArc
 50
12.5
 51
81.1763425160952
  0
ARC
  5
257
330
1F
100
AcDbEntity
  8
1
  6
CONTINUOUS
 62
     7
100
AcDbCircle
 10
-248.5796622015262
 20
387.7899263851818
 30
0.0
 40
3.800000000000035
100
AcDbArc
 50
12.49999999999965
 51
81.17634251609608
  0
ARC
  5
258
330
1F
100
AcDbEntity
  8
1
  6
CONTINUOUS
 62
     7
100
AcDbCircle
 10
173.8203377984737
 20
265.0100736148181
 30
0.0
 40
3.800000000000002
100
AcDbArc
 50
278.8236574839039
 51
347.4999999999998
  0
ARC
  5
259
330
1F
100
AcDbEntity
  8
1
  6
CONTINUOUS
 62
     7
100
AcDbCircle
 10
244.9824993403145
 20
387.7899263851818
 30
0.0
 40
3.800000000000002
100
AcDbArc
 50
98.82365748390394
 51
167.5
  0
ARC
  5
25A
330
1F
100
AcDbEntity
  8
1
  6
CONTINUOUS
 62
     7
100
AcDbCircle
 10
358.6203377984737
 20
387.7899263851818
 30
0.0
 40
3.799999999999987
100
AcDbArc
 50
12.50000000000012
 51
81.17634251609562
  0
ARC
  5
25B
330
1F
100
AcDbEntity
  8
1
  6
CONTINUOUS
 62
     7
100
AcDbCircle
 10
226.6203377984737
 20
265.0100736148181
 30
0.0
 40
3.799999999999995
100
AcDbArc
 50
278.8236574839039
 51
347.4999999999998
  0
ARC
  5
25C
330
1F
100
AcDbEntity
  8
1
  6
CONTINUOUS
 62
     7
100
AcDbCircle
 10
68.22033779847376
 20
387.7899263851818
 30
0.0
 40
3.799999999999987
100
AcDbArc
 50
12.50000000000012
 51
81.17634251609606
  0
ARC
  5
25D
330
1F
100
AcDbEntity
  8
1
  6
CONTINUOUS
 62
     7
100
AcDbCircle
 10
192.1824993403145
 20
387.7899263851818
 30
0.0
 40
3.799999999999995
100
AcDbArc
 50
98.82365748390399
 51
167.4999999999998
  0
ARC
  5
25E
330
1F
100
AcDbEntity
  8
1
  6
CONTINUOUS
 62
     7
100
AcDbCircle
 10
147.4203377984738
 20
265.0100736148181
 30
0.0
 40
3.800000000000004
100
AcDbArc
 50
278.8236574839048
 51
347.4999999999998
  0
ARC
  5
25F
330
1F
100
AcDbEntity
  8
1
  6
CONTINUOUS
 62
     7
100
AcDbCircle
 10
112.9824993403145
 20
387.7899263851818
 30
0.0
 40
3.800000000000002
100
AcDbArc
 50
98.82365748390394
 51
167.5000000000001
  0
ARC
  5
260
330
1F
100
AcDbEntity
  8
1
  6
CONTINUOUS
 62
     7
100
AcDbCircle
 10
15.42033779847375
 20
387.7899263851818
 30
0.0
 40
3.799999999999987
100
AcDbArc
 50
12.50000000000012
 51
81.17634251609604
  0
ARC
  5
261
330
1F
100
AcDbEntity
  8
1
  6
CONTINUOUS
 62
     7
100
AcDbCircle
 10
94.62033779847374
 20
387.7899263851818
 30
0.0
 40
3.799999999999984
100
AcDbArc
 50
12.49999999999994
 51
81.17634251609608
  0
ARC
  5
262
330
1F
100
AcDbEntity
  8
1
  6
CONTINUOUS
 62
     7
100
AcDbCircle
 10
173.8203377984737
 20
387.7899263851818
 30
0.0
 40
3.799999999999987
100
AcDbArc
 50
12.50000000000012
 51
81.17634251609606
  0
ARC
  5
263
330
1F
100
AcDbEntity
  8
1
  6
CONTINUOUS
 62
     7
100
AcDbCircle
 10
15.42033779847375
 20
265.0100736148181
 30
0.0
 40
3.799999999999995
100
AcDbArc
 50
278.8236574839039
 51
347.4999999999998
  0
ARC
  5
264
330
1F
100
AcDbEntity
  8
1
  6
CONTINUOUS
 62
     7
100
AcDbCircle
 10
-116.5796622015263
 20
265.0100736148181
 30
0.0
 40
3.800000000000006
100
AcDbArc
 50
278.8236574839056
 51
347.5000000000003
  0
ARC
  5
265
330
1F
100
AcDbEntity
  8
1
  6
CONTINUOUS
 62
     7
100
AcDbCircle
 10
-98.21750065968554
 20
387.7899263851818
 30
0.0
 40
3.800000000000002
100
AcDbArc
 50
98.82365748390394
 51
167.5000000000001
  0
ARC
  5
266
330
1F
100
AcDbEntity
  8
1
  6
CONTINUOUS
 62
     7
100
AcDbCircle
 10
41.82033779847373
 20
387.7899263851818
 30
0.0
 40
3.799999999999987
100
AcDbArc
 50
12.50000000000012
 51
81.17634251609522
  0
ARC
  5
267
330
1F
100
AcDbEntity
  8
1
  6
CONTINUOUS
 62
     7
100
AcDbCircle
 10
139.3824993403145
 20
387.7899263851818
 30
0.0
 40
3.800000000000002
100
AcDbArc
 50
98.82365748390394
 51
167.5
  0
ARC
  5
268
330
1F
100
AcDbEntity
  8
1
  6
CONTINUOUS
 62
     7
100
AcDbCircle
 10
60.18249934031451
 20
265.0100736148181
 30
0.0
 40
3.799999999999989
100
AcDbArc
 50
192.5000000000002
 51
261.1763425160952
  0
ARC
  5
269
330
1F
100
AcDbEntity
  8
1
  6
CONTINUOUS
 62
     7
100
AcDbCircle
 10
-177.4175006596855
 20
387.7899263851818
 30
0.0
 40
3.800000000000002
100
AcDbArc
 50
98.82365748390394
 51
167.5000000000004
  0
ARC
  5
26A
330
1F
100
AcDbEntity
  8
1
  6
CONTINUOUS
 62
     7
100
AcDbCircle
 10
121.0203377984737
 20
265.0100736148181
 30
0.0
 40
3.800000000000004
100
AcDbArc
 50
278.8236574839048
 51
347.4999999999998
  0
ARC
  5
26B
330
1F
100
AcDbEntity
  8
1
  6
CONTINUOUS
 62
     7
100
AcDbCircle
 10
332.2203377984737
 20
387.7899263851818
 30
0.0
 40
3.800000000000013
100
AcDbArc
 50
12.49999999999991
 51
81.17634251609562
  0
ARC
  5
26C
330
1F
100
AcDbEntity
  8
1
  6
CONTINUOUS
 62
     7
100
AcDbCircle
 10
7.382499340314499
 20
387.7899263851818
 30
0.0
 40
3.800000000000002
100
AcDbArc
 50
98.82365748390394
 51
167.5000000000001
  0
ARC
  5
26D
330
1F
100
AcDbEntity
  8
1
  6
CONTINUOUS
 62
     7
100
AcDbCircle
 10
-37.37966220152626
 20
387.7899263851818
 30
0.0
 40
3.80000000000004
100
AcDbArc
 50
12.49999999999991
 51
81.17634251609603
  0
ARC
  5
26E
330
1F
100
AcDbEntity
  8
1
  6
CONTINUOUS
 62
     7
100
AcDbCircle
 10
-222.1796622015262
 20
265.0100736148181
 30
0.0
 40
3.800000000000002
100
AcDbArc
 50
278.8236574839039
 51
347.5000000000004
  0
ARC
  5
26F
330
1F
100
AcDbEntity
  8
1
  6
CONTINUOUS
 62
     7
100
AcDbCircle
 10
249.0014185693941
 20
361.9
 30
0.0
 40
30.0
100
AcDbArc
 50
81.17634251609566
 51
98.82365748390433
  0
ARC
  5
270
330
1F
100
AcDbEntity
  8
1
  6
CONTINUOUS
 62
     7
100
AcDbCircle
 10
-98.21750065968554
 20
265.0100736148181
 30
0.0
 40
3.80000000000004
100
AcDbArc
 50
192.4999999999999
 51
261.176342516096
  0
ARC
  5
271
330
1F
100
AcDbEntity
  8
1
  6
CONTINUOUS
 62
     7
100
AcDbCircle
 10
376.9824993403144
 20
265.0100736148181
 30
0.0
 40
3.799999999999987
100
AcDbArc
 50
192.5000000000001
 51
261.1763425160956
  0
ARC
  5
272
330
1F
100
AcDbEntity
  8
1
  6
CONTINUOUS
 62
     7
100
AcDbCircle
 10
86.58249934031448
 20
265.0100736148181
 30
0.0
 40
3.799999999999989
100
AcDbArc
 50
192.5000000000002
 51
261.176342516096
  0
ARC
  5
273
330
1F
100
AcDbEntity
  8
1
  6
CONTINUOUS
 62
     7
100
AcDbCircle
 10
-327.7796622015262
 20
387.7899263851818
 30
0.0
 40
3.80000000000004
100
AcDbArc
 50
12.49999999999991
 51
81.17634251609603
  0
ARC
  5
274
330
1F
100
AcDbEntity
  8
1
  6
CONTINUOUS
 62
     7
100
AcDbCircle
 10
-142.9796622015263
 20
265.0100736148181
 30
0.0
 40
3.800000000000002
100
AcDbArc
 50
278.8236574839039
 51
347.5000000000004
  0
ARC
  5
275
330
1F
100
AcDbEntity
  8
1
  6
CONTINUOUS
 62
     7
100
AcDbCircle
 10
-142.9796622015263
 20
387.7899263851818
 30
0.0
 40
3.800000000000035
100
AcDbArc
 50
12.49999999999965
 51
81.17634251609608
  0
ARC
  5
276
330
1F
100
AcDbEntity
  8
1
  6
CONTINUOUS
 62
     7
100
AcDbCircle
 10
297.7824993403145
 20
265.0100736148181
 30
0.0
 40
3.799999999999987
100
AcDbArc
 50
192.5000000000001
 51
261.1763425160956
  0
ARC
  5
277
330
1F
100
AcDbEntity
  8
1
  6
CONTINUOUS
 62
     7
100
AcDbCircle
 10
-19.01750065968548
 20
387.7899263851818
 30
0.0
 40
3.799999999999999
100
AcDbArc
 50
98.82365748390565
 51
167.5000000000003
  0
ARC
  5
278
330
1F
100
AcDbEntity
  8
1
  6
CONTINUOUS
 62
     7
100
AcDbCircle
 10
253.0203377984737
 20
387.7899263851818
 30
0.0
 40
3.799999999999987
100
AcDbArc
 50
12.50000000000012
 51
81.17634251609562
  0
ARC
  5
279
330
1F
100
AcDbEntity
  8
1
  6
CONTINUOUS
 62
     7
100
AcDbCircle
 10
147.4203377984738
 20
387.7899263851818
 30
0.0
 40
3.799999999999987
100
AcDbArc
 50
12.50000000000012
 51
81.17634251609522
  0
ARC
  5
27A
330
1F
100
AcDbEntity
  8
1
  6
CONTINUOUS
 62
     7
100
AcDbCircle
 10
358.6203377984737
 20
265.0100736148181
 30
0.0
 40
3.799999999999995
100
AcDbArc
 50
278.8236574839045
 51
347.4999999999998
  0
ARC
  5
27B
330
1F
100
AcDbEntity
  8
1
  6
CONTINUOUS
 62
     7
100
AcDbCircle
 10
-10.97966220152628
 20
265.0100736148181
 30
0.0
 40
3.800000000000002
100
AcDbArc
 50
278.8236574839039
 51
347.5000000000002
  0
ARC
  5
27C
330
1F
100
AcDbEntity
  8
1
  6
CONTINUOUS
 62
     7
100
AcDbCircle
 10
332.2203377984737
 20
265.0100736148181
 30
0.0
 40
3.8
100
AcDbArc
 50
278.8236574839045
 51
347.5000000000002
  0
ARC
  5
27D
330
1F
100
AcDbEntity
  8
1
  6
CONTINUOUS
 62
     7
100
AcDbCircle
 10
-71.81750065968555
 20
265.0100736148181
 30
0.0
 40
3.80000000000004
100
AcDbArc
 50
192.4999999999999
 51
261.176342516096
  0
ARC
  5
27E
330
1F
100
AcDbEntity
  8
1
  6
CONTINUOUS
 62
     7
100
AcDbCircle
 10
244.9824993403145
 20
265.0100736148181
 30
0.0
 40
3.799999999999986
100
AcDbArc
 50
192.5
 51
261.176342516096
  0
ARC
  5
27F
330
1F
100
AcDbEntity
  8
1
  6
CONTINUOUS
 62
     7
100
AcDbCircle
 10
376.9824993403144
 20
387.7899263851818
 30
0.0
 40
3.800000000000004
100
AcDbArc
 50
98.82365748390438
 51
167.5
  0
ARC
  5
280
330
1F
100
AcDbEntity
  8
1
  6
CONTINUOUS
 62
     7
100
AcDbCircle
 10
-63.77966220152624
 20
387.7899263851818
 30
0.0
 40
3.800000000000042
100
AcDbArc
 50
12.50000000000003
 51
81.17634251609603
  0
ARC
  5
281
330
1F
100
AcDbEntity
  8
1
  6
CONTINUOUS
 62
     7
100
AcDbCircle
 10
165.7824993403145
 20
387.7899263851818
 30
0.0
 40
3.799999999999995
100
AcDbArc
 50
98.82365748390399
 51
167.4999999999998
  0
ARC
  5
282
330
1F
100
AcDbEntity
  8
1
  6
CONTINUOUS
 62
     7
100
AcDbCircle
 10
165.7824993403145
 20
265.0100736148181
 30
0.0
 40
3.799999999999989
100
AcDbArc
 50
192.5000000000002
 51
261.176342516096
  0
ARC
  5
283
330
1F
100
AcDbEntity
  8
1
  6
CONTINUOUS
 62
     7
100
AcDbCircle
 10
-203.8175006596855
 20
265.0100736148181
 30
0.0
 40
3.800000000000035
100
AcDbArc
 50
192.4999999999996
 51
261.176342516096
  0
ARC
  5
284
330
1F
100
AcDbEntity
  8
1
  6
CONTINUOUS
 62
     7
100
AcDbCircle
 10
33.78249934031448
 20
387.7899263851818
 30
0.0
 40
3.800000000000002
100
AcDbArc
 50
98.82365748390394
 51
167.5
  0
ARC
  5
285
330
1F
100
AcDbEntity
  8
1
  6
CONTINUOUS
 62
     7
100
AcDbCircle
 10
192.1824993403145
 20
265.0100736148181
 30
0.0
 40
3.799999999999989
100
AcDbArc
 50
192.5000000000002
 51
261.176342516096
  0
ARC
  5
286
330
1F
100
AcDbEntity
  8
1
  6
CONTINUOUS
 62
     7
100
AcDbCircle
 10
86.58249934031448
 20
387.7899263851818
 30
0.0
 40
3.799999999999995
100
AcDbArc
 50
98.82365748390399
 51
167.4999999999998
  0
ARC
  5
287
330
1F
100
AcDbEntity
  8
1
  6
CONTINUOUS
 62
     7
100
AcDbCircle
 10
-19.01750065968548
 20
265.0100736148181
 30
0.0
 40
3.800000000000037
100
AcDbArc
 50
192.4999999999997
 51
261.1763425160944
  0
ARC
  5
288
330
1F
100
AcDbEntity
  8
1
  6
CONTINUOUS
 62
     7
100
AcDbCircle
 10
-45.41750065968557
 20
387.7899263851818
 30
0.0
 40
3.799999999999995
100
AcDbArc
 50
98.82365748390399
 51
167.5
  0
ARC
  5
289
330
1F
100
AcDbEntity
  8
1
  6
CONTINUOUS
 62
     7
100
AcDbCircle
 10
200.2203377984737
 20
387.7899263851818
 30
0.0
 40
3.799999999999987
100
AcDbArc
 50
12.50000000000012
 51
81.17634251609519
  0
ARC
  5
28A
330
1F
100
AcDbEntity
  8
1
  6
CONTINUOUS
 62
     7
100
AcDbCircle
 10
-177.4175006596855
 20
265.0100736148181
 30
0.0
 40
3.800000000000035
100
AcDbArc
 50
192.4999999999996
 51
261.176342516096
  0
ARC
  5
28B
330
1F
100
AcDbEntity
  8
1
  6
CONTINUOUS
 62
     7
100
AcDbCircle
 10
271.3824993403144
 20
265.0100736148181
 30
0.0
 40
3.799999999999989
100
AcDbArc
 50
192.5000000000002
 51
261.1763425160956
  0
ARC
  5
28C
330
1F
100
AcDbEntity
  8
1
  6
CONTINUOUS
 62
     7
100
AcDbCircle
 10
200.2203377984737
 20
265.0100736148181
 30
0.0
 40
3.799999999999997
100
AcDbArc
 50
278.8236574839048
 51
347.4999999999998
  0
ARC
  5
28D
330
1F
100
AcDbEntity
  8
1
  6
CONTINUOUS
 62
     7
100
AcDbCircle
 10
60.18249934031451
 20
387.7899263851818
 30
0.0
 40
3.800000000000004
100
AcDbArc
 50
98.82365748390477
 51
167.4999999999998
  0
ARC
  5
28E
330
1F
100
AcDbEntity
  8
1
  6
CONTINUOUS
 62
     7
100
AcDbCircle
 10
41.82033779847373
 20
265.0100736148181
 30
0.0
 40
3.800000000000004
100
AcDbArc
 50
278.8236574839048
 51
347.4999999999998
  0
ARC
  5
28F
330
1F
100
AcDbEntity
  8
1
  6
CONTINUOUS
 62
     7
100
AcDbCircle
 10
94.62033779847374
 20
265.0100736148181
 30
0.0
 40
3.800000000000002
100
AcDbArc
 50
278.8236574839039
 51
347.5000000000002
  0
ARC
  5
290
330
1F
100
AcDbEntity
  8
1
  6
CONTINUOUS
 62
     7
100
AcDbCircle
 10
-45.41750065968557
 20
265.0100736148181
 30
0.0
 40
3.800000000000042
100
AcDbArc
 50
192.5
 51
261.176342516096
  0
MTEXT
  5
291
330
1F
100
AcDbEntity
  8
1
 62
     7
100
AcDbMText
 10
82.92251469301004
 20
224.2596973865199
 30
0.0
 40
10.0
 41
0.0
 71
     1
 72
     1
  1
{\fＭＳ ゴシック;FEP-100CK}
  0
ARC
  5
292
330
1F
100
AcDbEntity
  8
1
  6
CONTINUOUS
 62
     7
100
AcDbCircle
 10
-701.3985814306059
 20
361.9
 30
0.0
 40
29.99999999999999
100
AcDbArc
 50
81.17634251609553
 51
98.82365748390424
  0
ARC
  5
293
330
1F
100
AcDbEntity
  8
1
  6
CONTINUOUS
 62
     7
100
AcDbCircle
 10
-494.2175006596854
 20
387.7899263851818
 30
0.0
 40
3.800000000000031
100
AcDbArc
 50
98.82365748390431
 51
167.5000000000007
  0
ARC
  5
294
330
1F
100
AcDbEntity
  8
1
  6
CONTINUOUS
 62
     7
100
AcDbCircle
 10
-723.7796622015262
 20
387.7899263851818
 30
0.0
 40
3.799999999999999
100
AcDbArc
 50
12.49999999999977
 51
81.17634251609434
  0
ARC
  5
295
330
1F
100
AcDbEntity
  8
1
  6
CONTINUOUS
 62
     7
100
AcDbCircle
 10
-670.9796622015261
 20
387.7899263851818
 30
0.0
 40
3.799999999999982
100
AcDbArc
 50
12.49999999999989
 51
81.17634251609604
  0
ARC
  5
296
330
1F
100
AcDbEntity
  8
1
  6
CONTINUOUS
 62
     7
100
AcDbCircle
 10
-776.5796622015262
 20
387.7899263851818
 30
0.0
 40
3.799999999999982
100
AcDbArc
 50
12.5
 51
81.17634251609604
  0
ARC
  5
297
330
1F
100
AcDbEntity
  8
1
  6
CONTINUOUS
 62
     7
100
AcDbCircle
 10
-512.5796622015262
 20
387.7899263851818
 30
0.0
 40
3.799999999999982
100
AcDbArc
 50
12.49999999999966
 51
81.17634251609604
  0
ARC
  5
298
330
1F
100
AcDbEntity
  8
1
  6
CONTINUOUS
 62
     7
100
AcDbCircle
 10
-705.4175006596854
 20
265.0100736148181
 30
0.0
 40
3.799999999999982
100
AcDbArc
 50
192.4999999999999
 51
261.1763425160959
  0
ARC
  5
299
330
1F
100
AcDbEntity
  8
1
  6
CONTINUOUS
 62
     7
100
AcDbCircle
 10
-811.0175006596854
 20
265.0100736148181
 30
0.0
 40
3.799999999999982
100
AcDbArc
 50
192.5
 51
261.1763425160959
  0
LINE
  5
29A
330
1F
100
AcDbEntity
  8
1
  6
CONTINUOUS
 62
     7
100
AcDbLine
 10
-429.6697373744705
 20
388.6123969181469
 30
0.0
 11
-428.0509255586975
 21
381.3104086949112
 31
0.0
  0
ARC
  5
29B
330
1F
100
AcDbEntity
  8
1
  6
CONTINUOUS
 62
     7
100
AcDbCircle
 10
-750.1796622015262
 20
387.7899263851818
 30
0.0
 40
3.799999999999982
100
AcDbArc
 50
12.49999999999989
 51
81.17634251609604
  0
ARC
  5
29C
330
1F
100
AcDbEntity
  8
1
  6
CONTINUOUS
 62
     7
100
AcDbCircle
 10
-618.1796622015261
 20
265.0100736148181
 30
0.0
 40
3.800000000000043
100
AcDbArc
 50
278.8236574839036
 51
347.5
  0
ARC
  5
29D
330
1F
100
AcDbEntity
  8
1
  6
CONTINUOUS
 62
     7
100
AcDbCircle
 10
-626.2175006596852
 20
265.0100736148181
 30
0.0
 40
3.800000000000016
100
AcDbArc
 50
192.499999999998
 51
261.1763425160927
  0
ARC
  5
29E
330
1F
100
AcDbEntity
  8
1
  6
CONTINUOUS
 62
     7
100
AcDbCircle
 10
-833.3985814306059
 20
361.9
 30
0.0
 40
29.99999999999999
100
AcDbArc
 50
81.17634251609566
 51
98.82365748390424
  0
ARC
  5
29F
330
1F
100
AcDbEntity
  8
1
  6
CONTINUOUS
 62
     7
100
AcDbCircle
 10
-652.6175006596854
 20
387.7899263851818
 30
0.0
 40
3.800000000000043
100
AcDbArc
 50
98.82365748390399
 51
167.5
  0
LINE
  5
2A0
330
1F
100
AcDbEntity
  8
1
  6
CONTINUOUS
 62
     7
100
AcDbLine
 10
-393.946237302514
 20
381.3104086949112
 30
0.0
 11
-392.3274254867412
 21
388.6123969181464
 31
0.0
  0
LINE
  5
2A1
330
1F
100
AcDbEntity
  8
1
  6
CONTINUOUS
 62
     7
100
AcDbLine
 10
-471.5274254867413
 20
264.1876030818532
 30
0.0
 11
-473.1462373025141
 21
271.4895913050883
 31
0.0
  0
LINE
  5
2A2
330
1F
100
AcDbEntity
  8
1
  6
CONTINUOUS
 62
     7
100
AcDbLine
 10
-392.3274254867412
 20
264.1876030818535
 30
0.0
 11
-393.946237302514
 21
271.4895913050887
 31
0.0
  0
ARC
  5
2A3
330
1F
100
AcDbEntity
  8
1
  6
CONTINUOUS
 62
     7
100
AcDbCircle
 10
-776.5796622015262
 20
265.0100736148181
 30
0.0
 40
3.800000000000043
100
AcDbArc
 50
278.8236574839038
 51
347.5
  0
ARC
  5
2A4
330
1F
100
AcDbEntity
  8
1
  6
CONTINUOUS
 62
     7
100
AcDbCircle
 10
-829.3796622015261
 20
387.7899263851818
 30
0.0
 40
3.799999999999982
100
AcDbArc
 50
12.50000000000023
 51
81.17634251609604
  0
ARC
  5
2A5
330
1F
100
AcDbEntity
  8
1
  6
CONTINUOUS
 62
     7
100
AcDbCircle
 10
-727.7985814306059
 20
361.9
 30
0.0
 40
29.99999999999999
100
AcDbArc
 50
81.17634251609553
 51
98.82365748390424
  0
ARC
  5
2A6
330
1F
100
AcDbEntity
  8
1
  6
CONTINUOUS
 62
     7
100
AcDbCircle
 10
-806.9985814306059
 20
290.8999999999999
 30
0.0
 40
30.00000000000001
100
AcDbArc
 50
261.1763425160957
 51
278.8236574839045
  0
LINE
  5
2A7
330
1F
100
AcDbEntity
  8
1
  6
CONTINUOUS
 62
     7
100
AcDbLine
 10
-428.0509255586975
 20
271.4895913050887
 30
0.0
 11
-429.6697373744705
 21
264.187603081853
 31
0.0
  0
LINE
  5
2A8
330
1F
100
AcDbEntity
  8
1
  6
CONTINUOUS
 62
     7
100
AcDbLine
 10
-418.7274254867412
 20
264.187603081853
 30
0.0
 11
-420.346237302514
 21
271.4895913050882
 31
0.0
  0
LINE
  5
2A9
330
1F
100
AcDbEntity
  8
1
  6
CONTINUOUS
 62
     7
100
AcDbLine
 10
-446.7462373025141
 20
381.3104086949111
 30
0.0
 11
-445.1274254867413
 21
388.6123969181462
 31
0.0
  0
ARC
  5
2AA
330
1F
100
AcDbEntity
  8
1
  6
CONTINUOUS
 62
     7
100
AcDbCircle
 10
-731.8175006596854
 20
265.0100736148181
 30
0.0
 40
3.799999999999982
100
AcDbArc
 50
192.4999999999997
 51
261.1763425160959
  0
LINE
  5
2AB
330
1F
100
AcDbEntity
  8
1
  6
CONTINUOUS
 62
     7
100
AcDbLine
 10
-482.4697373744705
 20
388.6123969181467
 30
0.0
 11
-480.8509255586975
 21
381.3104086949111
 31
0.0
  0
ARC
  5
2AC
330
1F
100
AcDbEntity
  8
1
  6
CONTINUOUS
 62
     7
100
AcDbCircle
 10
-705.4175006596854
 20
387.7899263851818
 30
0.0
 40
3.800000000000043
100
AcDbArc
 50
98.82365748390384
 51
167.5
  0
LINE
  5
2AD
330
1F
100
AcDbEntity
  8
1
  6
CONTINUOUS
 62
     7
100
AcDbLine
 10
-375.2509255586976
 20
271.4895913050888
 30
0.0
 11
-376.8697373744704
 21
264.1876030818538
 31
0.0
  0
ARC
  5
2AE
330
1F
100
AcDbEntity
  8
1
  6
CONTINUOUS
 62
     7
100
AcDbCircle
 10
-754.1985814306058
 20
290.8999999999999
 30
0.0
 40
29.99999999999999
100
AcDbArc
 50
261.1763425160957
 51
278.8236574839043
  0
ARC
  5
2AF
330
1F
100
AcDbEntity
  8
1
  6
CONTINUOUS
 62
     7
100
AcDbCircle
 10
-750.1796622015262
 20
265.0100736148181
 30
0.0
 40
3.800000000000043
100
AcDbArc
 50
278.8236574839038
 51
347.5
  0
LINE
  5
2B0
330
1F
100
AcDbEntity
  8
1
  6
CONTINUOUS
 62
     7
100
AcDbLine
 10
-508.8697373744704
 20
388.6123969181467
 30
0.0
 11
-507.2509255586974
 21
381.3104086949116
 31
0.0
  0
ARC
  5
2B1
330
1F
100
AcDbEntity
  8
1
  6
CONTINUOUS
 62
     7
100
AcDbCircle
 10
-626.2175006596852
 20
387.7899263851818
 30
0.0
 40
3.800000000000031
100
AcDbArc
 50
98.823657483906
 51
167.5000000000007
  0
LINE
  5
2B2
330
1F
100
AcDbEntity
  8
1
  6
CONTINUOUS
 62
     7
100
AcDbLine
 10
-454.4509255586976
 20
271.4895913050882
 30
0.0
 11
-456.0697373744705
 21
264.187603081853
 31
0.0
  0
ARC
  5
2B3
330
1F
100
AcDbEntity
  8
1
  6
CONTINUOUS
 62
     7
100
AcDbCircle
 10
-837.4175006596854
 20
265.0100736148181
 30
0.0
 40
3.799999999999982
100
AcDbArc
 50
192.4999999999997
 51
261.1763425160959
  0
ARC
  5
2B4
330
1F
100
AcDbEntity
  8
1
  6
CONTINUOUS
 62
     7
100
AcDbCircle
 10
-758.2175006596854
 20
387.7899263851818
 30
0.0
 40
3.800000000000043
100
AcDbArc
 50
98.82365748390407
 51
167.5
  0
ARC
  5
2B5
330
1F
100
AcDbEntity
  8
1
  6
CONTINUOUS
 62
     7
100
AcDbCircle
 10
-697.3796622015261
 20
265.0100736148181
 30
0.0
 40
3.800000000000043
100
AcDbArc
 50
278.8236574839039
 51
347.5
  0
ARC
  5
2B6
330
1F
100
AcDbEntity
  8
1
  6
CONTINUOUS
 62
     7
100
AcDbCircle
 10
-565.3796622015261
 20
387.7899263851818
 30
0.0
 40
3.799999999999982
100
AcDbArc
 50
12.49999999999955
 51
81.17634251609604
  0
ARC
  5
2B7
330
1F
100
AcDbEntity
  8
1
  6
CONTINUOUS
 62
     7
100
AcDbCircle
 10
-644.579662201526
 20
265.0100736148181
 30
0.0
 40
3.800000000000043
100
AcDbArc
 50
278.8236574839038
 51
347.5
  0
ARC
  5
2B8
330
1F
100
AcDbEntity
  8
1
  6
CONTINUOUS
 62
     7
100
AcDbCircle
 10
-670.9796622015261
 20
265.0100736148181
 30
0.0
 40
3.800000000000043
100
AcDbArc
 50
278.8236574839038
 51
347.5
  0
ARC
  5
2B9
330
1F
100
AcDbEntity
  8
1
  6
CONTINUOUS
 62
     7
100
AcDbCircle
 10
-433.3796622015263
 20
387.7899263851818
 30
0.0
 40
3.799999999999999
100
AcDbArc
 50
12.49999999999966
 51
81.17634251609434
  0
ARC
  5
2BA
330
1F
100
AcDbEntity
  8
1
  6
CONTINUOUS
 62
     7
100
AcDbCircle
 10
-784.6175006596853
 20
387.7899263851818
 30
0.0
 40
3.800000000000043
100
AcDbArc
 50
98.82365748390487
 51
167.5
  0
ARC
  5
2BB
330
1F
100
AcDbEntity
  8
1
  6
CONTINUOUS
 62
     7
100
AcDbCircle
 10
-837.4175006596854
 20
387.7899263851818
 30
0.0
 40
3.799999999999935
100
AcDbArc
 50
98.82365748390345
 51
167.4999999999996
  0
ARC
  5
2BC
330
1F
100
AcDbEntity
  8
1
  6
CONTINUOUS
 62
     7
100
AcDbCircle
 10
-806.9985814306059
 20
361.9
 30
0.0
 40
29.99999999999999
100
AcDbArc
 50
81.17634251609553
 51
98.82365748390424
  0
LINE
  5
2BD
330
1F
100
AcDbEntity
  8
1
  6
CONTINUOUS
 62
     7
100
AcDbLine
 10
-499.546237302514
 20
381.3104086949112
 30
0.0
 11
-497.9274254867412
 21
388.6123969181464
 31
0.0
  0
ARC
  5
2BE
330
1F
100
AcDbEntity
  8
1
  6
CONTINUOUS
 62
     7
100
AcDbCircle
 10
-679.0175006596854
 20
265.0100736148181
 30
0.0
 40
3.799999999999982
100
AcDbArc
 50
192.5
 51
261.1763425160959
  0
LINE
  5
2BF
330
1F
100
AcDbEntity
  8
1
  6
CONTINUOUS
 62
     7
100
AcDbLine
 10
-561.6697373744703
 20
388.6123969181464
 30
0.0
 11
-560.0509255586975
 21
381.3104086949112
 31
0.0
  0
ARC
  5
2C0
330
1F
100
AcDbEntity
  8
1
  6
CONTINUOUS
 62
     7
100
AcDbCircle
 10
-565.3796622015261
 20
265.0100736148181
 30
0.0
 40
3.800000000000031
100
AcDbArc
 50
278.8236574839043
 51
347.5000000000006
  0
LINE
  5
2C1
330
1F
100
AcDbEntity
  8
1
  6
CONTINUOUS
 62
     7
100
AcDbLine
 10
-420.346237302514
 20
381.3104086949117
 30
0.0
 11
-418.7274254867412
 21
388.6123969181469
 31
0.0
  0
LINE
  5
2C2
330
1F
100
AcDbEntity
  8
1
  6
CONTINUOUS
 62
     7
100
AcDbLine
 10
-552.346237302514
 20
381.3104086949116
 30
0.0
 11
-550.7274254867413
 21
388.6123969181467
 31
0.0
  0
ARC
  5
2C3
330
1F
100
AcDbEntity
  8
1
  6
CONTINUOUS
 62
     7
100
AcDbCircle
 10
-731.8175006596854
 20
387.7899263851818
 30
0.0
 40
3.799999999999935
100
AcDbArc
 50
98.82365748390345
 51
167.4999999999996
  0
ARC
  5
2C4
330
1F
100
AcDbEntity
  8
1
  6
CONTINUOUS
 62
     7
100
AcDbCircle
 10
-467.8175006596854
 20
387.7899263851818
 30
0.0
 40
3.800000000000031
100
AcDbArc
 50
98.82365748390438
 51
167.5000000000007
  0
ARC
  5
2C5
330
1F
100
AcDbEntity
  8
1
  6
CONTINUOUS
 62
     7
100
AcDbCircle
 10
-459.7796622015263
 20
265.0100736148181
 30
0.0
 40
3.800000000000031
100
AcDbArc
 50
278.8236574839043
 51
347.5000000000006
  0
ARC
  5
2C6
330
1F
100
AcDbEntity
  8
1
  6
CONTINUOUS
 62
     7
100
AcDbCircle
 10
-542.9985814306058
 20
361.9
 30
0.0
 40
29.99999999999999
100
AcDbArc
 50
81.17634251609576
 51
98.82365748390424
  0
ARC
  5
2C7
330
1F
100
AcDbEntity
  8
1
  6
CONTINUOUS
 62
     7
100
AcDbCircle
 10
-802.9796622015261
 20
387.7899263851818
 30
0.0
 40
3.799999999999982
100
AcDbArc
 50
12.50000000000102
 51
81.17634251609604
  0
LINE
  5
2C8
330
1F
100
AcDbEntity
  8
1
  6
CONTINUOUS
 62
     7
100
AcDbLine
 10
-560.0509255586976
 20
271.4895913050887
 30
0.0
 11
-561.6697373744704
 21
264.1876030818535
 31
0.0
  0
LINE
  5
2C9
330
1F
100
AcDbEntity
  8
1
  6
CONTINUOUS
 62
     7
100
AcDbLine
 10
-376.8697373744704
 20
388.6123969181462
 30
0.0
 11
-375.2509255586976
 21
381.3104086949111
 31
0.0
  0
ARC
  5
2CA
330
1F
100
AcDbEntity
  8
1
  6
CONTINUOUS
 62
     7
100
AcDbCircle
 10
-855.7796622015262
 20
387.7899263851818
 30
0.0
 40
3.799999999999982
100
AcDbArc
 50
12.49999999999989
 51
81.17634251609604
  0
ARC
  5
2CB
330
1F
100
AcDbEntity
  8
1
  6
CONTINUOUS
 62
     7
100
AcDbCircle
 10
-784.6175006596853
 20
265.0100736148181
 30
0.0
 40
3.799999999999999
100
AcDbArc
 50
192.4999999999992
 51
261.1763425160943
  0
ARC
  5
2CC
330
1F
100
AcDbEntity
  8
1
  6
CONTINUOUS
 62
     7
100
AcDbCircle
 10
-855.7796622015262
 20
265.0100736148181
 30
0.0
 40
3.800000000000043
100
AcDbArc
 50
278.8236574839038
 51
347.5
  0
LINE
  5
2CD
330
1F
100
AcDbEntity
  8
1
  6
CONTINUOUS
 62
     7
100
AcDbLine
 10
-401.6509255586976
 20
271.4895913050888
 30
0.0
 11
-403.2697373744705
 21
264.1876030818532
 31
0.0
  0
ARC
  5
2CE
330
1F
100
AcDbEntity
  8
1
  6
CONTINUOUS
 62
     7
100
AcDbCircle
 10
-679.0175006596854
 20
387.7899263851818
 30
0.0
 40
3.800000000000043
100
AcDbArc
 50
98.82365748390399
 51
167.5
  0
ARC
  5
2CF
330
1F
100
AcDbEntity
  8
1
  6
CONTINUOUS
 62
     7
100
AcDbCircle
 10
-538.9796622015261
 20
387.7899263851818
 30
0.0
 40
3.799999999999982
100
AcDbArc
 50
12.49999999999955
 51
81.17634251609604
  0
ARC
  5
2D0
330
1F
100
AcDbEntity
  8
1
  6
CONTINUOUS
 62
     7
100
AcDbCircle
 10
-863.8175006596853
 20
265.0100736148181
 30
0.0
 40
3.799999999999999
100
AcDbArc
 50
192.4999999999991
 51
261.1763425160943
  0
ARC
  5
2D1
330
1F
100
AcDbEntity
  8
1
  6
CONTINUOUS
 62
     7
100
AcDbCircle
 10
-701.3985814306059
 20
290.8999999999999
 30
0.0
 40
30.00000000000001
100
AcDbArc
 50
261.1763425160957
 51
278.8236574839045
  0
LINE
  5
2D2
330
1F
100
AcDbEntity
  8
1
  6
CONTINUOUS
 62
     7
100
AcDbLine
 10
-473.1462373025141
 20
381.3104086949116
 30
0.0
 11
-471.5274254867413
 21
388.6123969181467
 31
0.0
  0
LINE
  5
2D3
330
1F
100
AcDbEntity
  8
1
  6
CONTINUOUS
 62
     7
100
AcDbLine
 10
-550.7274254867411
 20
264.1876030818532
 30
0.0
 11
-552.3462373025139
 21
271.4895913050883
 31
0.0
  0
LINE
  5
2D4
330
1F
100
AcDbEntity
  8
1
  6
CONTINUOUS
 62
     7
100
AcDbLine
 10
-603.5274254867411
 20
264.187603081853
 30
0.0
 11
-605.1462373025139
 21
271.4895913050882
 31
0.0
  0
LINE
  5
2D5
330
1F
100
AcDbEntity
  8
1
  6
CONTINUOUS
 62
     7
100
AcDbLine
 10
-588.0697373744703
 20
388.6123969181467
 30
0.0
 11
-586.4509255586975
 21
381.3104086949116
 31
0.0
  0
LINE
  5
2D6
330
1F
100
AcDbEntity
  8
1
  6
CONTINUOUS
 62
     7
100
AcDbLine
 10
-456.0697373744705
 20
388.6123969181469
 30
0.0
 11
-454.4509255586976
 21
381.3104086949117
 31
0.0
  0
LINE
  5
2D7
330
1F
100
AcDbEntity
  8
1
  6
CONTINUOUS
 62
     7
100
AcDbLine
 10
-744.8509255586976
 20
271.4895913050887
 30
0.0
 11
-746.4697373744704
 21
264.1876030818535
 31
0.0
  0
ARC
  5
2D8
330
1F
100
AcDbEntity
  8
1
  6
CONTINUOUS
 62
     7
100
AcDbCircle
 10
-501.3035701153299
 20
381.7
 30
0.0
 40
1.800000000000024
100
AcDbArc
 50
270.0
 51
347.5000000000002
  0
ARC
  5
2D9
330
1F
100
AcDbEntity
  8
1
  6
CONTINUOUS
 62
     7
100
AcDbCircle
 10
-811.0175006596854
 20
387.7899263851818
 30
0.0
 40
3.799999999999935
100
AcDbArc
 50
98.82365748390367
 51
167.4999999999996
  0
LINE
  5
2DA
330
1F
100
AcDbEntity
  8
1
  6
CONTINUOUS
 62
     7
100
AcDbLine
 10
-665.6509255586976
 20
271.4895913050887
 30
0.0
 11
-667.2697373744704
 21
264.1876030818535
 31
0.0
  0
LINE
  5
2DB
330
1F
100
AcDbEntity
  8
1
  6
CONTINUOUS
 62
     7
100
AcDbLine
 10
-693.6697373744704
 20
388.6123969181467
 30
0.0
 11
-692.0509255586976
 21
381.3104086949116
 31
0.0
  0
LINE
  5
2DC
330
1F
100
AcDbEntity
  8
1
  6
CONTINUOUS
 62
     7
100
AcDbLine
 10
-841.1274254867412
 20
264.1876030818535
 30
0.0
 11
-842.746237302514
 21
271.4895913050887
 31
0.0
  0
LINE
  5
2DD
330
1F
100
AcDbEntity
  8
1
  6
CONTINUOUS
 62
     7
100
AcDbLine
 10
-639.2509255586975
 20
271.4895913050887
 30
0.0
 11
-640.8697373744703
 21
264.1876030818535
 31
0.0
  0
LINE
  5
2DE
330
1F
100
AcDbEntity
  8
1
  6
CONTINUOUS
 62
     7
100
AcDbLine
 10
-480.8509255586975
 20
271.4895913050888
 30
0.0
 11
-482.4697373744705
 21
264.1876030818532
 31
0.0
  0
LINE
  5
2DF
330
1F
100
AcDbEntity
  8
1
  6
CONTINUOUS
 62
     7
100
AcDbLine
 10
-507.2509255586975
 20
271.4895913050883
 30
0.0
 11
-508.8697373744705
 21
264.1876030818532
 31
0.0
  0
ARC
  5
2E0
330
1F
100
AcDbEntity
  8
1
  6
CONTINUOUS
 62
     7
100
AcDbCircle
 10
-758.2175006596854
 20
265.0100736148181
 30
0.0
 40
3.799999999999982
100
AcDbArc
 50
192.5
 51
261.1763425160959
  0
LINE
  5
2E1
330
1F
100
AcDbEntity
  8
1
  6
CONTINUOUS
 62
     7
100
AcDbLine
 10
-682.7274254867411
 20
264.1876030818532
 30
0.0
 11
-684.346237302514
 21
271.4895913050888
 31
0.0
  0
LINE
  5
2E2
330
1F
100
AcDbEntity
  8
1
  6
CONTINUOUS
 62
     7
100
AcDbLine
 10
-746.4697373744704
 20
388.6123969181464
 30
0.0
 11
-744.8509255586976
 21
381.3104086949112
 31
0.0
  0
ARC
  5
2E3
330
1F
100
AcDbEntity
  8
1
  6
CONTINUOUS
 62
     7
100
AcDbCircle
 10
-422.1035701153299
 20
271.1
 30
0.0
 40
1.799999999999991
100
AcDbArc
 50
12.50000000000015
 51
90.00000000000021
  0
LINE
  5
2E4
330
1F
100
AcDbEntity
  8
1
  6
CONTINUOUS
 62
     7
100
AcDbLine
 10
-772.8697373744703
 20
388.6123969181467
 30
0.0
 11
-771.2509255586975
 21
381.3104086949112
 31
0.0
  0
LINE
  5
2E5
330
1F
100
AcDbEntity
  8
1
  6
CONTINUOUS
 62
     7
100
AcDbLine
 10
-684.346237302514
 20
381.3104086949111
 30
0.0
 11
-682.7274254867411
 21
388.6123969181467
 31
0.0
  0
LINE
  5
2E6
330
1F
100
AcDbEntity
  8
1
  6
CONTINUOUS
 62
     7
100
AcDbLine
 10
-763.546237302514
 20
381.3104086949116
 30
0.0
 11
-761.9274254867412
 21
388.6123969181467
 31
0.0
  0
LINE
  5
2E7
330
1F
100
AcDbEntity
  8
1
  6
CONTINUOUS
 62
     7
100
AcDbLine
 10
-771.2509255586975
 20
271.4895913050887
 30
0.0
 11
-772.8697373744703
 21
264.1876030818533
 31
0.0
  0
LINE
  5
2E8
330
1F
100
AcDbEntity
  8
1
  6
CONTINUOUS
 62
     7
100
AcDbLine
 10
-816.346237302514
 20
381.3104086949112
 30
0.0
 11
-814.7274254867413
 21
388.6123969181467
 31
0.0
  0
ARC
  5
2E9
330
1F
100
AcDbEntity
  8
1
  6
CONTINUOUS
 62
     7
100
AcDbCircle
 10
-863.8175006596853
 20
387.7899263851818
 30
0.0
 40
3.800000000000043
100
AcDbArc
 50
98.82365748390477
 51
167.5
  0
LINE
  5
2EA
330
1F
100
AcDbEntity
  8
1
  6
CONTINUOUS
 62
     7
100
AcDbLine
 10
-852.0697373744704
 20
388.6123969181464
 30
0.0
 11
-850.4509255586976
 21
381.3104086949112
 31
0.0
  0
LINE
  5
2EB
330
1F
100
AcDbEntity
  8
1
  6
CONTINUOUS
 62
     7
100
AcDbLine
 10
-692.0509255586976
 20
271.4895913050883
 30
0.0
 11
-693.6697373744704
 21
264.1876030818532
 31
0.0
  0
LINE
  5
2EC
330
1F
100
AcDbEntity
  8
1
  6
CONTINUOUS
 62
     7
100
AcDbLine
 10
-867.5274254867411
 20
264.1876030818532
 30
0.0
 11
-869.1462373025139
 21
271.4895913050883
 31
0.0
  0
ARC
  5
2ED
330
1F
100
AcDbEntity
  8
1
  6
CONTINUOUS
 62
     7
100
AcDbCircle
 10
-373.4935927458817
 20
381.7
 30
0.0
 40
1.799999999999991
100
AcDbArc
 50
192.5000000000001
 51
269.9999999999998
  0
LINE
  5
2EE
330
1F
100
AcDbEntity
  8
1
  6
CONTINUOUS
 62
     7
100
AcDbLine
 10
-578.746237302514
 20
381.3104086949111
 30
0.0
 11
-577.1274254867411
 21
388.6123969181467
 31
0.0
  0
LINE
  5
2EF
330
1F
100
AcDbEntity
  8
1
  6
CONTINUOUS
 62
     7
100
AcDbLine
 10
-525.9462373025141
 20
381.3104086949112
 30
0.0
 11
-524.3274254867413
 21
388.6123969181464
 31
0.0
  0
ARC
  5
2F0
330
1F
100
AcDbEntity
  8
1
  6
CONTINUOUS
 62
     7
100
AcDbCircle
 10
-829.3796622015261
 20
265.0100736148181
 30
0.0
 40
3.799999999999935
100
AcDbArc
 50
278.8236574839038
 51
347.4999999999995
  0
ARC
  5
2F1
330
1F
100
AcDbEntity
  8
1
  6
CONTINUOUS
 62
     7
100
AcDbCircle
 10
-644.579662201526
 20
387.7899263851818
 30
0.0
 40
3.799999999999982
100
AcDbArc
 50
12.49999999999989
 51
81.17634251609604
  0
LINE
  5
2F2
330
1F
100
AcDbEntity
  8
1
  6
CONTINUOUS
 62
     7
100
AcDbLine
 10
-735.5274254867412
 20
264.1876030818535
 30
0.0
 11
-737.146237302514
 21
271.4895913050887
 31
0.0
  0
LINE
  5
2F3
330
1F
100
AcDbEntity
  8
1
  6
CONTINUOUS
 62
     7
100
AcDbLine
 10
-445.1274254867413
 20
264.1876030818538
 30
0.0
 11
-446.7462373025141
 21
271.4895913050888
 31
0.0
  0
ARC
  5
2F4
330
1F
100
AcDbEntity
  8
1
  6
CONTINUOUS
 62
     7
100
AcDbCircle
 10
-422.1035701153299
 20
381.7
 30
0.0
 40
1.800000000000024
100
AcDbArc
 50
270.0
 51
347.5000000000002
  0
ARC
  5
2F5
330
1F
100
AcDbEntity
  8
1
  6
CONTINUOUS
 62
     7
100
AcDbCircle
 10
-501.3035701153299
 20
271.1
 30
0.0
 40
1.799999999999937
100
AcDbArc
 50
12.50000000000053
 51
90.0000000000006
  0
LINE
  5
2F6
330
1F
100
AcDbEntity
  8
1
  6
CONTINUOUS
 62
     7
100
AcDbLine
 10
-657.946237302514
 20
381.3104086949111
 30
0.0
 11
-656.327425486741
 21
388.6123969181467
 31
0.0
  0
LINE
  5
2F7
330
1F
100
AcDbEntity
  8
1
  6
CONTINUOUS
 62
     7
100
AcDbLine
 10
-797.6509255586975
 20
271.4895913050885
 30
0.0
 11
-799.2697373744703
 21
264.1876030818532
 31
0.0
  0
LINE
  5
2F8
330
1F
100
AcDbEntity
  8
1
  6
CONTINUOUS
 62
     7
100
AcDbLine
 10
-667.2697373744704
 20
388.6123969181464
 30
0.0
 11
-665.6509255586976
 21
381.3104086949112
 31
0.0
  0
ARC
  5
2F9
330
1F
100
AcDbEntity
  8
1
  6
CONTINUOUS
 62
     7
100
AcDbCircle
 10
-599.8175006596853
 20
265.0100736148181
 30
0.0
 40
3.799999999999982
100
AcDbArc
 50
192.4999999999995
 51
261.1763425160959
  0
ARC
  5
2FA
330
1F
100
AcDbEntity
  8
1
  6
CONTINUOUS
 62
     7
100
AcDbCircle
 10
-538.9796622015261
 20
265.0100736148181
 30
0.0
 40
3.800000000000031
100
AcDbArc
 50
278.8236574839043
 51
347.5000000000006
  0
LINE
  5
2FB
330
1F
100
AcDbEntity
  8
1
  6
CONTINUOUS
 62
     7
100
AcDbLine
 10
-533.6509255586976
 20
271.4895913050887
 30
0.0
 11
-535.2697373744704
 21
264.1876030818535
 31
0.0
  0
ARC
  5
2FC
330
1F
100
AcDbEntity
  8
1
  6
CONTINUOUS
 62
     7
100
AcDbCircle
 10
-452.6935927458817
 20
271.1
 30
0.0
 40
1.800000000000024
100
AcDbArc
 50
90.0
 51
167.5000000000003
  0
LINE
  5
2FD
330
1F
100
AcDbEntity
  8
1
  6
CONTINUOUS
 62
     7
100
AcDbLine
 10
-824.0509255586976
 20
271.4895913050883
 30
0.0
 11
-825.6697373744704
 21
264.1876030818532
 31
0.0
  0
LINE
  5
2FE
330
1F
100
AcDbEntity
  8
1
  6
CONTINUOUS
 62
     7
100
AcDbLine
 10
-614.4697373744702
 20
388.6123969181462
 30
0.0
 11
-612.8509255586974
 21
381.3104086949111
 31
0.0
  0
LINE
  5
2FF
330
1F
100
AcDbEntity
  8
1
  6
CONTINUOUS
 62
     7
100
AcDbLine
 10
-737.146237302514
 20
381.3104086949112
 30
0.0
 11
-735.5274254867412
 21
388.6123969181464
 31
0.0
  0
LINE
  5
300
330
1F
100
AcDbEntity
  8
1
  6
CONTINUOUS
 62
     7
100
AcDbLine
 10
-403.2697373744705
 20
388.6123969181467
 30
0.0
 11
-401.6509255586976
 21
381.3104086949111
 31
0.0
  0
LINE
  5
301
330
1F
100
AcDbEntity
  8
1
  6
CONTINUOUS
 62
     7
100
AcDbLine
 10
-869.146237302514
 20
381.3104086949116
 30
0.0
 11
-867.5274254867412
 21
388.6123969181467
 31
0.0
  0
ARC
  5
302
330
1F
100
AcDbEntity
  8
1
  6
CONTINUOUS
 62
     7
100
AcDbCircle
 10
-395.7035701153299
 20
381.7
 30
0.0
 40
1.800000000000024
100
AcDbArc
 50
270.0
 51
347.5000000000002
  0
ARC
  5
303
330
1F
100
AcDbEntity
  8
1
  6
CONTINUOUS
 62
     7
100
AcDbCircle
 10
-599.8175006596853
 20
387.7899263851818
 30
0.0
 40
3.800000000000031
100
AcDbArc
 50
98.82365748390431
 51
167.5000000000007
  0
LINE
  5
304
330
1F
100
AcDbEntity
  8
1
  6
CONTINUOUS
 62
     7
100
AcDbLine
 10
-535.2697373744703
 20
388.6123969181464
 30
0.0
 11
-533.6509255586975
 21
381.3104086949112
 31
0.0
  0
LINE
  5
305
330
1F
100
AcDbEntity
  8
1
  6
CONTINUOUS
 62
     7
100
AcDbLine
 10
-497.9274254867412
 20
264.1876030818535
 30
0.0
 11
-499.546237302514
 21
271.4895913050887
 31
0.0
  0
LINE
  5
306
330
1F
100
AcDbEntity
  8
1
  6
CONTINUOUS
 62
     7
100
AcDbLine
 10
-524.3274254867412
 20
264.1876030818535
 30
0.0
 11
-525.946237302514
 21
271.4895913050887
 31
0.0
  0
LINE
  5
307
330
1F
100
AcDbEntity
  8
1
  6
CONTINUOUS
 62
     7
100
AcDbLine
 10
-814.7274254867411
 20
264.1876030818533
 30
0.0
 11
-816.3462373025139
 21
271.4895913050887
 31
0.0
  0
ARC
  5
308
330
1F
100
AcDbEntity
  8
1
  6
CONTINUOUS
 62
     7
100
AcDbCircle
 10
-426.2935927458818
 20
271.1
 30
0.0
 40
1.800000000000024
100
AcDbArc
 50
90.0
 51
167.4999999999996
  0
LINE
  5
309
330
1F
100
AcDbEntity
  8
1
  6
CONTINUOUS
 62
     7
100
AcDbLine
 10
-640.8697373744704
 20
388.6123969181464
 30
0.0
 11
-639.2509255586976
 21
381.3104086949112
 31
0.0
  0
ARC
  5
30A
330
1F
100
AcDbEntity
  8
1
  6
CONTINUOUS
 62
     7
100
AcDbCircle
 10
-452.6935927458817
 20
381.7
 30
0.0
 40
1.799999999999991
100
AcDbArc
 50
192.5000000000001
 51
270.0000000000005
  0
LINE
  5
30B
330
1F
100
AcDbEntity
  8
1
  6
CONTINUOUS
 62
     7
100
AcDbLine
 10
-612.8509255586976
 20
271.4895913050888
 30
0.0
 11
-614.4697373744704
 21
264.1876030818538
 31
0.0
  0
ARC
  5
30C
330
1F
100
AcDbEntity
  8
1
  6
CONTINUOUS
 62
     7
100
AcDbCircle
 10
-697.3796622015261
 20
387.7899263851818
 30
0.0
 40
3.799999999999982
100
AcDbArc
 50
12.5
 51
81.17634251609604
  0
LINE
  5
30D
330
1F
100
AcDbEntity
  8
1
  6
CONTINUOUS
 62
     7
100
AcDbLine
 10
-825.6697373744704
 20
388.6123969181467
 30
0.0
 11
-824.0509255586976
 21
381.3104086949116
 31
0.0
  0
LINE
  5
30E
330
1F
100
AcDbEntity
  8
1
  6
CONTINUOUS
 62
     7
100
AcDbLine
 10
-629.9274254867411
 20
264.187603081853
 30
0.0
 11
-631.546237302514
 21
271.4895913050887
 31
0.0
  0
LINE
  5
30F
330
1F
100
AcDbEntity
  8
1
  6
CONTINUOUS
 62
     7
100
AcDbLine
 10
-788.3274254867412
 20
264.1876030818532
 30
0.0
 11
-789.9462373025141
 21
271.4895913050885
 31
0.0
  0
ARC
  5
310
330
1F
100
AcDbEntity
  8
1
  6
CONTINUOUS
 62
     7
100
AcDbCircle
 10
-802.9796622015261
 20
265.0100736148181
 30
0.0
 40
3.799999999999935
100
AcDbArc
 50
278.8236574839045
 51
347.4999999999995
  0
ARC
  5
311
330
1F
100
AcDbEntity
  8
1
  6
CONTINUOUS
 62
     7
100
AcDbCircle
 10
-531.8935927458816
 20
271.1
 30
0.0
 40
1.800000000000024
100
AcDbArc
 50
90.0
 51
167.5000000000003
  0
ARC
  5
312
330
1F
100
AcDbEntity
  8
1
  6
CONTINUOUS
 62
     7
100
AcDbCircle
 10
-426.2935927458818
 20
381.7
 30
0.0
 40
1.799999999999991
100
AcDbArc
 50
192.5000000000001
 51
269.9999999999998
  0
LINE
  5
313
330
1F
100
AcDbEntity
  8
1
  6
CONTINUOUS
 62
     7
100
AcDbLine
 10
-850.4509255586976
 20
271.4895913050887
 30
0.0
 11
-852.0697373744704
 21
264.1876030818535
 31
0.0
  0
ARC
  5
314
330
1F
100
AcDbEntity
  8
1
  6
CONTINUOUS
 62
     7
100
AcDbCircle
 10
-584.6935927458816
 20
271.1
 30
0.0
 40
1.800000000000024
100
AcDbArc
 50
90.0
 51
167.4999999999996
  0
ARC
  5
315
330
1F
100
AcDbEntity
  8
1
  6
CONTINUOUS
 62
     7
100
AcDbCircle
 10
-611.0935927458816
 20
381.7
 30
0.0
 40
1.8000000000001
100
AcDbArc
 50
192.4999999999994
 51
269.999999999999
  0
ARC
  5
316
330
1F
100
AcDbEntity
  8
1
  6
CONTINUOUS
 62
     7
100
AcDbCircle
 10
-606.9035701153298
 20
271.1
 30
0.0
 40
1.799999999999883
100
AcDbArc
 50
12.50000000000091
 51
90.00000000000098
  0
ARC
  5
317
330
1F
100
AcDbEntity
  8
1
  6
CONTINUOUS
 62
     7
100
AcDbCircle
 10
-479.0935927458817
 20
381.7
 30
0.0
 40
1.799999999999991
100
AcDbArc
 50
192.5000000000001
 51
269.9999999999991
  0
LINE
  5
318
330
1F
100
AcDbEntity
  8
1
  6
CONTINUOUS
 62
     7
100
AcDbLine
 10
-842.746237302514
 20
381.3104086949112
 30
0.0
 11
-841.1274254867412
 21
388.6123969181464
 31
0.0
  0
ARC
  5
319
330
1F
100
AcDbEntity
  8
1
  6
CONTINUOUS
 62
     7
100
AcDbCircle
 10
-738.9035701153299
 20
381.7
 30
0.0
 40
1.800000000000024
100
AcDbArc
 50
270.0
 51
347.5000000000002
  0
ARC
  5
31A
330
1F
100
AcDbEntity
  8
1
  6
CONTINUOUS
 62
     7
100
AcDbCircle
 10
-686.10357011533
 20
271.1
 30
0.0
 40
1.799999999999991
100
AcDbArc
 50
12.50000000000015
 51
89.99999999999999
  0
ARC
  5
31B
330
1F
100
AcDbEntity
  8
1
  6
CONTINUOUS
 62
     7
100
AcDbCircle
 10
-505.4935927458817
 20
381.7
 30
0.0
 40
1.8000000000001
100
AcDbArc
 50
192.4999999999994
 51
269.999999999999
  0
LINE
  5
31C
330
1F
100
AcDbEntity
  8
1
  6
CONTINUOUS
 62
     7
100
AcDbLine
 10
-710.746237302514
 20
381.3104086949112
 30
0.0
 11
-709.1274254867411
 21
388.6123969181469
 31
0.0
  0
ARC
  5
31D
330
1F
100
AcDbEntity
  8
1
  6
CONTINUOUS
 62
     7
100
AcDbCircle
 10
-399.8935927458817
 20
271.1
 30
0.0
 40
1.800000000000024
100
AcDbArc
 50
90.0
 51
167.4999999999996
  0
ARC
  5
31E
330
1F
100
AcDbEntity
  8
1
  6
CONTINUOUS
 62
     7
100
AcDbCircle
 10
-769.4935927458816
 20
271.1
 30
0.0
 40
1.800000000000024
100
AcDbArc
 50
90.0
 51
167.5000000000003
  0
ARC
  5
31F
330
1F
100
AcDbEntity
  8
1
  6
CONTINUOUS
 62
     7
100
AcDbCircle
 10
-479.0935927458817
 20
271.1
 30
0.0
 40
1.800000000000024
100
AcDbArc
 50
90.0
 51
167.499999999999
  0
ARC
  5
320
330
1F
100
AcDbEntity
  8
1
  6
CONTINUOUS
 62
     7
100
AcDbCircle
 10
-554.1035701153298
 20
271.1
 30
0.0
 40
1.799999999999883
100
AcDbArc
 50
12.50000000000091
 51
90.00000000000075
  0
ARC
  5
321
330
1F
100
AcDbEntity
  8
1
  6
CONTINUOUS
 62
     7
100
AcDbCircle
 10
-474.90357011533
 20
381.7
 30
0.0
 40
1.800000000000024
100
AcDbArc
 50
270.0
 51
347.4999999999998
  0
ARC
  5
322
330
1F
100
AcDbEntity
  8
1
  6
CONTINUOUS
 62
     7
100
AcDbCircle
 10
-765.3035701153299
 20
271.1
 30
0.0
 40
1.799999999999991
100
AcDbArc
 50
12.50000000000015
 51
90.00000000000043
  0
ARC
  5
323
330
1F
100
AcDbEntity
  8
1
  6
CONTINUOUS
 62
     7
100
AcDbCircle
 10
-395.7035701153299
 20
271.1
 30
0.0
 40
1.799999999999991
100
AcDbArc
 50
12.50000000000015
 51
90.00000000000021
  0
ARC
  5
324
330
1F
100
AcDbEntity
  8
1
  6
CONTINUOUS
 62
     7
100
AcDbCircle
 10
-373.4935927458817
 20
271.1
 30
0.0
 40
1.800000000000024
100
AcDbArc
 50
90.0
 51
167.4999999999996
  0
LINE
  5
325
330
1F
100
AcDbEntity
  8
1
  6
CONTINUOUS
 62
     7
100
AcDbLine
 10
-761.9274254867412
 20
264.1876030818532
 30
0.0
 11
-763.546237302514
 21
271.4895913050883
 31
0.0
  0
LINE
  5
326
330
1F
100
AcDbEntity
  8
1
  6
CONTINUOUS
 62
     7
100
AcDbLine
 10
-799.2697373744704
 20
388.6123969181467
 30
0.0
 11
-797.6509255586976
 21
381.3104086949114
 31
0.0
  0
ARC
  5
327
330
1F
100
AcDbEntity
  8
1
  6
CONTINUOUS
 62
     7
100
AcDbCircle
 10
-848.6935927458817
 20
381.7
 30
0.0
 40
1.799999999999991
100
AcDbArc
 50
192.5000000000001
 51
270.0000000000005
  0
ARC
  5
328
330
1F
100
AcDbEntity
  8
1
  6
CONTINUOUS
 62
     7
100
AcDbCircle
 10
-505.4935927458817
 20
271.1
 30
0.0
 40
1.800000000000024
100
AcDbArc
 50
90.0
 51
167.4999999999996
  0
ARC
  5
329
330
1F
100
AcDbEntity
  8
1
  6
CONTINUOUS
 62
     7
100
AcDbCircle
 10
-659.70357011533
 20
271.1
 30
0.0
 40
1.8000000000001
100
AcDbArc
 50
12.49999999999942
 51
89.99999999999926
  0
ARC
  5
32A
330
1F
100
AcDbEntity
  8
1
  6
CONTINUOUS
 62
     7
100
AcDbCircle
 10
-712.5035701153299
 20
381.7
 30
0.0
 40
1.800000000000024
100
AcDbArc
 50
270.0
 51
347.5000000000002
  0
ARC
  5
32B
330
1F
100
AcDbEntity
  8
1
  6
CONTINUOUS
 62
     7
100
AcDbCircle
 10
-584.6935927458816
 20
381.7
 30
0.0
 40
1.8000000000001
100
AcDbArc
 50
192.4999999999994
 51
269.999999999999
  0
ARC
  5
32C
330
1F
100
AcDbEntity
  8
1
  6
CONTINUOUS
 62
     7
100
AcDbCircle
 10
-580.5035701153298
 20
381.7
 30
0.0
 40
1.800000000000024
100
AcDbArc
 50
270.0
 51
347.4999999999992
  0
ARC
  5
32D
330
1F
100
AcDbEntity
  8
1
  6
CONTINUOUS
 62
     7
100
AcDbCircle
 10
-633.3035701153298
 20
381.7
 30
0.0
 40
1.800000000000024
100
AcDbArc
 50
270.0
 51
347.4999999999994
  0
ARC
  5
32E
330
1F
100
AcDbEntity
  8
1
  6
CONTINUOUS
 62
     7
100
AcDbCircle
 10
-686.10357011533
 20
381.7
 30
0.0
 40
1.800000000000024
100
AcDbArc
 50
270.0
 51
347.4999999999998
  0
LINE
  5
32F
330
1F
100
AcDbEntity
  8
1
  6
CONTINUOUS
 62
     7
100
AcDbLine
 10
-448.50357011533
 20
272.9
 30
0.0
 11
-452.6935927458817
 21
272.9
 31
0.0
  0
LINE
  5
330
330
1F
100
AcDbEntity
  8
1
  6
CONTINUOUS
 62
     7
100
AcDbLine
 10
-631.546237302514
 20
381.3104086949112
 30
0.0
 11
-629.9274254867411
 21
388.6123969181469
 31
0.0
  0
ARC
  5
331
330
1F
100
AcDbEntity
  8
1
  6
CONTINUOUS
 62
     7
100
AcDbCircle
 10
-531.8935927458816
 20
381.7
 30
0.0
 40
1.8000000000001
100
AcDbArc
 50
192.4999999999994
 51
269.9999999999997
  0
ARC
  5
332
330
1F
100
AcDbEntity
  8
1
  6
CONTINUOUS
 62
     7
100
AcDbCircle
 10
-663.8935927458817
 20
381.7
 30
0.0
 40
1.799999999999991
100
AcDbArc
 50
192.5000000000001
 51
270.0000000000007
  0
ARC
  5
333
330
1F
100
AcDbEntity
  8
1
  6
CONTINUOUS
 62
     7
100
AcDbCircle
 10
-712.5035701153299
 20
271.1
 30
0.0
 40
1.799999999999991
100
AcDbArc
 50
12.50000000000015
 51
90.00000000000021
  0
ARC
  5
334
330
1F
100
AcDbEntity
  8
1
  6
CONTINUOUS
 62
     7
100
AcDbCircle
 10
-633.3035701153298
 20
271.1
 30
0.0
 40
1.799999999999883
100
AcDbArc
 50
12.50000000000091
 51
90.00000000000034
  0
ARC
  5
335
330
1F
100
AcDbEntity
  8
1
  6
CONTINUOUS
 62
     7
100
AcDbCircle
 10
-690.2935927458816
 20
271.1
 30
0.0
 40
1.800000000000024
100
AcDbArc
 50
90.0
 51
167.5000000000005
  0
ARC
  5
336
330
1F
100
AcDbEntity
  8
1
  6
CONTINUOUS
 62
     7
100
AcDbCircle
 10
-844.5035701153299
 20
271.1
 30
0.0
 40
1.799999999999991
100
AcDbArc
 50
12.50000000000015
 51
90.00000000000021
  0
ARC
  5
337
330
1F
100
AcDbEntity
  8
1
  6
CONTINUOUS
 62
     7
100
AcDbCircle
 10
-690.2935927458816
 20
381.7
 30
0.0
 40
1.799999999999991
100
AcDbArc
 50
192.5000000000001
 51
270.0000000000007
  0
LINE
  5
338
330
1F
100
AcDbEntity
  8
1
  6
CONTINUOUS
 62
     7
100
AcDbLine
 10
-605.146237302514
 20
381.3104086949117
 30
0.0
 11
-603.5274254867412
 21
388.6123969181469
 31
0.0
  0
ARC
  5
339
330
1F
100
AcDbEntity
  8
1
  6
CONTINUOUS
 62
     7
100
AcDbCircle
 10
-580.5035701153298
 20
271.1
 30
0.0
 40
1.799999999999883
100
AcDbArc
 50
12.50000000000091
 51
90.00000000000011
  0
ARC
  5
33A
330
1F
100
AcDbEntity
  8
1
  6
CONTINUOUS
 62
     7
100
AcDbCircle
 10
-743.0935927458817
 20
381.7
 30
0.0
 40
1.799999999999991
100
AcDbArc
 50
192.5000000000001
 51
270.0000000000005
  0
LINE
  5
33B
330
1F
100
AcDbEntity
  8
1
  6
CONTINUOUS
 62
     7
100
AcDbLine
 10
-720.0697373744704
 20
388.6123969181467
 30
0.0
 11
-718.4509255586976
 21
381.3104086949116
 31
0.0
  0
ARC
  5
33C
330
1F
100
AcDbEntity
  8
1
  6
CONTINUOUS
 62
     7
100
AcDbCircle
 10
-663.8935927458817
 20
271.1
 30
0.0
 40
1.800000000000024
100
AcDbArc
 50
90.0
 51
167.5000000000005
  0
ARC
  5
33D
330
1F
100
AcDbEntity
  8
1
  6
CONTINUOUS
 62
     7
100
AcDbCircle
 10
-558.2935927458816
 20
271.1
 30
0.0
 40
1.800000000000024
100
AcDbArc
 50
90.0
 51
167.5000000000003
  0
LINE
  5
33E
330
1F
100
AcDbEntity
  8
1
  6
CONTINUOUS
 62
     7
100
AcDbLine
 10
-577.1274254867411
 20
264.1876030818532
 30
0.0
 11
-578.746237302514
 21
271.4895913050888
 31
0.0
  0
ARC
  5
33F
330
1F
100
AcDbEntity
  8
1
  6
CONTINUOUS
 62
     7
100
AcDbCircle
 10
-606.9035701153298
 20
381.7
 30
0.0
 40
1.800000000000024
100
AcDbArc
 50
270.0
 51
347.5000000000002
  0
ARC
  5
340
330
1F
100
AcDbEntity
  8
1
  6
CONTINUOUS
 62
     7
100
AcDbCircle
 10
-795.8935927458816
 20
271.1
 30
0.0
 40
1.800000000000024
100
AcDbArc
 50
90.0
 51
167.4999999999998
  0
ARC
  5
341
330
1F
100
AcDbEntity
  8
1
  6
CONTINUOUS
 62
     7
100
AcDbCircle
 10
-448.50357011533
 20
381.7
 30
0.0
 40
1.800000000000024
100
AcDbArc
 50
270.0
 51
347.4999999999998
  0
ARC
  5
342
330
1F
100
AcDbEntity
  8
1
  6
CONTINUOUS
 62
     7
100
AcDbCircle
 10
-637.4935927458815
 20
381.7
 30
0.0
 40
1.8000000000001
100
AcDbArc
 50
192.4999999999994
 51
270.0000000000001
  0
ARC
  5
343
330
1F
100
AcDbEntity
  8
1
  6
CONTINUOUS
 62
     7
100
AcDbCircle
 10
-554.1035701153298
 20
381.7
 30
0.0
 40
1.800000000000024
100
AcDbArc
 50
270.0
 51
347.4999999999998
  0
ARC
  5
344
330
1F
100
AcDbEntity
  8
1
  6
CONTINUOUS
 62
     7
100
AcDbCircle
 10
-611.0935927458816
 20
271.1
 30
0.0
 40
1.800000000000024
100
AcDbArc
 50
90.0
 51
167.4999999999996
  0
LINE
  5
345
330
1F
100
AcDbEntity
  8
1
  6
CONTINUOUS
 62
     7
100
AcDbLine
 10
-656.327425486741
 20
264.1876030818532
 30
0.0
 11
-657.946237302514
 21
271.4895913050888
 31
0.0
  0
ARC
  5
346
330
1F
100
AcDbEntity
  8
1
  6
CONTINUOUS
 62
     7
100
AcDbCircle
 10
-738.9035701153299
 20
271.1
 30
0.0
 40
1.799999999999991
100
AcDbArc
 50
12.50000000000015
 51
90.00000000000021
  0
ARC
  5
347
330
1F
100
AcDbEntity
  8
1
  6
CONTINUOUS
 62
     7
100
AcDbCircle
 10
-474.90357011533
 20
271.1
 30
0.0
 40
1.799999999999991
100
AcDbArc
 50
12.50000000000015
 51
89.99999999999999
  0
ARC
  5
348
330
1F
100
AcDbEntity
  8
1
  6
CONTINUOUS
 62
     7
100
AcDbCircle
 10
-399.8935927458817
 20
381.7
 30
0.0
 40
1.799999999999991
100
AcDbArc
 50
192.5000000000001
 51
269.9999999999998
  0
LINE
  5
349
330
1F
100
AcDbEntity
  8
1
  6
CONTINUOUS
 62
     7
100
AcDbLine
 10
-718.4509255586976
 20
271.4895913050883
 30
0.0
 11
-720.0697373744704
 21
264.1876030818532
 31
0.0
  0
ARC
  5
34A
330
1F
100
AcDbEntity
  8
1
  6
CONTINUOUS
 62
     7
100
AcDbCircle
 10
-558.2935927458816
 20
381.7
 30
0.0
 40
1.8000000000001
100
AcDbArc
 50
192.4999999999994
 51
269.9999999999997
  0
ARC
  5
34B
330
1F
100
AcDbEntity
  8
1
  6
CONTINUOUS
 62
     7
100
AcDbCircle
 10
-818.10357011533
 20
271.1
 30
0.0
 40
1.799999999999991
100
AcDbArc
 50
12.50000000000015
 51
90.00000000000021
  0
LINE
  5
34C
330
1F
100
AcDbEntity
  8
1
  6
CONTINUOUS
 62
     7
100
AcDbLine
 10
-452.6935927458817
 20
379.9
 30
0.0
 11
-448.50357011533
 21
379.9
 31
0.0
  0
ARC
  5
34D
330
1F
100
AcDbEntity
  8
1
  6
CONTINUOUS
 62
     7
100
AcDbCircle
 10
-769.4935927458816
 20
381.7
 30
0.0
 40
1.799999999999991
100
AcDbArc
 50
192.5000000000001
 51
270.0000000000005
  0
LINE
  5
34E
330
1F
100
AcDbEntity
  8
1
  6
CONTINUOUS
 62
     7
100
AcDbLine
 10
-709.1274254867411
 20
264.187603081853
 30
0.0
 11
-710.746237302514
 21
271.4895913050887
 31
0.0
  0
LINE
  5
34F
330
1F
100
AcDbEntity
  8
1
  6
CONTINUOUS
 62
     7
100
AcDbLine
 10
-586.4509255586976
 20
271.4895913050883
 30
0.0
 11
-588.0697373744704
 21
264.1876030818532
 31
0.0
  0
LINE
  5
350
330
1F
100
AcDbEntity
  8
1
  6
CONTINUOUS
 62
     7
100
AcDbLine
 10
-789.946237302514
 20
381.3104086949114
 30
0.0
 11
-788.3274254867412
 21
388.6123969181468
 31
0.0
  0
ARC
  5
351
330
1F
100
AcDbEntity
  8
1
  6
CONTINUOUS
 62
     7
100
AcDbCircle
 10
-870.9035701153299
 20
271.1
 30
0.0
 40
1.799999999999991
100
AcDbArc
 50
12.50000000000015
 51
90.00000000000043
  0
ARC
  5
352
330
1F
100
AcDbEntity
  8
1
  6
CONTINUOUS
 62
     7
100
AcDbCircle
 10
-637.4935927458815
 20
271.1
 30
0.0
 40
1.800000000000024
100
AcDbArc
 50
90.0
 51
167.5000000000007
  0
LINE
  5
353
330
1F
100
AcDbEntity
  8
1
  6
CONTINUOUS
 62
     7
100
AcDbLine
 10
-479.0935927458817
 20
379.9
 30
0.0
 11
-474.90357011533
 21
379.9
 31
0.0
  0
LINE
  5
354
330
1F
100
AcDbEntity
  8
1
  6
CONTINUOUS
 62
   253
100
AcDbLine
 10
-716.6935927458816
 20
379.9
 30
0.0
 11
-716.6935927458816
 21
272.9
 31
0.0
  0
LINE
  5
355
330
1F
100
AcDbEntity
  8
1
  6
CONTINUOUS
 62
     7
100
AcDbLine
 10
-633.3035701153298
 20
272.9
 30
0.0
 11
-637.4935927458815
 21
272.9
 31
0.0
  0
LINE
  5
356
330
1F
100
AcDbEntity
  8
1
  6
CONTINUOUS
 62
     7
100
AcDbLine
 10
-716.6935927458816
 20
379.9
 30
0.0
 11
-712.5035701153299
 21
379.9
 31
0.0
  0
LINE
  5
357
330
1F
100
AcDbEntity
  8
1
  6
CONTINUOUS
 62
     7
100
AcDbLine
 10
-870.9035701153299
 20
272.9
 30
0.0
 11
-875.0935927458816
 21
272.9
 31
0.0
  0
LINE
  5
358
330
1F
100
AcDbEntity
  8
1
  6
CONTINUOUS
 62
     7
100
AcDbLine
 10
-765.3035701153299
 20
272.9
 30
0.0
 11
-769.4935927458816
 21
272.9
 31
0.0
  0
LINE
  5
359
330
1F
100
AcDbEntity
  8
1
  6
CONTINUOUS
 62
     7
100
AcDbLine
 10
-738.9035701153299
 20
272.9
 30
0.0
 11
-743.0935927458817
 21
272.9
 31
0.0
  0
LINE
  5
35A
330
1F
100
AcDbEntity
  8
1
  6
CONTINUOUS
 62
     7
100
AcDbLine
 10
-795.8935927458816
 20
379.9
 30
0.0
 11
-791.7035701153299
 21
379.9
 31
0.0
  0
ARC
  5
35B
330
1F
100
AcDbEntity
  8
1
  6
CONTINUOUS
 62
     7
100
AcDbCircle
 10
-716.6935927458816
 20
271.1
 30
0.0
 40
1.800000000000024
100
AcDbArc
 50
90.0
 51
167.5000000000005
  0
ARC
  5
35C
330
1F
100
AcDbEntity
  8
1
  6
CONTINUOUS
 62
     7
100
AcDbCircle
 10
-448.50357011533
 20
271.1
 30
0.0
 40
1.799999999999991
100
AcDbArc
 50
12.50000000000015
 51
89.99999999999999
  0
ARC
  5
35D
330
1F
100
AcDbEntity
  8
1
  6
CONTINUOUS
 62
     7
100
AcDbCircle
 10
-822.2935927458816
 20
381.7
 30
0.0
 40
1.799999999999991
100
AcDbArc
 50
192.5000000000001
 51
270.0000000000002
  0
LINE
  5
35E
330
1F
100
AcDbEntity
  8
1
  6
CONTINUOUS
 62
   253
100
AcDbLine
 10
-791.7035701153299
 20
379.9
 30
0.0
 11
-791.7035701153299
 21
272.9
 31
0.0
  0
LINE
  5
35F
330
1F
100
AcDbEntity
  8
1
  6
CONTINUOUS
 62
   253
100
AcDbLine
 10
-769.4935927458816
 20
272.9
 30
0.0
 11
-769.4935927458816
 21
379.9
 31
0.0
  0
LINE
  5
360
330
1F
100
AcDbEntity
  8
1
  6
CONTINUOUS
 62
     7
100
AcDbLine
 10
-580.5035701153298
 20
272.9
 30
0.0
 11
-584.6935927458816
 21
272.9
 31
0.0
  0
ARC
  5
361
330
1F
100
AcDbEntity
  8
1
  6
CONTINUOUS
 62
     7
100
AcDbCircle
 10
-716.6935927458816
 20
381.7
 30
0.0
 40
1.799999999999991
100
AcDbArc
 50
192.5000000000001
 51
270.0000000000007
  0
LINE
  5
362
330
1F
100
AcDbEntity
  8
1
  6
CONTINUOUS
 62
     7
100
AcDbLine
 10
-663.8935927458817
 20
379.9
 30
0.0
 11
-659.70357011533
 21
379.9
 31
0.0
  0
LINE
  5
363
330
1F
100
AcDbEntity
  8
1
  6
CONTINUOUS
 62
   253
100
AcDbLine
 10
-795.8935927458816
 20
379.9
 30
0.0
 11
-795.8935927458816
 21
272.9
 31
0.0
  0
LINE
  5
364
330
1F
100
AcDbEntity
  8
1
  6
CONTINUOUS
 62
     7
100
AcDbLine
 10
-584.6935927458816
 20
379.9
 30
0.0
 11
-580.5035701153298
 21
379.9
 31
0.0
  0
LINE
  5
365
330
1F
100
AcDbEntity
  8
1
  6
CONTINUOUS
 62
   253
100
AcDbLine
 10
-848.6935927458817
 20
272.9
 30
0.0
 11
-848.6935927458817
 21
379.9
 31
0.0
  0
LINE
  5
366
330
1F
100
AcDbEntity
  8
1
  6
CONTINUOUS
 62
     7
100
AcDbLine
 10
-690.2935927458816
 20
379.9
 30
0.0
 11
-686.10357011533
 21
379.9
 31
0.0
  0
LINE
  5
367
330
1F
100
AcDbEntity
  8
1
  6
CONTINUOUS
 62
   253
100
AcDbLine
 10
-690.2935927458816
 20
379.9
 30
0.0
 11
-690.2935927458816
 21
272.9
 31
0.0
  0
LINE
  5
368
330
1F
100
AcDbEntity
  8
1
  6
CONTINUOUS
 62
     7
100
AcDbLine
 10
-531.8935927458816
 20
379.9
 30
0.0
 11
-527.7035701153299
 21
379.9
 31
0.0
  0
ARC
  5
369
330
1F
100
AcDbEntity
  8
1
  6
CONTINUOUS
 62
     7
100
AcDbCircle
 10
-791.7035701153299
 20
271.1
 30
0.0
 40
1.799999999999991
100
AcDbArc
 50
12.50000000000015
 51
89.99999999999999
  0
LINE
  5
36A
330
1F
100
AcDbEntity
  8
1
  6
CONTINUOUS
 62
   253
100
AcDbLine
 10
-686.10357011533
 20
379.9
 30
0.0
 11
-686.10357011533
 21
272.9
 31
0.0
  0
LINE
  5
36B
330
1F
100
AcDbEntity
  8
1
  6
CONTINUOUS
 62
     7
100
AcDbLine
 10
-844.5035701153299
 20
272.9
 30
0.0
 11
-848.6935927458817
 21
272.9
 31
0.0
  0
LINE
  5
36C
330
1F
100
AcDbEntity
  8
1
  6
CONTINUOUS
 62
     7
100
AcDbLine
 10
-712.5035701153299
 20
272.9
 30
0.0
 11
-716.6935927458816
 21
272.9
 31
0.0
  0
LINE
  5
36D
330
1F
100
AcDbEntity
  8
1
  6
CONTINUOUS
 62
     7
100
AcDbLine
 10
-399.8935927458817
 20
379.9
 30
0.0
 11
-395.7035701153299
 21
379.9
 31
0.0
  0
ARC
  5
36E
330
1F
100
AcDbEntity
  8
1
  6
CONTINUOUS
 62
     7
100
AcDbCircle
 10
-870.9035701153299
 20
381.7
 30
0.0
 40
1.800000000000024
100
AcDbArc
 50
270.0
 51
347.5000000000003
  0
ARC
  5
36F
330
1F
100
AcDbEntity
  8
1
  6
CONTINUOUS
 62
     7
100
AcDbCircle
 10
-791.7035701153299
 20
381.7
 30
0.0
 40
1.800000000000024
100
AcDbArc
 50
270.0
 51
347.4999999999998
  0
LINE
  5
370
330
1F
100
AcDbEntity
  8
1
  6
CONTINUOUS
 62
     7
100
AcDbLine
 10
-554.1035701153298
 20
272.9
 30
0.0
 11
-558.2935927458816
 21
272.9
 31
0.0
  0
LINE
  5
371
330
1F
100
AcDbEntity
  8
1
  6
CONTINUOUS
 62
     7
100
AcDbLine
 10
-822.2935927458816
 20
379.9
 30
0.0
 11
-818.1035701153298
 21
379.9
 31
0.0
  0
LINE
  5
372
330
1F
100
AcDbEntity
  8
1
  6
CONTINUOUS
 62
   253
100
AcDbLine
 10
-765.3035701153299
 20
379.9
 30
0.0
 11
-765.3035701153299
 21
272.9
 31
0.0
  0
LINE
  5
373
330
1F
100
AcDbEntity
  8
1
  6
CONTINUOUS
 62
     7
100
AcDbLine
 10
-371.3985814306058
 20
379.9
 30
0.0
 11
-371.3985814306058
 21
272.9
 31
0.0
  0
LINE
  5
374
330
1F
100
AcDbEntity
  8
1
  6
CONTINUOUS
 62
     7
100
AcDbLine
 10
-686.10357011533
 20
272.9
 30
0.0
 11
-690.2935927458816
 21
272.9
 31
0.0
  0
LINE
  5
375
330
1F
100
AcDbEntity
  8
1
  6
CONTINUOUS
 62
     7
100
AcDbLine
 10
-558.2935927458816
 20
379.9
 30
0.0
 11
-554.1035701153298
 21
379.9
 31
0.0
  0
ARC
  5
376
330
1F
100
AcDbEntity
  8
1
  6
CONTINUOUS
 62
     7
100
AcDbCircle
 10
-818.10357011533
 20
381.7
 30
0.0
 40
1.800000000000024
100
AcDbArc
 50
270.0
 51
347.5000000000002
  0
ARC
  5
377
330
1F
100
AcDbEntity
  8
1
  6
CONTINUOUS
 62
     7
100
AcDbCircle
 10
-795.8935927458816
 20
381.7
 30
0.0
 40
1.799999999999991
100
AcDbArc
 50
192.5000000000001
 51
270.0
  0
LINE
  5
378
330
1F
100
AcDbEntity
  8
1
  6
CONTINUOUS
 62
     7
100
AcDbLine
 10
-875.0935927458816
 20
379.9
 30
0.0
 11
-870.9035701153298
 21
379.9
 31
0.0
  0
ARC
  5
379
330
1F
100
AcDbEntity
  8
1
  6
CONTINUOUS
 62
     7
100
AcDbCircle
 10
-659.70357011533
 20
381.7
 30
0.0
 40
1.800000000000024
100
AcDbArc
 50
270.0
 51
347.4999999999998
  0
LINE
  5
37A
330
1F
100
AcDbEntity
  8
1
  6
CONTINUOUS
 62
     7
100
AcDbLine
 10
-422.1035701153299
 20
272.9
 30
0.0
 11
-426.2935927458818
 21
272.9
 31
0.0
  0
ARC
  5
37B
330
1F
100
AcDbEntity
  8
1
  6
CONTINUOUS
 62
     7
100
AcDbCircle
 10
-743.0935927458817
 20
271.1
 30
0.0
 40
1.800000000000024
100
AcDbArc
 50
90.0
 51
167.5000000000003
  0
ARC
  5
37C
330
1F
100
AcDbEntity
  8
1
  6
CONTINUOUS
 62
     7
100
AcDbCircle
 10
-527.7035701153299
 20
271.1
 30
0.0
 40
1.799999999999883
100
AcDbArc
 50
12.50000000000091
 51
90.00000000000098
  0
LINE
  5
37D
330
1F
100
AcDbEntity
  8
1
  6
CONTINUOUS
 62
     7
100
AcDbLine
 10
-426.2935927458818
 20
379.9
 30
0.0
 11
-422.1035701153299
 21
379.9
 31
0.0
  0
ARC
  5
37E
330
1F
100
AcDbEntity
  8
1
  6
CONTINUOUS
 62
     7
100
AcDbCircle
 10
-848.6935927458817
 20
271.1
 30
0.0
 40
1.800000000000024
100
AcDbArc
 50
90.0
 51
167.5000000000003
  0
LINE
  5
37F
330
1F
100
AcDbEntity
  8
1
  6
CONTINUOUS
 62
     7
100
AcDbLine
 10
-505.4935927458817
 20
379.9
 30
0.0
 11
-501.3035701153299
 21
379.9
 31
0.0
  0
LINE
  5
380
330
1F
100
AcDbEntity
  8
1
  6
CONTINUOUS
 62
     7
100
AcDbLine
 10
-474.90357011533
 20
272.9
 30
0.0
 11
-479.0935927458817
 21
272.9
 31
0.0
  0
LINE
  5
381
330
1F
100
AcDbEntity
  8
1
  6
CONTINUOUS
 62
     7
100
AcDbLine
 10
-606.9035701153298
 20
272.9
 30
0.0
 11
-611.0935927458816
 21
272.9
 31
0.0
  0
LINE
  5
382
330
1F
100
AcDbEntity
  8
1
  6
CONTINUOUS
 62
     7
100
AcDbLine
 10
-501.3035701153299
 20
272.9
 30
0.0
 11
-505.4935927458817
 21
272.9
 31
0.0
  0
LINE
  5
383
330
1F
100
AcDbEntity
  8
1
  6
CONTINUOUS
 62
     7
100
AcDbLine
 10
-769.4935927458816
 20
379.9
 30
0.0
 11
-765.3035701153299
 21
379.9
 31
0.0
  0
LINE
  5
384
330
1F
100
AcDbEntity
  8
1
  6
CONTINUOUS
 62
     7
100
AcDbLine
 10
-818.10357011533
 20
272.9
 30
0.0
 11
-822.2935927458816
 21
272.9
 31
0.0
  0
LINE
  5
385
330
1F
100
AcDbEntity
  8
1
  6
CONTINUOUS
 62
   253
100
AcDbLine
 10
-844.5035701153299
 20
272.9
 30
0.0
 11
-844.5035701153299
 21
379.9
 31
0.0
  0
ARC
  5
386
330
1F
100
AcDbEntity
  8
1
  6
CONTINUOUS
 62
     7
100
AcDbCircle
 10
-844.5035701153299
 20
381.7
 30
0.0
 40
1.800000000000024
100
AcDbArc
 50
270.0
 51
347.5000000000002
  0
LINE
  5
387
330
1F
100
AcDbEntity
  8
1
  6
CONTINUOUS
 62
     7
100
AcDbLine
 10
-848.6935927458817
 20
379.9
 30
0.0
 11
-844.5035701153299
 21
379.9
 31
0.0
  0
LINE
  5
388
330
1F
100
AcDbEntity
  8
1
  6
CONTINUOUS
 62
     7
100
AcDbLine
 10
-743.0935927458817
 20
379.9
 30
0.0
 11
-738.9035701153299
 21
379.9
 31
0.0
  0
LINE
  5
389
330
1F
100
AcDbEntity
  8
1
  6
CONTINUOUS
 62
   253
100
AcDbLine
 10
-818.10357011533
 20
272.9
 30
0.0
 11
-818.10357011533
 21
379.9
 31
0.0
  0
ARC
  5
38A
330
1F
100
AcDbEntity
  8
1
  6
CONTINUOUS
 62
     7
100
AcDbCircle
 10
-822.2935927458816
 20
271.1
 30
0.0
 40
1.800000000000024
100
AcDbArc
 50
90.0
 51
167.5000000000001
  0
ARC
  5
38B
330
1F
100
AcDbEntity
  8
1
  6
CONTINUOUS
 62
     7
100
AcDbCircle
 10
-527.7035701153299
 20
381.7
 30
0.0
 40
1.800000000000024
100
AcDbArc
 50
270.0
 51
347.5000000000002
  0
LINE
  5
38C
330
1F
100
AcDbEntity
  8
1
  6
CONTINUOUS
 62
     7
100
AcDbLine
 10
-395.7035701153299
 20
272.9
 30
0.0
 11
-399.8935927458817
 21
272.9
 31
0.0
  0
LINE
  5
38D
330
1F
100
AcDbEntity
  8
1
  6
CONTINUOUS
 62
     7
100
AcDbLine
 10
-637.4935927458815
 20
379.9
 30
0.0
 11
-633.3035701153298
 21
379.9
 31
0.0
  0
LINE
  5
38E
330
1F
100
AcDbEntity
  8
1
  6
CONTINUOUS
 62
   253
100
AcDbLine
 10
-870.9035701153299
 20
379.9
 30
0.0
 11
-870.9035701153299
 21
272.9
 31
0.0
  0
LINE
  5
38F
330
1F
100
AcDbEntity
  8
1
  6
CONTINUOUS
 62
     7
100
AcDbLine
 10
-659.70357011533
 20
272.9
 30
0.0
 11
-663.8935927458817
 21
272.9
 31
0.0
  0
ARC
  5
390
330
1F
100
AcDbEntity
  8
1
  6
CONTINUOUS
 62
     7
100
AcDbCircle
 10
-765.3035701153299
 20
381.7
 30
0.0
 40
1.800000000000024
100
AcDbArc
 50
270.0
 51
347.5000000000003
  0
LINE
  5
391
330
1F
100
AcDbEntity
  8
1
  6
CONTINUOUS
 62
   253
100
AcDbLine
 10
-761.9274254867412
 20
388.6123969181465
 30
0.0
 11
-761.9274254867412
 21
264.1876030818534
 31
0.0
  0
LINE
  5
392
330
1F
100
AcDbEntity
  8
1
  6
CONTINUOUS
 62
   253
100
AcDbLine
 10
-403.2697373744705
 20
388.6123969181465
 30
0.0
 11
-403.2697373744705
 21
264.1876030818534
 31
0.0
  0
LINE
  5
393
330
1F
100
AcDbEntity
  8
1
  6
CONTINUOUS
 62
   253
100
AcDbLine
 10
-825.6697373744704
 20
388.6123969181465
 30
0.0
 11
-825.6697373744704
 21
264.1876030818534
 31
0.0
  0
LINE
  5
394
330
1F
100
AcDbEntity
  8
1
  6
CONTINUOUS
 62
   253
100
AcDbLine
 10
-395.7035701153299
 20
272.9
 30
0.0
 11
-395.7035701153299
 21
379.9
 31
0.0
  0
LINE
  5
395
330
1F
100
AcDbEntity
  8
1
  6
CONTINUOUS
 62
   253
100
AcDbLine
 10
-682.7274254867411
 20
388.6123969181465
 30
0.0
 11
-682.7274254867411
 21
264.1876030818534
 31
0.0
  0
LINE
  5
396
330
1F
100
AcDbEntity
  8
1
  6
CONTINUOUS
 62
   253
100
AcDbLine
 10
-580.5035701153298
 20
379.9
 30
0.0
 11
-580.5035701153298
 21
272.9
 31
0.0
  0
LINE
  5
397
330
1F
100
AcDbEntity
  8
1
  6
CONTINUOUS
 62
   253
100
AcDbLine
 10
-479.0935927458817
 20
379.9
 30
0.0
 11
-479.0935927458817
 21
272.9
 31
0.0
  0
LINE
  5
398
330
1F
100
AcDbEntity
  8
1
  6
CONTINUOUS
 62
   253
100
AcDbLine
 10
-505.4935927458817
 20
379.9
 30
0.0
 11
-505.4935927458817
 21
272.9
 31
0.0
  0
LINE
  5
399
330
1F
100
AcDbEntity
  8
1
  6
CONTINUOUS
 62
   253
100
AcDbLine
 10
-452.6935927458817
 20
272.9
 30
0.0
 11
-452.6935927458817
 21
379.9
 31
0.0
  0
LINE
  5
39A
330
1F
100
AcDbEntity
  8
1
  6
CONTINUOUS
 62
   253
100
AcDbLine
 10
-501.3035701153299
 20
272.9
 30
0.0
 11
-501.3035701153299
 21
379.9
 31
0.0
  0
LINE
  5
39B
330
1F
100
AcDbEntity
  8
1
  6
CONTINUOUS
 62
   253
100
AcDbLine
 10
-508.8697373744704
 20
388.6123969181467
 30
0.0
 11
-508.8697373744704
 21
264.1876030818534
 31
0.0
  0
LINE
  5
39C
330
1F
100
AcDbEntity
  8
1
  6
CONTINUOUS
 62
   253
100
AcDbLine
 10
-712.5035701153299
 20
272.9
 30
0.0
 11
-712.5035701153299
 21
379.9
 31
0.0
  0
LINE
  5
39D
330
1F
100
AcDbEntity
  8
1
  6
CONTINUOUS
 62
   253
100
AcDbLine
 10
-474.90357011533
 20
379.9
 30
0.0
 11
-474.90357011533
 21
272.9
 31
0.0
  0
LINE
  5
39E
330
1F
100
AcDbEntity
  8
1
  6
CONTINUOUS
 62
   253
100
AcDbLine
 10
-482.4697373744705
 20
388.6123969181467
 30
0.0
 11
-482.4697373744705
 21
264.1876030818534
 31
0.0
  0
LINE
  5
39F
330
1F
100
AcDbEntity
  8
1
  6
CONTINUOUS
 62
   253
100
AcDbLine
 10
-606.9035701153298
 20
272.9
 30
0.0
 11
-606.9035701153298
 21
379.9
 31
0.0
  0
LINE
  5
3A0
330
1F
100
AcDbEntity
  8
1
  6
CONTINUOUS
 62
   253
100
AcDbLine
 10
-376.8697373744704
 20
388.6123969181467
 30
0.0
 11
-376.8697373744704
 21
264.1876030818534
 31
0.0
  0
LINE
  5
3A1
330
1F
100
AcDbEntity
  8
1
  6
CONTINUOUS
 62
     7
100
AcDbLine
 10
-791.7035701153299
 20
272.9
 30
0.0
 11
-795.8935927458816
 21
272.9
 31
0.0
  0
LINE
  5
3A2
330
1F
100
AcDbEntity
  8
1
  6
CONTINUOUS
 62
   253
100
AcDbLine
 10
-399.8935927458817
 20
379.9
 30
0.0
 11
-399.8935927458817
 21
272.9
 31
0.0
  0
LINE
  5
3A3
330
1F
100
AcDbEntity
  8
1
  6
CONTINUOUS
 62
   253
100
AcDbLine
 10
-533.6509255586976
 20
381.3104086949114
 30
0.0
 11
-533.6509255586976
 21
271.4895913050885
 31
0.0
  0
LINE
  5
3A4
330
1F
100
AcDbEntity
  8
1
  6
CONTINUOUS
 62
   253
100
AcDbLine
 10
-558.2935927458816
 20
272.9
 30
0.0
 11
-558.2935927458816
 21
379.9
 31
0.0
  0
LINE
  5
3A5
330
1F
100
AcDbEntity
  8
1
  6
CONTINUOUS
 62
     7
100
AcDbLine
 10
-527.7035701153299
 20
272.9
 30
0.0
 11
-531.8935927458816
 21
272.9
 31
0.0
  0
LINE
  5
3A6
330
1F
100
AcDbEntity
  8
1
  6
CONTINUOUS
 62
   253
100
AcDbLine
 10
-633.3035701153298
 20
272.9
 30
0.0
 11
-633.3035701153298
 21
379.9
 31
0.0
  0
LINE
  5
3A7
330
1F
100
AcDbEntity
  8
1
  6
CONTINUOUS
 62
   253
100
AcDbLine
 10
-799.2697373744704
 20
388.6123969181465
 30
0.0
 11
-799.2697373744704
 21
264.1876030818534
 31
0.0
  0
LINE
  5
3A8
330
1F
100
AcDbEntity
  8
1
  6
CONTINUOUS
 62
   253
100
AcDbLine
 10
-842.746237302514
 20
381.3104086949114
 30
0.0
 11
-842.746237302514
 21
271.4895913050885
 31
0.0
  0
LINE
  5
3A9
330
1F
100
AcDbEntity
  8
1
  6
CONTINUOUS
 62
   253
100
AcDbLine
 10
-448.50357011533
 20
379.9
 30
0.0
 11
-448.50357011533
 21
272.9
 31
0.0
  0
LINE
  5
3AA
330
1F
100
AcDbEntity
  8
1
  6
CONTINUOUS
 62
   253
100
AcDbLine
 10
-663.8935927458817
 20
272.9
 30
0.0
 11
-663.8935927458817
 21
379.9
 31
0.0
  0
LINE
  5
3AB
330
1F
100
AcDbEntity
  8
1
  6
CONTINUOUS
 62
   253
100
AcDbLine
 10
-531.8935927458816
 20
272.9
 30
0.0
 11
-531.8935927458816
 21
379.9
 31
0.0
  0
LINE
  5
3AC
330
1F
100
AcDbEntity
  8
1
  6
CONTINUOUS
 62
   253
100
AcDbLine
 10
-525.9462373025141
 20
381.3104086949114
 30
0.0
 11
-525.9462373025141
 21
271.4895913050885
 31
0.0
  0
LINE
  5
3AD
330
1F
100
AcDbEntity
  8
1
  6
CONTINUOUS
 62
   253
100
AcDbLine
 10
-445.1274254867413
 20
388.6123969181465
 30
0.0
 11
-445.1274254867413
 21
264.1876030818534
 31
0.0
  0
LINE
  5
3AE
330
1F
100
AcDbEntity
  8
1
  6
CONTINUOUS
 62
   253
100
AcDbLine
 10
-710.746237302514
 20
381.3104086949114
 30
0.0
 11
-710.746237302514
 21
271.4895913050885
 31
0.0
  0
LINE
  5
3AF
330
1F
100
AcDbEntity
  8
1
  6
CONTINUOUS
 62
   253
100
AcDbLine
 10
-426.2935927458818
 20
272.9
 30
0.0
 11
-426.2935927458818
 21
379.9
 31
0.0
  0
LINE
  5
3B0
330
1F
100
AcDbEntity
  8
1
  6
CONTINUOUS
 62
   253
100
AcDbLine
 10
-422.1035701153299
 20
272.9
 30
0.0
 11
-422.1035701153299
 21
379.9
 31
0.0
  0
LINE
  5
3B1
330
1F
100
AcDbEntity
  8
1
  6
CONTINUOUS
 62
   253
100
AcDbLine
 10
-373.4935927458817
 20
379.9
 30
0.0
 11
-373.4935927458817
 21
272.9
 31
0.0
  0
LINE
  5
3B2
330
1F
100
AcDbEntity
  8
1
  6
CONTINUOUS
 62
   253
100
AcDbLine
 10
-471.5274254867413
 20
388.6123969181465
 30
0.0
 11
-471.5274254867413
 21
264.1876030818534
 31
0.0
  0
LINE
  5
3B3
330
1F
100
AcDbEntity
  8
1
  6
CONTINUOUS
 62
   253
100
AcDbLine
 10
-665.6509255586976
 20
381.3104086949114
 30
0.0
 11
-665.6509255586976
 21
271.4895913050885
 31
0.0
  0
LINE
  5
3B4
330
1F
100
AcDbEntity
  8
1
  6
CONTINUOUS
 62
   253
100
AcDbLine
 10
-822.2935927458816
 20
379.9
 30
0.0
 11
-822.2935927458816
 21
272.9
 31
0.0
  0
LINE
  5
3B5
330
1F
100
AcDbEntity
  8
1
  6
CONTINUOUS
 62
   253
100
AcDbLine
 10
-499.546237302514
 20
381.3104086949114
 30
0.0
 11
-499.546237302514
 21
271.4895913050885
 31
0.0
  0
LINE
  5
3B6
330
1F
100
AcDbEntity
  8
1
  6
CONTINUOUS
 62
   253
100
AcDbLine
 10
-850.4509255586976
 20
381.3104086949114
 30
0.0
 11
-850.4509255586976
 21
271.4895913050885
 31
0.0
  0
LINE
  5
3B7
330
1F
100
AcDbEntity
  8
1
  6
CONTINUOUS
 62
   253
100
AcDbLine
 10
-693.6697373744704
 20
388.6123969181465
 30
0.0
 11
-693.6697373744704
 21
264.1876030818534
 31
0.0
  0
LINE
  5
3B8
330
1F
100
AcDbEntity
  8
1
  6
CONTINUOUS
 62
   253
100
AcDbLine
 10
-738.9035701153299
 20
272.9
 30
0.0
 11
-738.9035701153299
 21
379.9
 31
0.0
  0
LINE
  5
3B9
330
1F
100
AcDbEntity
  8
1
  6
CONTINUOUS
 62
   253
100
AcDbLine
 10
-771.2509255586975
 20
381.3104086949114
 30
0.0
 11
-771.2509255586975
 21
271.4895913050885
 31
0.0
  0
LINE
  5
3BA
330
1F
100
AcDbEntity
  8
1
  6
CONTINUOUS
 62
   253
100
AcDbLine
 10
-560.0509255586976
 20
381.3104086949114
 30
0.0
 11
-560.0509255586976
 21
271.4895913050885
 31
0.0
  0
LINE
  5
3BB
330
1F
100
AcDbEntity
  8
1
  6
CONTINUOUS
 62
   253
100
AcDbLine
 10
-614.4697373744702
 20
388.6123969181467
 30
0.0
 11
-614.4697373744702
 21
264.1876030818534
 31
0.0
  0
LINE
  5
3BC
330
1F
100
AcDbEntity
  8
1
  6
CONTINUOUS
 62
   253
100
AcDbLine
 10
-588.0697373744703
 20
388.6123969181467
 30
0.0
 11
-588.0697373744703
 21
264.1876030818534
 31
0.0
  0
LINE
  5
3BD
330
1F
100
AcDbEntity
  8
1
  6
CONTINUOUS
 62
   253
100
AcDbLine
 10
-816.346237302514
 20
381.3104086949114
 30
0.0
 11
-816.346237302514
 21
271.4895913050885
 31
0.0
  0
LINE
  5
3BE
330
1F
100
AcDbEntity
  8
1
  6
CONTINUOUS
 62
   253
100
AcDbLine
 10
-637.4935927458815
 20
272.9
 30
0.0
 11
-637.4935927458815
 21
379.9
 31
0.0
  0
LINE
  5
3BF
330
1F
100
AcDbEntity
  8
1
  6
CONTINUOUS
 62
   253
100
AcDbLine
 10
-743.0935927458817
 20
272.9
 30
0.0
 11
-743.0935927458817
 21
379.9
 31
0.0
  0
LINE
  5
3C0
330
1F
100
AcDbEntity
  8
1
  6
CONTINUOUS
 62
   253
100
AcDbLine
 10
-867.5274254867411
 20
388.6123969181465
 30
0.0
 11
-867.5274254867411
 21
264.1876030818534
 31
0.0
  0
LINE
  5
3C1
330
1F
100
AcDbEntity
  8
1
  6
CONTINUOUS
 62
     7
100
AcDbLine
 10
-373.4935927458817
 20
379.9
 30
0.0
 11
-369.3035701153299
 21
379.9
 31
0.0
  0
LINE
  5
3C2
330
1F
100
AcDbEntity
  8
1
  6
CONTINUOUS
 62
   253
100
AcDbLine
 10
-639.2509255586975
 20
381.3104086949114
 30
0.0
 11
-639.2509255586975
 21
271.4895913050885
 31
0.0
  0
LINE
  5
3C3
330
1F
100
AcDbEntity
  8
1
  6
CONTINUOUS
 62
   253
100
AcDbLine
 10
-659.70357011533
 20
379.9
 30
0.0
 11
-659.70357011533
 21
272.9
 31
0.0
  0
LINE
  5
3C4
330
1F
100
AcDbEntity
  8
1
  6
CONTINUOUS
 62
   253
100
AcDbLine
 10
-428.0509255586975
 20
381.3104086949114
 30
0.0
 11
-428.0509255586975
 21
271.4895913050885
 31
0.0
  0
LINE
  5
3C5
330
1F
100
AcDbEntity
  8
1
  6
CONTINUOUS
 62
   253
100
AcDbLine
 10
-631.546237302514
 20
381.3104086949114
 30
0.0
 11
-631.546237302514
 21
271.4895913050885
 31
0.0
  0
LINE
  5
3C6
330
1F
100
AcDbEntity
  8
1
  6
CONTINUOUS
 62
   253
100
AcDbLine
 10
-577.1274254867411
 20
388.6123969181465
 30
0.0
 11
-577.1274254867411
 21
264.1876030818534
 31
0.0
  0
LINE
  5
3C7
330
1F
100
AcDbEntity
  8
1
  6
CONTINUOUS
 62
     7
100
AcDbLine
 10
-369.3035701153299
 20
272.9
 30
0.0
 11
-373.4935927458817
 21
272.9
 31
0.0
  0
LINE
  5
3C8
330
1F
100
AcDbEntity
  8
1
  6
CONTINUOUS
 62
   253
100
AcDbLine
 10
-656.327425486741
 20
388.6123969181465
 30
0.0
 11
-656.327425486741
 21
264.1876030818534
 31
0.0
  0
LINE
  5
3C9
330
1F
100
AcDbEntity
  8
1
  6
CONTINUOUS
 62
   253
100
AcDbLine
 10
-454.4509255586976
 20
381.3104086949114
 30
0.0
 11
-454.4509255586976
 21
271.4895913050885
 31
0.0
  0
LINE
  5
3CA
330
1F
100
AcDbEntity
  8
1
  6
CONTINUOUS
 62
   253
100
AcDbLine
 10
-584.6935927458816
 20
379.9
 30
0.0
 11
-584.6935927458816
 21
272.9
 31
0.0
  0
LINE
  5
3CB
330
1F
100
AcDbEntity
  8
1
  6
CONTINUOUS
 62
   253
100
AcDbLine
 10
-788.3274254867412
 20
388.6123969181465
 30
0.0
 11
-788.3274254867412
 21
264.1876030818534
 31
0.0
  0
LINE
  5
3CC
330
1F
100
AcDbEntity
  8
1
  6
CONTINUOUS
 62
   253
100
AcDbLine
 10
-744.8509255586976
 20
381.3104086949114
 30
0.0
 11
-744.8509255586976
 21
271.4895913050885
 31
0.0
  0
LINE
  5
3CD
330
1F
100
AcDbEntity
  8
1
  6
CONTINUOUS
 62
     7
100
AcDbLine
 10
-611.0935927458816
 20
379.9
 30
0.0
 11
-606.9035701153298
 21
379.9
 31
0.0
  0
LINE
  5
3CE
330
1F
100
AcDbEntity
  8
1
  6
CONTINUOUS
 62
   253
100
AcDbLine
 10
-554.1035701153298
 20
379.9
 30
0.0
 11
-554.1035701153298
 21
272.9
 31
0.0
  0
LINE
  5
3CF
330
1F
100
AcDbEntity
  8
1
  6
CONTINUOUS
 62
   253
100
AcDbLine
 10
-611.0935927458816
 20
379.9
 30
0.0
 11
-611.0935927458816
 21
272.9
 31
0.0
  0
LINE
  5
3D0
330
1F
100
AcDbEntity
  8
1
  6
CONTINUOUS
 62
   253
100
AcDbLine
 10
-550.7274254867411
 20
388.6123969181465
 30
0.0
 11
-550.7274254867411
 21
264.1876030818534
 31
0.0
  0
LINE
  5
3D1
330
1F
100
AcDbEntity
  8
1
  6
CONTINUOUS
 62
     7
100
AcDbLine
 10
230.3302626255295
 20
264.1876030818535
 30
0.0
 11
231.9490744413023
 21
271.4895913050888
 31
0.0
  0
LINE
  5
3D2
330
1F
100
AcDbEntity
  8
1
  6
CONTINUOUS
 62
     7
100
AcDbLine
 10
54.85376269748589
 20
271.4895913050885
 30
0.0
 11
56.47257451325878
 21
264.1876030818532
 31
0.0
  0
LINE
  5
3D3
330
1F
100
AcDbEntity
  8
1
  6
CONTINUOUS
 62
   253
100
AcDbLine
 10
-643.9967655194458
 20
391.5449538761623
 30
0.0
 11
-643.9967655194458
 21
261.2550461238376
 31
0.0
  0
LINE
  5
3D4
330
1F
100
AcDbEntity
  8
1
  6
CONTINUOUS
 62
   253
100
AcDbLine
 10
-600.4003973417655
 20
391.5449538761623
 30
0.0
 11
-600.4003973417655
 21
261.2550461238376
 31
0.0
  0
LINE
  5
3D5
330
1F
100
AcDbEntity
  8
1
  6
CONTINUOUS
 62
     7
100
AcDbLine
 10
239.6537626974859
 20
271.4895913050886
 30
0.0
 11
241.2725745132587
 21
264.1876030818533
 31
0.0
  0
ARC
  5
3D6
330
1F
100
AcDbEntity
  8
1
  6
CONTINUOUS
 62
     7
100
AcDbCircle
 10
-347.0935927458817
 20
271.1
 30
0.0
 40
1.79999999999999
100
AcDbArc
 50
90.0
 51
167.5
  0
LINE
  5
3D7
330
1F
100
AcDbEntity
  8
1
  6
CONTINUOUS
 62
     7
100
AcDbLine
 10
71.9302626255295
 20
264.1876030818533
 30
0.0
 11
73.5490744413024
 21
271.4895913050887
 31
0.0
  0
LINE
  5
3D8
330
1F
100
AcDbEntity
  8
1
  6
CONTINUOUS
 62
     7
100
AcDbLine
 10
390.3490744413023
 20
381.3104086949114
 30
0.0
 11
388.7302626255294
 21
388.6123969181467
 31
0.0
  0
LINE
  5
3D9
330
1F
100
AcDbEntity
  8
1
  6
CONTINUOUS
 62
     7
100
AcDbLine
 10
214.8725745132587
 20
388.6123969181467
 30
0.0
 11
213.2537626974859
 21
381.3104086949112
 31
0.0
  0
LINE
  5
3DA
330
1F
100
AcDbEntity
  8
1
  6
CONTINUOUS
 62
   253
100
AcDbLine
 10
-855.196765519446
 20
391.5449538761623
 30
0.0
 11
-855.196765519446
 21
261.2550461238376
 31
0.0
  0
LINE
  5
3DB
330
1F
100
AcDbEntity
  8
1
  6
CONTINUOUS
 62
   253
100
AcDbLine
 10
-420.346237302514
 20
381.3104086949114
 30
0.0
 11
-420.346237302514
 21
271.4895913050885
 31
0.0
  0
LINE
  5
3DC
330
1F
100
AcDbEntity
  8
1
  6
CONTINUOUS
 62
   253
100
AcDbLine
 10
-670.3967655194459
 20
391.5449538761623
 30
0.0
 11
-670.3967655194459
 21
261.2550461238376
 31
0.0
  0
LINE
  5
3DD
330
1F
100
AcDbEntity
  8
1
  6
CONTINUOUS
 62
   253
100
AcDbLine
 10
-432.796765519446
 20
391.5449538761623
 30
0.0
 11
-432.796765519446
 21
261.2550461238376
 31
0.0
  0
LINE
  5
3DE
330
1F
100
AcDbEntity
  8
1
  6
CONTINUOUS
 62
   253
100
AcDbLine
 10
-393.946237302514
 20
381.3104086949114
 30
0.0
 11
-393.946237302514
 21
271.4895913050885
 31
0.0
  0
LINE
  5
3DF
330
1F
100
AcDbEntity
  8
1
  6
CONTINUOUS
 62
     7
100
AcDbLine
 10
363.9490744413023
 20
381.3104086949114
 30
0.0
 11
362.3302626255294
 21
388.6123969181468
 31
0.0
  0
LINE
  5
3E0
330
1F
100
AcDbEntity
  8
1
  6
CONTINUOUS
 62
     7
100
AcDbLine
 10
398.601418569394
 20
383.7807246934083
 30
0.0
 11
398.0537626974858
 21
381.3104086949114
 31
0.0
  0
LINE
  5
3E1
330
1F
100
AcDbEntity
  8
1
  6
CONTINUOUS
 62
   253
100
AcDbLine
 10
-564.7967655194459
 20
391.5449538761623
 30
0.0
 11
-564.7967655194459
 21
261.2550461238376
 31
0.0
  0
LINE
  5
3E2
330
1F
100
AcDbEntity
  8
1
  6
CONTINUOUS
 62
     7
100
AcDbLine
 10
124.7302626255295
 20
264.1876030818532
 30
0.0
 11
126.3490744413023
 21
271.4895913050883
 31
0.0
  0
LINE
  5
3E3
330
1F
100
AcDbEntity
  8
1
  6
CONTINUOUS
 62
     7
100
AcDbLine
 10
19.13026262552948
 20
264.1876030818532
 30
0.0
 11
20.74907444130232
 21
271.4895913050883
 31
0.0
  0
LINE
  5
3E4
330
1F
100
AcDbEntity
  8
1
  6
CONTINUOUS
 62
     7
100
AcDbLine
 10
398.0537626974858
 20
271.4895913050885
 30
0.0
 11
398.601418569394
 21
269.0192753065916
 31
0.0
  0
LINE
  5
3E5
330
1F
100
AcDbEntity
  8
1
  6
CONTINUOUS
 62
     7
100
AcDbLine
 10
107.6537626974859
 20
271.4895913050887
 30
0.0
 11
109.2725745132587
 21
264.1876030818535
 31
0.0
  0
LINE
  5
3E6
330
1F
100
AcDbEntity
  8
1
  6
CONTINUOUS
 62
     7
100
AcDbLine
 10
134.0537626974859
 20
271.4895913050887
 30
0.0
 11
135.6725745132588
 21
264.1876030818533
 31
0.0
  0
LINE
  5
3E7
330
1F
100
AcDbEntity
  8
1
  6
CONTINUOUS
 62
   253
100
AcDbLine
 10
-706.0003973417656
 20
391.5449538761623
 30
0.0
 11
-706.0003973417656
 21
261.2550461238376
 31
0.0
  0
LINE
  5
3E8
330
1F
100
AcDbEntity
  8
1
  6
CONTINUOUS
 62
   253
100
AcDbLine
 10
-838.0003973417656
 20
391.5449538761623
 30
0.0
 11
-838.0003973417656
 21
261.2550461238376
 31
0.0
  0
LINE
  5
3E9
330
1F
100
AcDbEntity
  8
1
  6
CONTINUOUS
 62
   253
100
AcDbLine
 10
-459.196765519446
 20
391.5449538761623
 30
0.0
 11
-459.196765519446
 21
261.2550461238376
 31
0.0
  0
LINE
  5
3EA
330
1F
100
AcDbEntity
  8
1
  6
CONTINUOUS
 62
   253
100
AcDbLine
 10
-749.596765519446
 20
391.5449538761623
 30
0.0
 11
-749.596765519446
 21
261.2550461238376
 31
0.0
  0
LINE
  5
3EB
330
1F
100
AcDbEntity
  8
1
  6
CONTINUOUS
 62
     7
100
AcDbLine
 10
294.0725745132587
 20
388.6123969181466
 30
0.0
 11
292.4537626974858
 21
381.3104086949114
 31
0.0
  0
LINE
  5
3EC
330
1F
100
AcDbEntity
  8
1
  6
CONTINUOUS
 62
     7
100
AcDbLine
 10
109.2725745132587
 20
388.6123969181464
 30
0.0
 11
107.6537626974859
 21
381.3104086949112
 31
0.0
  0
LINE
  5
3ED
330
1F
100
AcDbEntity
  8
1
  6
CONTINUOUS
 62
     7
100
AcDbLine
 10
28.45376269748585
 20
271.4895913050887
 30
0.0
 11
30.07257451325874
 21
264.1876030818533
 31
0.0
  0
LINE
  5
3EE
330
1F
100
AcDbEntity
  8
1
  6
CONTINUOUS
 62
     7
100
AcDbLine
 10
-7.269737374470495
 20
264.1876030818535
 30
0.0
 11
-5.650925558697659
 21
271.4895913050887
 31
0.0
  0
LINE
  5
3EF
330
1F
100
AcDbEntity
  8
1
  6
CONTINUOUS
 62
   253
100
AcDbLine
 10
-494.8003973417657
 20
391.5449538761623
 30
0.0
 11
-494.8003973417657
 21
261.2550461238376
 31
0.0
  0
LINE
  5
3F0
330
1F
100
AcDbEntity
  8
1
  6
CONTINUOUS
 62
     7
100
AcDbLine
 10
152.7490744413024
 20
381.3104086949114
 30
0.0
 11
151.1302626255295
 21
388.6123969181468
 31
0.0
  0
LINE
  5
3F1
330
1F
100
AcDbEntity
  8
1
  6
CONTINUOUS
 62
     7
100
AcDbLine
 10
160.4537626974858
 20
271.4895913050885
 30
0.0
 11
162.0725745132587
 21
264.1876030818532
 31
0.0
  0
LINE
  5
3F2
330
1F
100
AcDbEntity
  8
1
  6
CONTINUOUS
 62
     7
100
AcDbLine
 10
98.33026262552953
 20
264.1876030818535
 30
0.0
 11
99.94907444130237
 21
271.4895913050887
 31
0.0
  0
LINE
  5
3F3
330
1F
100
AcDbEntity
  8
1
  6
CONTINUOUS
 62
   253
100
AcDbLine
 10
-737.146237302514
 20
381.3104086949114
 30
0.0
 11
-737.146237302514
 21
271.4895913050885
 31
0.0
  0
LINE
  5
3F4
330
1F
100
AcDbEntity
  8
1
  6
CONTINUOUS
 62
     7
100
AcDbLine
 10
82.87257451325875
 20
388.6123969181467
 30
0.0
 11
81.25376269748593
 21
381.3104086949116
 31
0.0
  0
LINE
  5
3F5
330
1F
100
AcDbEntity
  8
1
  6
CONTINUOUS
 62
     7
100
AcDbLine
 10
177.5302626255294
 20
264.1876030818533
 30
0.0
 11
179.1490744413023
 21
271.4895913050885
 31
0.0
  0
LINE
  5
3F6
330
1F
100
AcDbEntity
  8
1
  6
CONTINUOUS
 62
     7
100
AcDbLine
 10
205.5490744413023
 20
381.3104086949112
 30
0.0
 11
203.9302626255294
 21
388.6123969181467
 31
0.0
  0
LINE
  5
3F7
330
1F
100
AcDbEntity
  8
1
  6
CONTINUOUS
 62
     7
100
AcDbLine
 10
213.2537626974859
 20
271.4895913050887
 30
0.0
 11
214.8725745132587
 21
264.1876030818533
 31
0.0
  0
LINE
  5
3F8
330
1F
100
AcDbEntity
  8
1
  6
CONTINUOUS
 62
   253
100
AcDbLine
 10
-732.4003973417656
 20
391.5449538761623
 30
0.0
 11
-732.4003973417656
 21
261.2550461238376
 31
0.0
  0
LINE
  5
3F9
330
1F
100
AcDbEntity
  8
1
  6
CONTINUOUS
 62
     7
100
AcDbLine
 10
188.4725745132587
 20
388.6123969181465
 30
0.0
 11
186.8537626974858
 21
381.3104086949112
 31
0.0
  0
LINE
  5
3FA
330
1F
100
AcDbEntity
  8
1
  6
CONTINUOUS
 62
   253
100
AcDbLine
 10
-605.146237302514
 20
381.3104086949114
 30
0.0
 11
-605.146237302514
 21
271.4895913050885
 31
0.0
  0
LINE
  5
3FB
330
1F
100
AcDbEntity
  8
1
  6
CONTINUOUS
 62
     7
100
AcDbLine
 10
56.47257451325878
 20
388.6123969181467
 30
0.0
 11
54.85376269748589
 21
381.3104086949114
 31
0.0
  0
LINE
  5
3FC
330
1F
100
AcDbEntity
  8
1
  6
CONTINUOUS
 62
     7
100
AcDbLine
 10
81.25376269748593
 20
271.4895913050883
 30
0.0
 11
82.87257451325875
 21
264.1876030818532
 31
0.0
  0
LINE
  5
3FD
330
1F
100
AcDbEntity
  8
1
  6
CONTINUOUS
 62
   253
100
AcDbLine
 10
-389.2003973417657
 20
391.5449538761623
 30
0.0
 11
-389.2003973417657
 21
261.2550461238376
 31
0.0
  0
LINE
  5
3FE
330
1F
100
AcDbEntity
  8
1
  6
CONTINUOUS
 62
     7
100
AcDbLine
 10
266.0537626974858
 20
271.4895913050885
 30
0.0
 11
267.6725745132587
 21
264.1876030818532
 31
0.0
  0
LINE
  5
3FF
330
1F
100
AcDbEntity
  8
1
  6
CONTINUOUS
 62
     7
100
AcDbLine
 10
179.1490744413023
 20
381.3104086949114
 30
0.0
 11
177.5302626255294
 21
388.6123969181467
 31
0.0
  0
LINE
  5
400
330
1F
100
AcDbEntity
  8
1
  6
CONTINUOUS
 62
     7
100
AcDbLine
 10
256.7302626255295
 20
264.1876030818532
 30
0.0
 11
258.3490744413023
 21
271.4895913050885
 31
0.0
  0
LINE
  5
401
330
1F
100
AcDbEntity
  8
1
  6
CONTINUOUS
 62
   253
100
AcDbLine
 10
-527.7035701153299
 20
272.9
 30
0.0
 11
-527.7035701153299
 21
379.9
 31
0.0
  0
LINE
  5
402
330
1F
100
AcDbEntity
  8
1
  6
CONTINUOUS
 62
   253
100
AcDbLine
 10
-538.3967655194459
 20
391.5449538761623
 30
0.0
 11
-538.3967655194459
 21
261.2550461238376
 31
0.0
  0
LINE
  5
403
330
1F
100
AcDbEntity
  8
1
  6
CONTINUOUS
 62
     7
100
AcDbLine
 10
267.6725745132587
 20
388.6123969181467
 30
0.0
 11
266.0537626974858
 21
381.3104086949114
 31
0.0
  0
LINE
  5
404
330
1F
100
AcDbEntity
  8
1
  6
CONTINUOUS
 62
     7
100
AcDbLine
 10
20.74907444130232
 20
381.3104086949116
 30
0.0
 11
19.13026262552948
 21
388.6123969181467
 31
0.0
  0
LINE
  5
405
330
1F
100
AcDbEntity
  8
1
  6
CONTINUOUS
 62
   253
100
AcDbLine
 10
-720.0697373744704
 20
388.6123969181467
 30
0.0
 11
-720.0697373744704
 21
264.1876030818534
 31
0.0
  0
LINE
  5
406
330
1F
100
AcDbEntity
  8
1
  6
CONTINUOUS
 62
     7
100
AcDbLine
 10
362.3302626255294
 20
264.1876030818532
 30
0.0
 11
363.9490744413023
 21
271.4895913050885
 31
0.0
  0
LINE
  5
407
330
1F
100
AcDbEntity
  8
1
  6
CONTINUOUS
 62
     7
100
AcDbLine
 10
203.9302626255294
 20
264.1876030818533
 30
0.0
 11
205.5490744413023
 21
271.4895913050887
 31
0.0
  0
LINE
  5
408
330
1F
100
AcDbEntity
  8
1
  6
CONTINUOUS
 62
     7
100
AcDbLine
 10
-5.650925558697659
 20
381.3104086949112
 30
0.0
 11
-7.269737374470495
 21
388.6123969181464
 31
0.0
  0
LINE
  5
409
330
1F
100
AcDbEntity
  8
1
  6
CONTINUOUS
 62
     7
100
AcDbLine
 10
45.53026262552946
 20
264.1876030818532
 30
0.0
 11
47.14907444130235
 21
271.4895913050885
 31
0.0
  0
LINE
  5
40A
330
1F
100
AcDbEntity
  8
1
  6
CONTINUOUS
 62
   253
100
AcDbLine
 10
-626.8003973417657
 20
391.5449538761623
 30
0.0
 11
-626.8003973417657
 21
261.2550461238376
 31
0.0
  0
LINE
  5
40B
330
1F
100
AcDbEntity
  8
1
  6
CONTINUOUS
 62
     7
100
AcDbLine
 10
162.0725745132587
 20
388.6123969181467
 30
0.0
 11
160.4537626974858
 21
381.3104086949114
 31
0.0
  0
LINE
  5
40C
330
1F
100
AcDbEntity
  8
1
  6
CONTINUOUS
 62
   253
100
AcDbLine
 10
-775.996765519446
 20
391.5449538761623
 30
0.0
 11
-775.996765519446
 21
261.2550461238376
 31
0.0
  0
LINE
  5
40D
330
1F
100
AcDbEntity
  8
1
  6
CONTINUOUS
 62
     7
100
AcDbLine
 10
151.1302626255295
 20
264.1876030818532
 30
0.0
 11
152.7490744413024
 21
271.4895913050885
 31
0.0
  0
LINE
  5
40E
330
1F
100
AcDbEntity
  8
1
  6
CONTINUOUS
 62
   253
100
AcDbLine
 10
-811.6003973417656
 20
391.5449538761623
 30
0.0
 11
-811.6003973417656
 21
261.2550461238376
 31
0.0
  0
LINE
  5
40F
330
1F
100
AcDbEntity
  8
1
  6
CONTINUOUS
 62
   253
100
AcDbLine
 10
-521.2003973417656
 20
391.5449538761623
 30
0.0
 11
-521.2003973417656
 21
261.2550461238376
 31
0.0
  0
LINE
  5
410
330
1F
100
AcDbEntity
  8
1
  6
CONTINUOUS
 62
   253
100
AcDbLine
 10
-415.6003973417658
 20
391.5449538761623
 30
0.0
 11
-415.6003973417658
 21
261.2550461238376
 31
0.0
  0
ARC
  5
411
330
1F
100
AcDbEntity
  8
1
  6
CONTINUOUS
 62
     7
100
AcDbCircle
 10
-162.2935927458818
 20
381.7
 30
0.0
 40
1.800000000000003
100
AcDbArc
 50
192.5000000000008
 51
270.0
  0
LINE
  5
412
330
1F
100
AcDbEntity
  8
1
  6
CONTINUOUS
 62
     7
100
AcDbLine
 10
241.2725745132587
 20
388.6123969181467
 30
0.0
 11
239.6537626974859
 21
381.3104086949114
 31
0.0
  0
ARC
  5
413
330
1F
100
AcDbEntity
  8
1
  6
CONTINUOUS
 62
     7
100
AcDbCircle
 10
-215.0935927458818
 20
381.7
 30
0.0
 40
1.800000000000003
100
AcDbArc
 50
192.5
 51
270.0
  0
LINE
  5
414
330
1F
100
AcDbEntity
  8
1
  6
CONTINUOUS
 62
     7
100
AcDbLine
 10
30.07257451325874
 20
388.6123969181467
 30
0.0
 11
28.45376269748585
 21
381.3104086949112
 31
0.0
  0
ARC
  5
415
330
1F
100
AcDbEntity
  8
1
  6
CONTINUOUS
 62
     7
100
AcDbCircle
 10
-316.5035701153299
 20
271.1
 30
0.0
 40
1.800000000000003
100
AcDbArc
 50
12.50000000000034
 51
90.0
  0
ARC
  5
416
330
1F
100
AcDbEntity
  8
1
  6
CONTINUOUS
 62
     7
100
AcDbCircle
 10
0.2964298846700048
 20
381.7
 30
0.0
 40
1.799999999999988
100
AcDbArc
 50
270.0
 51
347.5000000000002
  0
ARC
  5
417
330
1F
100
AcDbEntity
  8
1
  6
CONTINUOUS
 62
     7
100
AcDbCircle
 10
-369.3035701153299
 20
271.1
 30
0.0
 40
1.800000000000003
100
AcDbArc
 50
12.50000000000034
 51
90.0
  0
ARC
  5
418
330
1F
100
AcDbEntity
  8
1
  6
CONTINUOUS
 62
     7
100
AcDbCircle
 10
-83.09359274588174
 20
381.7
 30
0.0
 40
1.800000000000003
100
AcDbArc
 50
192.5000000000002
 51
270.0
  0
ARC
  5
419
330
1F
100
AcDbEntity
  8
1
  6
CONTINUOUS
 62
     7
100
AcDbCircle
 10
-210.90357011533
 20
381.7
 30
0.0
 40
1.799999999999988
100
AcDbArc
 50
270.0
 51
347.5000000000002
  0
LINE
  5
41A
330
1F
100
AcDbEntity
  8
1
  6
CONTINUOUS
 62
     7
100
AcDbLine
 10
373.2725745132587
 20
388.6123969181467
 30
0.0
 11
371.6537626974858
 21
381.3104086949114
 31
0.0
  0
ARC
  5
41B
330
1F
100
AcDbEntity
  8
1
  6
CONTINUOUS
 62
     7
100
AcDbCircle
 10
-210.90357011533
 20
271.1
 30
0.0
 40
1.800000000000003
100
AcDbArc
 50
12.49999999999972
 51
90.0
  0
LINE
  5
41C
330
1F
100
AcDbEntity
  8
1
  6
CONTINUOUS
 62
     7
100
AcDbLine
 10
47.14907444130235
 20
381.3104086949114
 30
0.0
 11
45.53026262552946
 21
388.6123969181468
 31
0.0
  0
LINE
  5
41D
330
1F
100
AcDbEntity
  8
1
  6
CONTINUOUS
 62
     7
100
AcDbLine
 10
126.3490744413023
 20
381.3104086949116
 30
0.0
 11
124.7302626255295
 21
388.6123969181467
 31
0.0
  0
ARC
  5
41E
330
1F
100
AcDbEntity
  8
1
  6
CONTINUOUS
 62
     7
100
AcDbCircle
 10
-241.4935927458817
 20
381.7
 30
0.0
 40
1.800000000000003
100
AcDbArc
 50
192.5
 51
270.0
  0
ARC
  5
41F
330
1F
100
AcDbEntity
  8
1
  6
CONTINUOUS
 62
     7
100
AcDbCircle
 10
-83.09359274588174
 20
271.1
 30
0.0
 40
1.799999999999991
100
AcDbArc
 50
90.0
 51
167.4999999999999
  0
ARC
  5
420
330
1F
100
AcDbEntity
  8
1
  6
CONTINUOUS
 62
     7
100
AcDbCircle
 10
-342.90357011533
 20
381.7
 30
0.0
 40
1.799999999999993
100
AcDbArc
 50
270.0
 51
347.4999999999997
  0
LINE
  5
421
330
1F
100
AcDbEntity
  8
1
  6
CONTINUOUS
 62
     7
100
AcDbLine
 10
135.6725745132588
 20
388.6123969181467
 30
0.0
 11
134.0537626974859
 21
381.3104086949112
 31
0.0
  0
ARC
  5
422
330
1F
100
AcDbEntity
  8
1
  6
CONTINUOUS
 62
     7
100
AcDbCircle
 10
-162.2935927458818
 20
271.1
 30
0.0
 40
1.799999999999996
100
AcDbArc
 50
90.0
 51
167.4999999999992
  0
ARC
  5
423
330
1F
100
AcDbEntity
  8
1
  6
CONTINUOUS
 62
     7
100
AcDbCircle
 10
-78.90357011532993
 20
381.7
 30
0.0
 40
1.799999999999987
100
AcDbArc
 50
270.0
 51
347.5000000000004
  0
ARC
  5
424
330
1F
100
AcDbEntity
  8
1
  6
CONTINUOUS
 62
     7
100
AcDbCircle
 10
-320.6935927458817
 20
271.1
 30
0.0
 40
1.79999999999999
100
AcDbArc
 50
90.0
 51
167.5
  0
ARC
  5
425
330
1F
100
AcDbEntity
  8
1
  6
CONTINUOUS
 62
     7
100
AcDbCircle
 10
-237.3035701153299
 20
271.1
 30
0.0
 40
1.800000000000003
100
AcDbArc
 50
12.50000000000034
 51
90.0
  0
ARC
  5
426
330
1F
100
AcDbEntity
  8
1
  6
CONTINUOUS
 62
     7
100
AcDbCircle
 10
-131.70357011533
 20
381.7
 30
0.0
 40
1.799999999999993
100
AcDbArc
 50
270.0
 51
347.4999999999997
  0
LINE
  5
427
330
1F
100
AcDbEntity
  8
1
  6
CONTINUOUS
 62
     7
100
AcDbLine
 10
388.7302626255294
 20
264.1876030818533
 30
0.0
 11
390.3490744413023
 21
271.4895913050886
 31
0.0
  0
ARC
  5
428
330
1F
100
AcDbEntity
  8
1
  6
CONTINUOUS
 62
     7
100
AcDbCircle
 10
-56.69359274588174
 20
271.1
 30
0.0
 40
1.799999999999991
100
AcDbArc
 50
90.0
 51
167.4999999999999
  0
ARC
  5
429
330
1F
100
AcDbEntity
  8
1
  6
CONTINUOUS
 62
     7
100
AcDbCircle
 10
-109.4935927458818
 20
271.1
 30
0.0
 40
1.799999999999994
100
AcDbArc
 50
90.0
 51
167.4999999999994
  0
LINE
  5
42A
330
1F
100
AcDbEntity
  8
1
  6
CONTINUOUS
 62
     7
100
AcDbLine
 10
337.5490744413023
 20
381.3104086949114
 30
0.0
 11
335.9302626255295
 21
388.6123969181466
 31
0.0
  0
LINE
  5
42B
330
1F
100
AcDbEntity
  8
1
  6
CONTINUOUS
 62
     7
100
AcDbLine
 10
258.3490744413023
 20
381.3104086949114
 30
0.0
 11
256.7302626255295
 21
388.6123969181468
 31
0.0
  0
LINE
  5
42C
330
1F
100
AcDbEntity
  8
1
  6
CONTINUOUS
 62
     7
100
AcDbLine
 10
73.5490744413024
 20
381.3104086949112
 30
0.0
 11
71.9302626255295
 21
388.6123969181467
 31
0.0
  0
ARC
  5
42D
330
1F
100
AcDbEntity
  8
1
  6
CONTINUOUS
 62
     7
100
AcDbCircle
 10
-241.4935927458817
 20
271.1
 30
0.0
 40
1.79999999999999
100
AcDbArc
 50
90.0
 51
167.5
  0
ARC
  5
42E
330
1F
100
AcDbEntity
  8
1
  6
CONTINUOUS
 62
     7
100
AcDbCircle
 10
-3.893592745881788
 20
381.7
 30
0.0
 40
1.800000000000003
100
AcDbArc
 50
192.5
 51
270.0
  0
ARC
  5
42F
330
1F
100
AcDbEntity
  8
1
  6
CONTINUOUS
 62
     7
100
AcDbCircle
 10
-158.10357011533
 20
271.1
 30
0.0
 40
1.800000000000003
100
AcDbArc
 50
12.50000000000034
 51
90.0
  0
ARC
  5
430
330
1F
100
AcDbEntity
  8
1
  6
CONTINUOUS
 62
     7
100
AcDbCircle
 10
-320.6935927458817
 20
381.7
 30
0.0
 40
1.800000000000003
100
AcDbArc
 50
192.5
 51
270.0
  0
ARC
  5
431
330
1F
100
AcDbEntity
  8
1
  6
CONTINUOUS
 62
     7
100
AcDbCircle
 10
-290.1035701153299
 20
271.1
 30
0.0
 40
1.800000000000003
100
AcDbArc
 50
12.49999999999972
 51
90.0
  0
ARC
  5
432
330
1F
100
AcDbEntity
  8
1
  6
CONTINUOUS
 62
     7
100
AcDbCircle
 10
-188.6935927458818
 20
271.1
 30
0.0
 40
1.799999999999991
100
AcDbArc
 50
90.0
 51
167.4999999999999
  0
LINE
  5
433
330
1F
100
AcDbEntity
  8
1
  6
CONTINUOUS
 62
     7
100
AcDbLine
 10
346.8725745132587
 20
388.6123969181467
 30
0.0
 11
345.2537626974859
 21
381.3104086949114
 31
0.0
  0
LINE
  5
434
330
1F
100
AcDbEntity
  8
1
  6
CONTINUOUS
 62
     7
100
AcDbLine
 10
345.2537626974859
 20
271.4895913050886
 30
0.0
 11
346.8725745132587
 21
264.1876030818533
 31
0.0
  0
ARC
  5
435
330
1F
100
AcDbEntity
  8
1
  6
CONTINUOUS
 62
     7
100
AcDbCircle
 10
-267.8935927458817
 20
271.1
 30
0.0
 40
1.799999999999991
100
AcDbArc
 50
90.0
 51
167.4999999999999
  0
LINE
  5
436
330
1F
100
AcDbEntity
  8
1
  6
CONTINUOUS
 62
     7
100
AcDbLine
 10
335.9302626255295
 20
264.1876030818534
 30
0.0
 11
337.5490744413023
 21
271.4895913050885
 31
0.0
  0
LINE
  5
437
330
1F
100
AcDbEntity
  8
1
  6
CONTINUOUS
 62
     7
100
AcDbLine
 10
283.1302626255294
 20
264.1876030818533
 30
0.0
 11
284.7490744413022
 21
271.4895913050886
 31
0.0
  0
ARC
  5
438
330
1F
100
AcDbEntity
  8
1
  6
CONTINUOUS
 62
     7
100
AcDbCircle
 10
-52.50357011533006
 20
271.1
 30
0.0
 40
1.800000000000003
100
AcDbArc
 50
12.49999999999949
 51
90.0
  0
ARC
  5
439
330
1F
100
AcDbEntity
  8
1
  6
CONTINUOUS
 62
     7
100
AcDbCircle
 10
-316.5035701153299
 20
381.7
 30
0.0
 40
1.799999999999993
100
AcDbArc
 50
270.0
 51
347.4999999999997
  0
ARC
  5
43A
330
1F
100
AcDbEntity
  8
1
  6
CONTINUOUS
 62
     7
100
AcDbCircle
 10
-109.4935927458818
 20
381.7
 30
0.0
 40
1.800000000000003
100
AcDbArc
 50
192.5000000000006
 51
270.0
  0
ARC
  5
43B
330
1F
100
AcDbEntity
  8
1
  6
CONTINUOUS
 62
     7
100
AcDbCircle
 10
-237.3035701153299
 20
381.7
 30
0.0
 40
1.799999999999993
100
AcDbArc
 50
270.0
 51
347.4999999999997
  0
ARC
  5
43C
330
1F
100
AcDbEntity
  8
1
  6
CONTINUOUS
 62
     7
100
AcDbCircle
 10
-3.893592745881788
 20
271.1
 30
0.0
 40
1.79999999999999
100
AcDbArc
 50
90.0
 51
167.5
  0
ARC
  5
43D
330
1F
100
AcDbEntity
  8
1
  6
CONTINUOUS
 62
     7
100
AcDbCircle
 10
-184.50357011533
 20
271.1
 30
0.0
 40
1.800000000000003
100
AcDbArc
 50
12.49999999999972
 51
90.0
  0
ARC
  5
43E
330
1F
100
AcDbEntity
  8
1
  6
CONTINUOUS
 62
     7
100
AcDbCircle
 10
-135.8935927458818
 20
381.7
 30
0.0
 40
1.800000000000003
100
AcDbArc
 50
192.5
 51
270.0
  0
ARC
  5
43F
330
1F
100
AcDbEntity
  8
1
  6
CONTINUOUS
 62
     7
100
AcDbCircle
 10
-56.69359274588174
 20
381.7
 30
0.0
 40
1.800000000000003
100
AcDbArc
 50
192.5000000000002
 51
270.0
  0
LINE
  5
440
330
1F
100
AcDbEntity
  8
1
  6
CONTINUOUS
 62
     7
100
AcDbLine
 10
99.94907444130237
 20
381.3104086949112
 30
0.0
 11
98.33026262552953
 21
388.6123969181464
 31
0.0
  0
LINE
  5
441
330
1F
100
AcDbEntity
  8
1
  6
CONTINUOUS
 62
     7
100
AcDbLine
 10
371.6537626974858
 20
271.4895913050885
 30
0.0
 11
373.2725745132587
 21
264.1876030818533
 31
0.0
  0
ARC
  5
442
330
1F
100
AcDbEntity
  8
1
  6
CONTINUOUS
 62
     7
100
AcDbCircle
 10
-294.2935927458817
 20
381.7
 30
0.0
 40
1.800000000000003
100
AcDbArc
 50
192.5000000000002
 51
270.0
  0
ARC
  5
443
330
1F
100
AcDbEntity
  8
1
  6
CONTINUOUS
 62
     7
100
AcDbCircle
 10
-263.7035701153299
 20
271.1
 30
0.0
 40
1.800000000000003
100
AcDbArc
 50
12.50000000000102
 51
90.0
  0
ARC
  5
444
330
1F
100
AcDbEntity
  8
1
  6
CONTINUOUS
 62
     7
100
AcDbCircle
 10
-52.50357011533006
 20
381.7
 30
0.0
 40
1.799999999999987
100
AcDbArc
 50
270.0
 51
347.5000000000004
  0
ARC
  5
445
330
1F
100
AcDbEntity
  8
1
  6
CONTINUOUS
 62
     7
100
AcDbCircle
 10
-78.90357011532993
 20
271.1
 30
0.0
 40
1.800000000000003
100
AcDbArc
 50
12.49999999999949
 51
90.0
  0
ARC
  5
446
330
1F
100
AcDbEntity
  8
1
  6
CONTINUOUS
 62
     7
100
AcDbCircle
 10
-347.0935927458817
 20
381.7
 30
0.0
 40
1.800000000000003
100
AcDbArc
 50
192.5
 51
270.0
  0
ARC
  5
447
330
1F
100
AcDbEntity
  8
1
  6
CONTINUOUS
 62
     7
100
AcDbCircle
 10
-30.29359274588177
 20
271.1
 30
0.0
 40
1.79999999999999
100
AcDbArc
 50
90.0
 51
167.5
  0
ARC
  5
448
330
1F
100
AcDbEntity
  8
1
  6
CONTINUOUS
 62
     7
100
AcDbCircle
 10
-267.8935927458817
 20
381.7
 30
0.0
 40
1.800000000000003
100
AcDbArc
 50
192.5000000000002
 51
270.0
  0
ARC
  5
449
330
1F
100
AcDbEntity
  8
1
  6
CONTINUOUS
 62
     7
100
AcDbCircle
 10
-135.8935927458818
 20
271.1
 30
0.0
 40
1.79999999999999
100
AcDbArc
 50
90.0
 51
167.5
  0
ARC
  5
44A
330
1F
100
AcDbEntity
  8
1
  6
CONTINUOUS
 62
     7
100
AcDbCircle
 10
-188.6935927458818
 20
381.7
 30
0.0
 40
1.800000000000003
100
AcDbArc
 50
192.5000000000002
 51
270.0
  0
ARC
  5
44B
330
1F
100
AcDbEntity
  8
1
  6
CONTINUOUS
 62
     7
100
AcDbCircle
 10
-342.90357011533
 20
271.1
 30
0.0
 40
1.800000000000003
100
AcDbArc
 50
12.50000000000034
 51
90.0
  0
LINE
  5
44C
330
1F
100
AcDbEntity
  8
1
  6
CONTINUOUS
 62
     7
100
AcDbLine
 10
284.7490744413023
 20
381.3104086949114
 30
0.0
 11
283.1302626255295
 21
388.6123969181467
 31
0.0
  0
ARC
  5
44D
330
1F
100
AcDbEntity
  8
1
  6
CONTINUOUS
 62
     7
100
AcDbCircle
 10
-158.10357011533
 20
381.7
 30
0.0
 40
1.799999999999993
100
AcDbArc
 50
270.0
 51
347.4999999999997
  0
LINE
  5
44E
330
1F
100
AcDbEntity
  8
1
  6
CONTINUOUS
 62
     7
100
AcDbLine
 10
231.9490744413023
 20
381.3104086949111
 30
0.0
 11
230.3302626255295
 21
388.6123969181464
 31
0.0
  0
LINE
  5
44F
330
1F
100
AcDbEntity
  8
1
  6
CONTINUOUS
 62
     7
100
AcDbLine
 10
292.4537626974858
 20
271.4895913050885
 30
0.0
 11
294.0725745132588
 21
264.1876030818534
 31
0.0
  0
LINE
  5
450
330
1F
100
AcDbEntity
  8
1
  6
CONTINUOUS
 62
     7
100
AcDbLine
 10
186.8537626974858
 20
271.4895913050888
 30
0.0
 11
188.4725745132587
 21
264.1876030818535
 31
0.0
  0
ARC
  5
451
330
1F
100
AcDbEntity
  8
1
  6
CONTINUOUS
 62
     7
100
AcDbCircle
 10
101.7064072541182
 20
271.1
 30
0.0
 40
1.79999999999999
100
AcDbArc
 50
90.0
 51
167.5
  0
ARC
  5
452
330
1F
100
AcDbEntity
  8
1
  6
CONTINUOUS
 62
     7
100
AcDbCircle
 10
211.49642988467
 20
381.7
 30
0.0
 40
1.799999999999988
100
AcDbArc
 50
270.0
 51
347.5000000000002
  0
ARC
  5
453
330
1F
100
AcDbEntity
  8
1
  6
CONTINUOUS
 62
     7
100
AcDbCircle
 10
233.7064072541182
 20
381.7
 30
0.0
 40
1.800000000000003
100
AcDbArc
 50
192.5000000000002
 51
270.0
  0
ARC
  5
454
330
1F
100
AcDbEntity
  8
1
  6
CONTINUOUS
 62
     7
100
AcDbCircle
 10
53.09642988467002
 20
381.7
 30
0.0
 40
1.799999999999991
100
AcDbArc
 50
270.0
 51
347.4999999999998
  0
LINE
  5
455
330
1F
100
AcDbEntity
  8
1
  6
CONTINUOUS
 62
     7
100
AcDbLine
 10
-290.1035701153299
 20
379.9
 30
0.0
 11
-294.2935927458817
 21
379.9
 31
0.0
  0
ARC
  5
456
330
1F
100
AcDbEntity
  8
1
  6
CONTINUOUS
 62
     7
100
AcDbCircle
 10
132.29642988467
 20
271.1
 30
0.0
 40
1.800000000000003
100
AcDbArc
 50
12.49999999999972
 51
90.0
  0
LINE
  5
457
330
1F
100
AcDbEntity
  8
1
  6
CONTINUOUS
 62
     7
100
AcDbLine
 10
-294.2935927458817
 20
272.9
 30
0.0
 11
-290.1035701153299
 21
272.9
 31
0.0
  0
ARC
  5
458
330
1F
100
AcDbEntity
  8
1
  6
CONTINUOUS
 62
     7
100
AcDbCircle
 10
105.89642988467
 20
381.7
 30
0.0
 40
1.799999999999988
100
AcDbArc
 50
270.0
 51
347.5000000000002
  0
LINE
  5
459
330
1F
100
AcDbEntity
  8
1
  6
CONTINUOUS
 62
     7
100
AcDbLine
 10
-347.0935927458817
 20
272.9
 30
0.0
 11
-342.90357011533
 21
272.9
 31
0.0
  0
ARC
  5
45A
330
1F
100
AcDbEntity
  8
1
  6
CONTINUOUS
 62
     7
100
AcDbCircle
 10
22.50640725411825
 20
381.7
 30
0.0
 40
1.800000000000003
100
AcDbArc
 50
192.4999999999997
 51
270.0
  0
ARC
  5
45B
330
1F
100
AcDbEntity
  8
1
  6
CONTINUOUS
 62
     7
100
AcDbCircle
 10
264.2964298846699
 20
271.1
 30
0.0
 40
1.800000000000003
100
AcDbArc
 50
12.50000000000017
 51
90.0
  0
ARC
  5
45C
330
1F
100
AcDbEntity
  8
1
  6
CONTINUOUS
 62
     7
100
AcDbCircle
 10
-184.50357011533
 20
381.7
 30
0.0
 40
1.799999999999988
100
AcDbArc
 50
270.0
 51
347.5000000000002
  0
ARC
  5
45D
330
1F
100
AcDbEntity
  8
1
  6
CONTINUOUS
 62
     7
100
AcDbCircle
 10
75.30640725411826
 20
271.1
 30
0.0
 40
1.79999999999999
100
AcDbArc
 50
90.0
 51
167.5
  0
ARC
  5
45E
330
1F
100
AcDbEntity
  8
1
  6
CONTINUOUS
 62
     7
100
AcDbCircle
 10
369.8964298846699
 20
381.7
 30
0.0
 40
1.799999999999991
100
AcDbArc
 50
270.0
 51
347.5
  0
ARC
  5
45F
330
1F
100
AcDbEntity
  8
1
  6
CONTINUOUS
 62
     7
100
AcDbCircle
 10
-290.1035701153299
 20
381.7
 30
0.0
 40
1.799999999999988
100
AcDbArc
 50
270.0
 51
347.5000000000002
  0
ARC
  5
460
330
1F
100
AcDbEntity
  8
1
  6
CONTINUOUS
 62
     7
100
AcDbCircle
 10
260.1064072541182
 20
381.7
 30
0.0
 40
1.800000000000003
100
AcDbArc
 50
192.5000000000002
 51
270.0
  0
ARC
  5
461
330
1F
100
AcDbEntity
  8
1
  6
CONTINUOUS
 62
     7
100
AcDbCircle
 10
158.69642988467
 20
271.1
 30
0.0
 40
1.800000000000003
100
AcDbArc
 50
12.50000000000017
 51
90.0
  0
ARC
  5
462
330
1F
100
AcDbEntity
  8
1
  6
CONTINUOUS
 62
     7
100
AcDbCircle
 10
79.49642988467
 20
381.7
 30
0.0
 40
1.79999999999999
100
AcDbArc
 50
270.0
 51
347.5
  0
LINE
  5
463
330
1F
100
AcDbEntity
  8
1
  6
CONTINUOUS
 62
     7
100
AcDbLine
 10
-241.4935927458817
 20
272.9
 30
0.0
 11
-237.3035701153299
 21
272.9
 31
0.0
  0
ARC
  5
464
330
1F
100
AcDbEntity
  8
1
  6
CONTINUOUS
 62
     7
100
AcDbCircle
 10
180.9064072541182
 20
271.1
 30
0.0
 40
1.79999999999999
100
AcDbArc
 50
90.0
 51
167.5
  0
ARC
  5
465
330
1F
100
AcDbEntity
  8
1
  6
CONTINUOUS
 62
     7
100
AcDbCircle
 10
-26.10357011533009
 20
271.1
 30
0.0
 40
1.800000000000003
100
AcDbArc
 50
12.49999999999949
 51
90.0
  0
ARC
  5
466
330
1F
100
AcDbEntity
  8
1
  6
CONTINUOUS
 62
     7
100
AcDbCircle
 10
158.69642988467
 20
381.7
 30
0.0
 40
1.799999999999991
100
AcDbArc
 50
270.0
 51
347.4999999999998
  0
ARC
  5
467
330
1F
100
AcDbEntity
  8
1
  6
CONTINUOUS
 62
     7
100
AcDbCircle
 10
-26.10357011533009
 20
381.7
 30
0.0
 40
1.799999999999987
100
AcDbArc
 50
270.0
 51
347.5000000000004
  0
ARC
  5
468
330
1F
100
AcDbEntity
  8
1
  6
CONTINUOUS
 62
     7
100
AcDbCircle
 10
-369.3035701153299
 20
381.7
 30
0.0
 40
1.799999999999993
100
AcDbArc
 50
270.0
 51
347.4999999999997
  0
ARC
  5
469
330
1F
100
AcDbEntity
  8
1
  6
CONTINUOUS
 62
     7
100
AcDbCircle
 10
154.5064072541182
 20
381.7
 30
0.0
 40
1.800000000000003
100
AcDbArc
 50
192.5000000000002
 51
270.0
  0
ARC
  5
46A
330
1F
100
AcDbEntity
  8
1
  6
CONTINUOUS
 62
     7
100
AcDbCircle
 10
128.1064072541183
 20
381.7
 30
0.0
 40
1.800000000000003
100
AcDbArc
 50
192.4999999999997
 51
270.0
  0
ARC
  5
46B
330
1F
100
AcDbEntity
  8
1
  6
CONTINUOUS
 62
     7
100
AcDbCircle
 10
211.49642988467
 20
271.1
 30
0.0
 40
1.800000000000003
100
AcDbArc
 50
12.49999999999972
 51
90.0
  0
ARC
  5
46C
330
1F
100
AcDbEntity
  8
1
  6
CONTINUOUS
 62
     7
100
AcDbCircle
 10
396.2964298846699
 20
271.1
 30
0.0
 40
1.800000000000003
100
AcDbArc
 50
12.50000000000006
 51
90.0
  0
ARC
  5
46D
330
1F
100
AcDbEntity
  8
1
  6
CONTINUOUS
 62
     7
100
AcDbCircle
 10
128.1064072541183
 20
271.1
 30
0.0
 40
1.799999999999988
100
AcDbArc
 50
90.0
 51
167.5000000000002
  0
ARC
  5
46E
330
1F
100
AcDbEntity
  8
1
  6
CONTINUOUS
 62
     7
100
AcDbCircle
 10
396.2964298846699
 20
381.7
 30
0.0
 40
1.800000000000045
100
AcDbArc
 50
270.0
 51
347.5
  0
ARC
  5
46F
330
1F
100
AcDbEntity
  8
1
  6
CONTINUOUS
 62
     7
100
AcDbCircle
 10
-263.7035701153299
 20
381.7
 30
0.0
 40
1.799999999999997
100
AcDbArc
 50
270.0
 51
347.499999999999
  0
ARC
  5
470
330
1F
100
AcDbEntity
  8
1
  6
CONTINUOUS
 62
     7
100
AcDbCircle
 10
0.2964298846700048
 20
271.1
 30
0.0
 40
1.800000000000003
100
AcDbArc
 50
12.49999999999972
 51
90.0
  0
ARC
  5
471
330
1F
100
AcDbEntity
  8
1
  6
CONTINUOUS
 62
     7
100
AcDbCircle
 10
233.7064072541182
 20
271.1
 30
0.0
 40
1.799999999999991
100
AcDbArc
 50
90.0
 51
167.4999999999999
  0
ARC
  5
472
330
1F
100
AcDbEntity
  8
1
  6
CONTINUOUS
 62
     7
100
AcDbCircle
 10
-30.29359274588177
 20
381.7
 30
0.0
 40
1.800000000000003
100
AcDbArc
 50
192.5
 51
270.0
  0
ARC
  5
473
330
1F
100
AcDbEntity
  8
1
  6
CONTINUOUS
 62
     7
100
AcDbCircle
 10
53.09642988467002
 20
271.1
 30
0.0
 40
1.800000000000003
100
AcDbArc
 50
12.50000000000017
 51
90.0
  0
ARC
  5
474
330
1F
100
AcDbEntity
  8
1
  6
CONTINUOUS
 62
     7
100
AcDbCircle
 10
343.49642988467
 20
381.7
 30
0.0
 40
1.799999999999988
100
AcDbArc
 50
270.0
 51
347.5000000000002
  0
ARC
  5
475
330
1F
100
AcDbEntity
  8
1
  6
CONTINUOUS
 62
     7
100
AcDbCircle
 10
154.5064072541182
 20
271.1
 30
0.0
 40
1.799999999999991
100
AcDbArc
 50
90.0
 51
167.4999999999999
  0
ARC
  5
476
330
1F
100
AcDbEntity
  8
1
  6
CONTINUOUS
 62
     7
100
AcDbCircle
 10
392.1064072541182
 20
271.1
 30
0.0
 40
1.800000000000044
100
AcDbArc
 50
90.0
 51
167.5000000000001
  0
ARC
  5
477
330
1F
100
AcDbEntity
  8
1
  6
CONTINUOUS
 62
     7
100
AcDbCircle
 10
26.69642988466998
 20
271.1
 30
0.0
 40
1.800000000000003
100
AcDbArc
 50
12.49999999999972
 51
90.0
  0
ARC
  5
478
330
1F
100
AcDbEntity
  8
1
  6
CONTINUOUS
 62
     7
100
AcDbCircle
 10
79.49642988467
 20
271.1
 30
0.0
 40
1.800000000000003
100
AcDbArc
 50
12.49999999999994
 51
90.0
  0
ARC
  5
479
330
1F
100
AcDbEntity
  8
1
  6
CONTINUOUS
 62
     7
100
AcDbCircle
 10
-215.0935927458818
 20
271.1
 30
0.0
 40
1.79999999999999
100
AcDbArc
 50
90.0
 51
167.5
  0
ARC
  5
47A
330
1F
100
AcDbEntity
  8
1
  6
CONTINUOUS
 62
     7
100
AcDbCircle
 10
339.3064072541182
 20
381.7
 30
0.0
 40
1.800000000000003
100
AcDbArc
 50
192.5
 51
270.0
  0
ARC
  5
47B
330
1F
100
AcDbEntity
  8
1
  6
CONTINUOUS
 62
     7
100
AcDbCircle
 10
132.29642988467
 20
381.7
 30
0.0
 40
1.799999999999988
100
AcDbArc
 50
270.0
 51
347.5000000000002
  0
ARC
  5
47C
330
1F
100
AcDbEntity
  8
1
  6
CONTINUOUS
 62
     7
100
AcDbCircle
 10
180.9064072541182
 20
381.7
 30
0.0
 40
1.800000000000003
100
AcDbArc
 50
192.5
 51
270.0
  0
ARC
  5
47D
330
1F
100
AcDbEntity
  8
1
  6
CONTINUOUS
 62
     7
100
AcDbCircle
 10
101.7064072541182
 20
381.7
 30
0.0
 40
1.800000000000003
100
AcDbArc
 50
192.5
 51
270.0
  0
ARC
  5
47E
330
1F
100
AcDbEntity
  8
1
  6
CONTINUOUS
 62
     7
100
AcDbCircle
 10
339.3064072541182
 20
271.1
 30
0.0
 40
1.79999999999999
100
AcDbArc
 50
90.0
 51
167.5
  0
ARC
  5
47F
330
1F
100
AcDbEntity
  8
1
  6
CONTINUOUS
 62
     7
100
AcDbCircle
 10
207.3064072541182
 20
381.7
 30
0.0
 40
1.800000000000003
100
AcDbArc
 50
192.5
 51
270.0
  0
ARC
  5
480
330
1F
100
AcDbEntity
  8
1
  6
CONTINUOUS
 62
     7
100
AcDbCircle
 10
369.8964298846699
 20
271.1
 30
0.0
 40
1.800000000000003
100
AcDbArc
 50
12.50000000000006
 51
90.0
  0
LINE
  5
481
330
1F
100
AcDbEntity
  8
1
  6
CONTINUOUS
 62
     7
100
AcDbLine
 10
-320.6935927458817
 20
272.9
 30
0.0
 11
-316.5035701153299
 21
272.9
 31
0.0
  0
ARC
  5
482
330
1F
100
AcDbEntity
  8
1
  6
CONTINUOUS
 62
     7
100
AcDbCircle
 10
48.90640725411822
 20
381.7
 30
0.0
 40
1.800000000000003
100
AcDbArc
 50
192.5000000000002
 51
270.0
  0
ARC
  5
483
330
1F
100
AcDbEntity
  8
1
  6
CONTINUOUS
 62
     7
100
AcDbCircle
 10
-105.30357011533
 20
381.7
 30
0.0
 40
1.799999999999985
100
AcDbArc
 50
270.0
 51
347.5000000000006
  0
ARC
  5
484
330
1F
100
AcDbEntity
  8
1
  6
CONTINUOUS
 62
     7
100
AcDbCircle
 10
185.09642988467
 20
271.1
 30
0.0
 40
1.800000000000003
100
AcDbArc
 50
12.50000000000017
 51
90.0
  0
ARC
  5
485
330
1F
100
AcDbEntity
  8
1
  6
CONTINUOUS
 62
     7
100
AcDbCircle
 10
-131.70357011533
 20
271.1
 30
0.0
 40
1.800000000000003
100
AcDbArc
 50
12.50000000000034
 51
90.0
  0
ARC
  5
486
330
1F
100
AcDbEntity
  8
1
  6
CONTINUOUS
 62
     7
100
AcDbCircle
 10
105.89642988467
 20
271.1
 30
0.0
 40
1.800000000000003
100
AcDbArc
 50
12.49999999999972
 51
90.0
  0
ARC
  5
487
330
1F
100
AcDbEntity
  8
1
  6
CONTINUOUS
 62
     7
100
AcDbCircle
 10
365.7064072541182
 20
381.7
 30
0.0
 40
1.800000000000003
100
AcDbArc
 50
192.5
 51
270.0
  0
ARC
  5
488
330
1F
100
AcDbEntity
  8
1
  6
CONTINUOUS
 62
     7
100
AcDbCircle
 10
290.6964298846699
 20
381.7
 30
0.0
 40
1.799999999999991
100
AcDbArc
 50
270.0
 51
347.4999999999998
  0
ARC
  5
489
330
1F
100
AcDbEntity
  8
1
  6
CONTINUOUS
 62
     7
100
AcDbCircle
 10
365.7064072541182
 20
271.1
 30
0.0
 40
1.799999999999991
100
AcDbArc
 50
90.0
 51
167.5
  0
ARC
  5
48A
330
1F
100
AcDbEntity
  8
1
  6
CONTINUOUS
 62
     7
100
AcDbCircle
 10
26.69642988466998
 20
381.7
 30
0.0
 40
1.799999999999988
100
AcDbArc
 50
270.0
 51
347.5000000000002
  0
ARC
  5
48B
330
1F
100
AcDbEntity
  8
1
  6
CONTINUOUS
 62
     7
100
AcDbCircle
 10
237.89642988467
 20
271.1
 30
0.0
 40
1.800000000000003
100
AcDbArc
 50
12.49999999999972
 51
90.0
  0
ARC
  5
48C
330
1F
100
AcDbEntity
  8
1
  6
CONTINUOUS
 62
     7
100
AcDbCircle
 10
-294.2935927458817
 20
271.1
 30
0.0
 40
1.799999999999991
100
AcDbArc
 50
90.0
 51
167.4999999999999
  0
LINE
  5
48D
330
1F
100
AcDbEntity
  8
1
  6
CONTINUOUS
 62
     7
100
AcDbLine
 10
-342.90357011533
 20
379.9
 30
0.0
 11
-347.0935927458817
 21
379.9
 31
0.0
  0
LINE
  5
48E
330
1F
100
AcDbEntity
  8
1
  6
CONTINUOUS
 62
     7
100
AcDbLine
 10
-316.5035701153299
 20
379.9
 30
0.0
 11
-320.6935927458817
 21
379.9
 31
0.0
  0
ARC
  5
48F
330
1F
100
AcDbEntity
  8
1
  6
CONTINUOUS
 62
     7
100
AcDbCircle
 10
343.49642988467
 20
271.1
 30
0.0
 40
1.800000000000003
100
AcDbArc
 50
12.49999999999972
 51
90.0
  0
ARC
  5
490
330
1F
100
AcDbEntity
  8
1
  6
CONTINUOUS
 62
     7
100
AcDbCircle
 10
-105.30357011533
 20
271.1
 30
0.0
 40
1.800000000000003
100
AcDbArc
 50
12.49999999999932
 51
90.0
  0
LINE
  5
491
330
1F
100
AcDbEntity
  8
1
  6
CONTINUOUS
 62
     7
100
AcDbLine
 10
0.2964298846700048
 20
379.9
 30
0.0
 11
-3.893592745881788
 21
379.9
 31
0.0
  0
LINE
  5
492
330
1F
100
AcDbEntity
  8
1
  6
CONTINUOUS
 62
     7
100
AcDbLine
 10
392.1064072541182
 20
272.9
 30
0.0
 11
396.2964298846699
 21
272.9
 31
0.0
  0
LINE
  5
493
330
1F
100
AcDbEntity
  8
1
  6
CONTINUOUS
 62
     7
100
AcDbLine
 10
233.7064072541182
 20
272.9
 30
0.0
 11
237.89642988467
 21
272.9
 31
0.0
  0
LINE
  5
494
330
1F
100
AcDbEntity
  8
1
  6
CONTINUOUS
 62
     7
100
AcDbLine
 10
22.50640725411825
 20
272.9
 30
0.0
 11
26.69642988466998
 21
272.9
 31
0.0
  0
LINE
  5
495
330
1F
100
AcDbEntity
  8
1
  6
CONTINUOUS
 62
     7
100
AcDbLine
 10
128.1064072541183
 20
272.9
 30
0.0
 11
132.29642988467
 21
272.9
 31
0.0
  0
LINE
  5
496
330
1F
100
AcDbEntity
  8
1
  6
CONTINUOUS
 62
     7
100
AcDbLine
 10
48.90640725411822
 20
272.9
 30
0.0
 11
53.09642988467002
 21
272.9
 31
0.0
  0
LINE
  5
497
330
1F
100
AcDbEntity
  8
1
  6
CONTINUOUS
 62
     7
100
AcDbLine
 10
185.09642988467
 20
379.9
 30
0.0
 11
180.9064072541182
 21
379.9
 31
0.0
  0
LINE
  5
498
330
1F
100
AcDbEntity
  8
1
  6
CONTINUOUS
 62
     7
100
AcDbLine
 10
396.2964298846699
 20
379.9
 30
0.0
 11
392.1064072541182
 21
379.9
 31
0.0
  0
LINE
  5
499
330
1F
100
AcDbEntity
  8
1
  6
CONTINUOUS
 62
     7
100
AcDbLine
 10
365.7064072541182
 20
272.9
 30
0.0
 11
369.8964298846699
 21
272.9
 31
0.0
  0
LINE
  5
49A
330
1F
100
AcDbEntity
  8
1
  6
CONTINUOUS
 62
     7
100
AcDbLine
 10
561.6014185693941
 20
254.6499999999999
 30
0.0
 11
578.6014185693941
 21
254.6499999999999
 31
0.0
  0
LINE
  5
49B
330
1F
100
AcDbEntity
  8
1
  6
CONTINUOUS
 62
     7
100
AcDbLine
 10
-30.29359274588177
 20
272.9
 30
0.0
 11
-26.10357011533009
 21
272.9
 31
0.0
  0
ARC
  5
49C
330
1F
100
AcDbEntity
  8
1
  6
CONTINUOUS
 62
     7
100
AcDbCircle
 10
260.1064072541182
 20
271.1
 30
0.0
 40
1.799999999999991
100
AcDbArc
 50
90.0
 51
167.4999999999999
  0
LINE
  5
49D
330
1F
100
AcDbEntity
  8
1
  6
CONTINUOUS
 62
     7
100
AcDbLine
 10
475.5585682365707
 20
395.6690574172844
 30
0.0
 11
417.5951692060378
 21
396.031298832842
 31
0.0
  0
LINE
  5
49E
330
1F
100
AcDbEntity
  8
1
  6
CONTINUOUS
 62
     7
100
AcDbLine
 10
-215.0935927458818
 20
272.9
 30
0.0
 11
-210.90357011533
 21
272.9
 31
0.0
  0
LINE
  5
49F
330
1F
100
AcDbEntity
  8
1
  6
CONTINUOUS
 62
     7
100
AcDbLine
 10
343.49642988467
 20
379.9
 30
0.0
 11
339.3064072541182
 21
379.9
 31
0.0
  0
LINE
  5
4A0
330
1F
100
AcDbEntity
  8
1
  6
CONTINUOUS
 62
     7
100
AcDbLine
 10
-26.10357011533009
 20
379.9
 30
0.0
 11
-30.29359274588177
 21
379.9
 31
0.0
  0
ARC
  5
4A1
330
1F
100
AcDbEntity
  8
1
  6
CONTINUOUS
 62
     7
100
AcDbCircle
 10
185.09642988467
 20
381.7
 30
0.0
 40
1.799999999999991
100
AcDbArc
 50
270.0
 51
347.4999999999998
  0
LINE
  5
4A2
330
1F
100
AcDbEntity
  8
1
  6
CONTINUOUS
 62
     7
100
AcDbLine
 10
369.8964298846699
 20
379.9
 30
0.0
 11
365.7064072541182
 21
379.9
 31
0.0
  0
ARC
  5
4A3
330
1F
100
AcDbEntity
  8
1
  6
CONTINUOUS
 62
     7
100
AcDbCircle
 10
415.601418569394
 20
397.15
 30
0.0
 40
1.000000000000001
100
AcDbArc
 50
0.0
 51
90.0
  0
LINE
  5
4A4
330
1F
100
AcDbEntity
  8
1
  6
CONTINUOUS
 62
     7
100
AcDbLine
 10
-184.50357011533
 20
379.9
 30
0.0
 11
-188.6935927458818
 21
379.9
 31
0.0
  0
ARC
  5
4A5
330
1F
100
AcDbEntity
  8
1
  6
CONTINUOUS
 62
     7
100
AcDbCircle
 10
286.5064072541182
 20
271.1
 30
0.0
 40
1.79999999999999
100
AcDbArc
 50
90.0
 51
167.5
  0
LINE
  5
4A6
330
1F
100
AcDbEntity
  8
1
  6
CONTINUOUS
 62
     7
100
AcDbLine
 10
-52.50357011533006
 20
379.9
 30
0.0
 11
-56.69359274588174
 21
379.9
 31
0.0
  0
LINE
  5
4A7
330
1F
100
AcDbEntity
  8
1
  6
CONTINUOUS
 62
     7
100
AcDbLine
 10
-56.69359274588174
 20
272.9
 30
0.0
 11
-52.50357011533006
 21
272.9
 31
0.0
  0
LINE
  5
4A8
330
1F
100
AcDbEntity
  8
1
  6
CONTINUOUS
 62
     7
100
AcDbLine
 10
180.9064072541182
 20
272.9
 30
0.0
 11
185.09642988467
 21
272.9
 31
0.0
  0
ARC
  5
4A9
330
1F
100
AcDbEntity
  8
1
  6
CONTINUOUS
 62
     7
100
AcDbCircle
 10
290.6964298846699
 20
271.1
 30
0.0
 40
1.800000000000003
100
AcDbArc
 50
12.50000000000017
 51
90.0
  0
LINE
  5
4AA
330
1F
100
AcDbEntity
  8
1
  6
CONTINUOUS
 62
     7
100
AcDbLine
 10
398.601418569394
 20
254.6499999999999
 30
0.0
 11
415.601418569394
 21
254.6499999999999
 31
0.0
  0
LINE
  5
4AB
330
1F
100
AcDbEntity
  8
1
  6
CONTINUOUS
 62
     7
100
AcDbLine
 10
-135.8935927458818
 20
272.9
 30
0.0
 11
-131.70357011533
 21
272.9
 31
0.0
  0
LINE
  5
4AC
330
1F
100
AcDbEntity
  8
1
  6
CONTINUOUS
 62
     7
100
AcDbLine
 10
578.601418569394
 20
398.15
 30
0.0
 11
561.601418569394
 21
398.15
 31
0.0
  0
LINE
  5
4AD
330
1F
100
AcDbEntity
  8
1
  6
CONTINUOUS
 62
     7
100
AcDbLine
 10
211.49642988467
 20
379.9
 30
0.0
 11
207.3064072541182
 21
379.9
 31
0.0
  0
LINE
  5
4AE
330
1F
100
AcDbEntity
  8
1
  6
CONTINUOUS
 62
     7
100
AcDbLine
 10
-162.2935927458818
 20
272.9
 30
0.0
 11
-158.10357011533
 21
272.9
 31
0.0
  0
LINE
  5
4AF
330
1F
100
AcDbEntity
  8
1
  6
CONTINUOUS
 62
     7
100
AcDbLine
 10
101.7064072541182
 20
272.9
 30
0.0
 11
105.89642988467
 21
272.9
 31
0.0
  0
LINE
  5
4B0
330
1F
100
AcDbEntity
  8
1
  6
CONTINUOUS
 62
     7
100
AcDbLine
 10
-210.90357011533
 20
379.9
 30
0.0
 11
-215.0935927458818
 21
379.9
 31
0.0
  0
LINE
  5
4B1
330
1F
100
AcDbEntity
  8
1
  6
CONTINUOUS
 62
     7
100
AcDbLine
 10
-131.70357011533
 20
379.9
 30
0.0
 11
-135.8935927458818
 21
379.9
 31
0.0
  0
LINE
  5
4B2
330
1F
100
AcDbEntity
  8
1
  6
CONTINUOUS
 62
     7
100
AcDbLine
 10
-78.90357011532993
 20
379.9
 30
0.0
 11
-83.09359274588172
 21
379.9
 31
0.0
  0
ARC
  5
4B3
330
1F
100
AcDbEntity
  8
1
  6
CONTINUOUS
 62
     7
100
AcDbCircle
 10
22.50640725411825
 20
271.1
 30
0.0
 40
1.799999999999988
100
AcDbArc
 50
90.0
 51
167.5000000000002
  0
LINE
  5
4B4
330
1F
100
AcDbEntity
  8
1
  6
CONTINUOUS
 62
     7
100
AcDbLine
 10
105.89642988467
 20
379.9
 30
0.0
 11
101.7064072541182
 21
379.9
 31
0.0
  0
LINE
  5
4B5
330
1F
100
AcDbEntity
  8
1
  6
CONTINUOUS
 62
     7
100
AcDbLine
 10
158.69642988467
 20
379.9
 30
0.0
 11
154.5064072541182
 21
379.9
 31
0.0
  0
LINE
  5
4B6
330
1F
100
AcDbEntity
  8
1
  6
CONTINUOUS
 62
     7
100
AcDbLine
 10
286.5064072541182
 20
272.9
 30
0.0
 11
290.6964298846699
 21
272.9
 31
0.0
  0
ARC
  5
4B7
330
1F
100
AcDbEntity
  8
1
  6
CONTINUOUS
 62
     7
100
AcDbCircle
 10
475.533570783147
 20
261.1308644728683
 30
0.0
 40
4.000000000000003
100
AcDbArc
 50
270.3580644756402
 51
345.0000000000003
  0
ARC
  5
4B8
330
1F
100
AcDbEntity
  8
1
  6
CONTINUOUS
 62
     7
100
AcDbCircle
 10
264.2964298846699
 20
381.7
 30
0.0
 40
1.799999999999991
100
AcDbArc
 50
270.0
 51
347.4999999999998
  0
LINE
  5
4B9
330
1F
100
AcDbEntity
  8
1
  6
CONTINUOUS
 62
     7
100
AcDbLine
 10
-158.10357011533
 20
379.9
 30
0.0
 11
-162.2935927458818
 21
379.9
 31
0.0
  0
LINE
  5
4BA
330
1F
100
AcDbEntity
  8
1
  6
CONTINUOUS
 62
     7
100
AcDbLine
 10
-263.7035701153299
 20
379.9
 30
0.0
 11
-267.8935927458817
 21
379.9
 31
0.0
  0
LINE
  5
4BB
330
1F
100
AcDbEntity
  8
1
  6
CONTINUOUS
 62
     7
100
AcDbLine
 10
-105.30357011533
 20
379.9
 30
0.0
 11
-109.4935927458818
 21
379.9
 31
0.0
  0
LINE
  5
4BC
330
1F
100
AcDbEntity
  8
1
  6
CONTINUOUS
 62
     7
100
AcDbLine
 10
264.2964298846699
 20
379.9
 30
0.0
 11
260.1064072541182
 21
379.9
 31
0.0
  0
ARC
  5
4BD
330
1F
100
AcDbEntity
  8
1
  6
CONTINUOUS
 62
     7
100
AcDbCircle
 10
207.3064072541182
 20
271.1
 30
0.0
 40
1.79999999999999
100
AcDbArc
 50
90.0
 51
167.5
  0
ARC
  5
4BE
330
1F
100
AcDbEntity
  8
1
  6
CONTINUOUS
 62
     7
100
AcDbCircle
 10
237.89642988467
 20
381.7
 30
0.0
 40
1.799999999999988
100
AcDbArc
 50
270.0
 51
347.5000000000002
  0
ARC
  5
4BF
330
1F
100
AcDbEntity
  8
1
  6
CONTINUOUS
 62
     7
100
AcDbCircle
 10
286.5064072541182
 20
381.7
 30
0.0
 40
1.800000000000003
100
AcDbArc
 50
192.5
 51
270.0
  0
ARC
  5
4C0
330
1F
100
AcDbEntity
  8
1
  6
CONTINUOUS
 62
     7
100
AcDbCircle
 10
392.1064072541182
 20
381.7
 30
0.0
 40
1.800000000000003
100
AcDbArc
 50
192.4999999999997
 51
270.0
  0
ARC
  5
4C1
330
1F
100
AcDbEntity
  8
1
  6
CONTINUOUS
 62
     7
100
AcDbCircle
 10
561.6014185693941
 20
255.6499999999999
 30
0.0
 40
1.000000000000001
100
AcDbArc
 50
180.0
 51
270.0
  0
LINE
  5
4C2
330
1F
100
AcDbEntity
  8
1
  6
CONTINUOUS
 62
     7
100
AcDbLine
 10
501.6442689022172
 20
257.1309425827156
 30
0.0
 11
559.6076679327502
 21
256.7687011671579
 31
0.0
  0
LINE
  5
4C3
330
1F
100
AcDbEntity
  8
1
  6
CONTINUOUS
 62
     7
100
AcDbLine
 10
79.49642988467
 20
379.9
 30
0.0
 11
75.30640725411826
 21
379.9
 31
0.0
  0
LINE
  5
4C4
330
1F
100
AcDbEntity
  8
1
  6
CONTINUOUS
 62
     7
100
AcDbLine
 10
260.1064072541182
 20
272.9
 30
0.0
 11
264.2964298846699
 21
272.9
 31
0.0
  0
ARC
  5
4C5
330
1F
100
AcDbEntity
  8
1
  6
CONTINUOUS
 62
     7
100
AcDbCircle
 10
75.30640725411826
 20
381.7
 30
0.0
 40
1.800000000000003
100
AcDbArc
 50
192.5
 51
270.0
  0
LINE
  5
4C6
330
1F
100
AcDbEntity
  8
1
  6
CONTINUOUS
 62
     7
100
AcDbLine
 10
-109.4935927458818
 20
272.9
 30
0.0
 11
-105.30357011533
 21
272.9
 31
0.0
  0
LINE
  5
4C7
330
1F
100
AcDbEntity
  8
1
  6
CONTINUOUS
 62
     7
100
AcDbLine
 10
132.29642988467
 20
379.9
 30
0.0
 11
128.1064072541183
 21
379.9
 31
0.0
  0
LINE
  5
4C8
330
1F
100
AcDbEntity
  8
1
  6
CONTINUOUS
 62
     7
100
AcDbLine
 10
559.6076679327502
 20
396.031298832842
 30
0.0
 11
501.6442689022172
 21
395.6690574172844
 31
0.0
  0
LINE
  5
4C9
330
1F
100
AcDbEntity
  8
1
  6
CONTINUOUS
 62
     7
100
AcDbLine
 10
26.69642988466998
 20
379.9
 30
0.0
 11
22.50640725411825
 21
379.9
 31
0.0
  0
LINE
  5
4CA
330
1F
100
AcDbEntity
  8
1
  6
CONTINUOUS
 62
     7
100
AcDbLine
 10
-267.8935927458817
 20
272.9
 30
0.0
 11
-263.7035701153299
 21
272.9
 31
0.0
  0
ARC
  5
4CB
330
1F
100
AcDbEntity
  8
1
  6
CONTINUOUS
 62
     7
100
AcDbCircle
 10
48.90640725411822
 20
271.1
 30
0.0
 40
1.799999999999991
100
AcDbArc
 50
90.0
 51
167.4999999999999
  0
LINE
  5
4CC
330
1F
100
AcDbEntity
  8
1
  6
CONTINUOUS
 62
     7
100
AcDbLine
 10
154.5064072541182
 20
272.9
 30
0.0
 11
158.69642988467
 21
272.9
 31
0.0
  0
LINE
  5
4CD
330
1F
100
AcDbEntity
  8
1
  6
CONTINUOUS
 62
     7
100
AcDbLine
 10
237.89642988467
 20
379.9
 30
0.0
 11
233.7064072541182
 21
379.9
 31
0.0
  0
LINE
  5
4CE
330
1F
100
AcDbEntity
  8
1
  6
CONTINUOUS
 62
     7
100
AcDbLine
 10
290.6964298846699
 20
379.9
 30
0.0
 11
286.5064072541181
 21
379.9
 31
0.0
  0
LINE
  5
4CF
330
1F
100
AcDbEntity
  8
1
  6
CONTINUOUS
 62
     7
100
AcDbLine
 10
207.3064072541182
 20
272.9
 30
0.0
 11
211.49642988467
 21
272.9
 31
0.0
  0
LINE
  5
4D0
330
1F
100
AcDbEntity
  8
1
  6
CONTINUOUS
 62
     7
100
AcDbLine
 10
339.3064072541182
 20
272.9
 30
0.0
 11
343.49642988467
 21
272.9
 31
0.0
  0
LINE
  5
4D1
330
1F
100
AcDbEntity
  8
1
  6
CONTINUOUS
 62
     7
100
AcDbLine
 10
770.2044254966142
 20
269.2692850512353
 30
0.0
 11
773.1022029754814
 21
267.6155692539274
 31
0.0
  0
LINE
  5
4D2
330
1F
100
AcDbEntity
  8
1
  6
CONTINUOUS
 62
     7
100
AcDbLine
 10
-237.3035701153299
 20
379.9
 30
0.0
 11
-241.4935927458817
 21
379.9
 31
0.0
  0
ARC
  5
4D3
330
1F
100
AcDbEntity
  8
1
  6
CONTINUOUS
 62
     7
100
AcDbCircle
 10
475.533570783147
 20
391.6691355271317
 30
0.0
 40
3.999999999999953
100
AcDbArc
 50
14.99999999999972
 51
89.6419355243598
  0
LINE
  5
4D4
330
1F
100
AcDbEntity
  8
1
  6
CONTINUOUS
 62
     7
100
AcDbLine
 10
-3.893592745881788
 20
272.9
 30
0.0
 11
0.2964298846700052
 21
272.9
 31
0.0
  0
CIRCLE
  5
4D5
330
1F
100
AcDbEntity
  8
1
  6
CONTINUOUS
 62
   253
100
AcDbCircle
 10
-1105.249999999999
 20
326.4
 30
0.0
 40
62.21239691814667
  0
LINE
  5
4D6
330
1F
100
AcDbEntity
  8
1
  6
CONTINUOUS
 62
     7
100
AcDbLine
 10
-83.09359274588174
 20
272.9
 30
0.0
 11
-78.90357011532994
 21
272.9
 31
0.0
  0
LINE
  5
4D7
330
1F
100
AcDbEntity
  8
1
  6
CONTINUOUS
 62
     7
100
AcDbLine
 10
75.30640725411826
 20
272.9
 30
0.0
 11
79.49642988467
 21
272.9
 31
0.0
  0
LINE
  5
4D8
330
1F
100
AcDbEntity
  8
1
  6
CONTINUOUS
 62
     7
100
AcDbLine
 10
53.09642988467002
 20
379.9
 30
0.0
 11
48.90640725411822
 21
379.9
 31
0.0
  0
CIRCLE
  5
4D9
330
1F
100
AcDbEntity
  8
1
  6
CONTINUOUS
 62
     7
100
AcDbCircle
 10
-1105.249999999999
 20
326.4
 30
0.0
 40
50.99999999999999
  0
ARC
  5
4DA
330
1F
100
AcDbEntity
  8
1
  6
CONTINUOUS
 62
     7
100
AcDbCircle
 10
495.4646883382751
 20
385.9
 30
0.0
 40
0.5000000000000022
100
AcDbArc
 50
269.9999999999999
 51
344.9999999999997
  0
ARC
  5
4DB
330
1F
100
AcDbEntity
  8
1
  6
CONTINUOUS
 62
     7
100
AcDbCircle
 10
415.601418569394
 20
255.6499999999999
 30
0.0
 40
1.000000000000001
100
AcDbArc
 50
270.0
 51
0.0
  0
LINE
  5
4DC
330
1F
100
AcDbEntity
  8
1
  6
CONTINUOUS
 62
     7
100
AcDbLine
 10
748.1193697831469
 20
290.5283815284047
 30
0.0
 11
748.1490092350325
 21
290.6557028521551
 31
0.0
  0
LINE
  5
4DD
330
1F
100
AcDbEntity
  8
1
  6
CONTINUOUS
 62
     7
100
AcDbLine
 10
773.1022029754813
 20
267.6155692539274
 30
0.0
 11
774.3127004534477
 21
266.9543230720249
 31
0.0
  0
ARC
  5
4DE
330
1F
100
AcDbEntity
  8
1
  6
CONTINUOUS
 62
     7
100
AcDbCircle
 10
827.3792382558569
 20
303.4207617441432
 30
0.0
 40
35.63644543923314
100
AcDbArc
 50
290.9898378277807
 51
339.0101621722193
  0
ARC
  5
4DF
330
1F
100
AcDbEntity
  8
1
  6
CONTINUOUS
 62
     7
100
AcDbCircle
 10
804.4
 20
326.4
 30
0.0
 40
66.58269975131392
100
AcDbArc
 50
300.9026190171381
 51
329.0973809828619
  0
ARC
  5
4E0
330
1F
100
AcDbEntity
  8
1
  6
CONTINUOUS
 62
     7
100
AcDbCircle
 10
417.601418569394
 20
397.0312793053802
 30
0.0
 40
0.9999999999999987
100
AcDbArc
 50
180.0
 51
269.6419355243466
  0
ARC
  5
4E1
330
1F
100
AcDbEntity
  8
1
  6
CONTINUOUS
 62
     7
100
AcDbCircle
 10
501.6692663556412
 20
261.1308644728683
 30
0.0
 40
3.999999999999953
100
AcDbArc
 50
194.9999999999997
 51
269.6419355243597
  0
ARC
  5
4E2
330
1F
100
AcDbEntity
  8
1
  6
CONTINUOUS
 62
     7
100
AcDbCircle
 10
827.443385418157
 20
349.443385418157
 30
0.0
 40
35.62692808932272
100
AcDbArc
 50
21.10457269479886
 51
68.89542730520128
  0
LINE
  5
4E3
330
1F
100
AcDbEntity
  8
1
  6
CONTINUOUS
 62
     7
100
AcDbLine
 10
481.2551858873684
 20
385.7705904774487
 30
0.0
 11
479.3972740883032
 21
392.7044117075418
 31
0.0
  0
ARC
  5
4E4
330
1F
100
AcDbEntity
  8
1
  6
CONTINUOUS
 62
     7
100
AcDbCircle
 10
495.4646883382751
 20
266.9
 30
0.0
 40
0.5000000000000004
100
AcDbArc
 50
15.00000000000034
 51
90.00000000000011
  0
CIRCLE
  5
4E5
330
1F
100
AcDbEntity
  8
1
  6
CONTINUOUS
 62
   253
100
AcDbCircle
 10
804.4
 20
326.4
 30
0.0
 40
68.24037911555308
  0
LINE
  5
4E6
330
1F
100
AcDbEntity
  8
1
  6
CONTINUOUS
 62
     7
100
AcDbLine
 10
768.6557028521552
 20
270.1490092350325
 30
0.0
 11
768.5283815284048
 21
270.1193697831468
 31
0.0
  0
LINE
  5
4E7
330
1F
100
AcDbEntity
  8
1
  6
CONTINUOUS
 62
     7
100
AcDbLine
 10
834.4872995465522
 20
385.845676927975
 30
0.0
 11
834.4532253728414
 21
385.8647766836853
 31
0.0
  0
CIRCLE
  5
4E8
330
1F
100
AcDbEntity
  8
1
  6
CONTINUOUS
 62
     7
100
AcDbCircle
 10
-1105.249999999999
 20
326.4
 30
0.0
 40
48.99999999999999
  0
LINE
  5
4E9
330
1F
100
AcDbEntity
  8
1
  6
CONTINUOUS
 62
     7
100
AcDbLine
 10
834.4872995465521
 20
266.9543230720249
 30
0.0
 11
835.6977970245186
 21
267.6155692539274
 31
0.0
  0
ARC
  5
4EA
330
1F
100
AcDbEntity
  8
1
  6
CONTINUOUS
 62
   253
100
AcDbCircle
 10
804.4
 20
326.4
 30
0.0
 40
66.74041016788746
100
AcDbArc
 50
327.4877617572435
 51
32.51223824275644
  0
ARC
  5
4EB
330
1F
100
AcDbEntity
  8
1
  6
CONTINUOUS
 62
   253
100
AcDbCircle
 10
-1105.249999999999
 20
326.4
 30
0.0
 40
65.51374429638352
100
AcDbArc
 50
76.75989335006977
 51
103.2401066499302
  0
LINE
  5
4EC
330
1F
100
AcDbEntity
  8
1
  6
CONTINUOUS
 62
     7
100
AcDbLine
 10
495.9476512514196
 20
267.0294095225512
 30
0.0
 11
497.8055630504849
 21
260.0955882924582
 31
0.0
  0
LINE
  5
4ED
330
1F
100
AcDbEntity
  8
1
  6
CONTINUOUS
 62
     7
100
AcDbLine
 10
860.6806302168533
 20
362.2716184715952
 30
0.0
 11
860.6509907649677
 21
362.1442971478448
 31
0.0
  0
CIRCLE
  5
4EE
330
1F
100
AcDbEntity
  8
1
  6
CONTINUOUS
 62
     7
100
AcDbCircle
 10
-1105.249999999999
 20
326.4
 30
0.0
 40
53.49999999999999
  0
LINE
  5
4EF
330
1F
100
AcDbEntity
  8
1
  6
CONTINUOUS
 62
     7
100
AcDbLine
 10
417.5951692060378
 20
256.7687011671579
 30
0.0
 11
475.5585682365707
 21
257.1309425827156
 31
0.0
  0
ARC
  5
4F0
330
1F
100
AcDbEntity
  8
1
  6
CONTINUOUS
 62
     7
100
AcDbCircle
 10
501.6692663556412
 20
391.6691355271317
 30
0.0
 40
4.000000000000003
100
AcDbArc
 50
90.35806447564023
 51
165.0000000000003
  0
ARC
  5
4F1
330
1F
100
AcDbEntity
  8
1
  6
CONTINUOUS
 62
     7
100
AcDbCircle
 10
804.4
 20
326.4
 30
0.0
 40
66.58269975131387
100
AcDbArc
 50
30.90261901713805
 51
59.09738098286191
  0
ARC
  5
4F2
330
1F
100
AcDbEntity
  8
1
  6
CONTINUOUS
 62
     7
100
AcDbCircle
 10
561.6014185693941
 20
397.15
 30
0.0
 40
1.000000000000001
100
AcDbArc
 50
90.0
 51
180.0
  0
LINE
  5
4F3
330
1F
100
AcDbEntity
  8
1
  6
CONTINUOUS
 62
     7
100
AcDbLine
 10
495.4646883382751
 20
385.4
 30
0.0
 11
481.7381488005129
 21
385.4
 31
0.0
  0
ARC
  5
4F4
330
1F
100
AcDbEntity
  8
1
  6
CONTINUOUS
 62
     7
100
AcDbCircle
 10
781.4207617441431
 20
349.3792382558569
 30
0.0
 40
35.63644543923299
100
AcDbArc
 50
110.9898378277805
 51
159.0101621722194
  0
LINE
  5
4F5
330
1F
100
AcDbEntity
  8
1
  6
CONTINUOUS
 62
     7
100
AcDbLine
 10
840.144297147845
 20
382.6509907649675
 30
0.0
 11
840.2716184715954
 21
382.6806302168531
 31
0.0
  0
LINE
  5
4F6
330
1F
100
AcDbEntity
  8
1
  6
CONTINUOUS
 62
     7
100
AcDbLine
 10
748.1490092350325
 20
362.1442971478448
 30
0.0
 11
748.1193697831468
 21
362.2716184715952
 31
0.0
  0
ARC
  5
4F7
330
1F
100
AcDbEntity
  8
1
  6
CONTINUOUS
 62
     7
100
AcDbCircle
 10
781.3564677413882
 20
349.4435322586119
 30
0.0
 40
35.62673822529162
100
AcDbArc
 50
111.1044374140841
 51
158.895562585916
  0
ARC
  5
4F8
330
1F
100
AcDbEntity
  8
1
  6
CONTINUOUS
 62
     7
100
AcDbCircle
 10
781.3564677413882
 20
303.3564677413881
 30
0.0
 40
35.62673822529168
100
AcDbArc
 50
201.104437414084
 51
248.8955625859159
  0
LINE
  5
4F9
330
1F
100
AcDbEntity
  8
1
  6
CONTINUOUS
 62
     7
100
AcDbLine
 10
840.2716184715953
 20
270.1193697831468
 30
0.0
 11
840.1442971478449
 21
270.1490092350325
 31
0.0
  0
LINE
  5
4FA
330
1F
100
AcDbEntity
  8
1
  6
CONTINUOUS
 62
     7
100
AcDbLine
 10
863.1844307460725
 20
295.1022029754812
 30
0.0
 11
863.845676927975
 21
296.3127004534477
 31
0.0
  0
LINE
  5
4FB
330
1F
100
AcDbEntity
  8
1
  6
CONTINUOUS
 62
     7
100
AcDbLine
 10
-188.6935927458818
 20
272.9
 30
0.0
 11
-184.50357011533
 21
272.9
 31
0.0
  0
CIRCLE
  5
4FC
330
1F
100
AcDbEntity
  8
1
  6
CONTINUOUS
 62
     7
100
AcDbCircle
 10
-1105.249999999999
 20
326.4
 30
0.0
 40
65.50000000000006
  0
ARC
  5
4FD
330
1F
100
AcDbEntity
  8
1
  6
CONTINUOUS
 62
     7
100
AcDbCircle
 10
804.4
 20
326.4
 30
0.0
 40
66.63417675090965
100
AcDbArc
 50
297.7766106965466
 51
332.2233893034534
  0
LINE
  5
4FE
330
1F
100
AcDbEntity
  8
1
  6
CONTINUOUS
 62
     7
100
AcDbLine
 10
860.6509907649676
 20
290.6557028521551
 30
0.0
 11
860.6806302168532
 21
290.5283815284047
 31
0.0
  0
ARC
  5
4FF
330
1F
100
AcDbEntity
  8
1
  6
CONTINUOUS
 62
     7
100
AcDbCircle
 10
417.601418569394
 20
255.7687206946198
 30
0.0
 40
1.000000000000001
100
AcDbArc
 50
90.35806447565336
 51
180.0
  0
ARC
  5
500
330
1F
100
AcDbEntity
  8
1
  6
CONTINUOUS
 62
     7
100
AcDbCircle
 10
827.443385418157
 20
303.3566145818429
 30
0.0
 40
35.62692808932276
100
AcDbArc
 50
291.1045726947987
 51
338.8954273052011
  0
ARC
  5
501
330
1F
100
AcDbEntity
  8
1
  6
CONTINUOUS
 62
     7
100
AcDbCircle
 10
804.4
 20
326.4
 30
0.0
 40
66.74041016788742
100
AcDbArc
 50
57.4877617572435
 51
122.5122382427565
  0
LINE
  5
502
330
1F
100
AcDbEntity
  8
1
  6
CONTINUOUS
 62
     7
100
AcDbLine
 10
481.7381488005129
 20
267.4
 30
0.0
 11
495.4646883382751
 21
267.4
 31
0.0
  0
ARC
  5
503
330
1F
100
AcDbEntity
  8
1
  6
CONTINUOUS
 62
     7
100
AcDbCircle
 10
804.4
 20
326.4
 30
0.0
 40
66.74041016788746
100
AcDbArc
 50
147.4877617572435
 51
212.5122382427565
  0
LINE
  5
504
330
1F
100
AcDbEntity
  8
1
  6
CONTINUOUS
 62
     7
100
AcDbLine
 10
838.5955745033859
 20
383.5307149487646
 30
0.0
 11
835.6977970245188
 21
385.1844307460726
 31
0.0
  0
LINE
  5
505
330
1F
100
AcDbEntity
  8
1
  6
CONTINUOUS
 62
     7
100
AcDbLine
 10
415.601418569394
 20
398.15
 30
0.0
 11
398.601418569394
 21
398.15
 31
0.0
  0
LINE
  5
506
330
1F
100
AcDbEntity
  8
1
  6
CONTINUOUS
 62
     7
100
AcDbLine
 10
497.8055630504849
 20
392.7044117075418
 30
0.0
 11
495.9476512514196
 21
385.7705904774487
 31
0.0
  0
LINE
  5
507
330
1F
100
AcDbEntity
  8
1
  6
CONTINUOUS
 62
     7
100
AcDbLine
 10
774.3127004534477
 20
266.9543230720249
 30
0.0
 11
774.3467746271587
 21
266.9352233163146
 31
0.0
  0
ARC
  5
508
330
1F
100
AcDbEntity
  8
1
  6
CONTINUOUS
 62
     7
100
AcDbCircle
 10
481.7381488005129
 20
266.9
 30
0.0
 40
0.5000000000000022
100
AcDbArc
 50
89.9999999999999
 51
164.9999999999997
  0
LINE
  5
509
330
1F
100
AcDbEntity
  8
1
  6
CONTINUOUS
 62
     7
100
AcDbLine
 10
768.5283815284047
 20
382.6806302168531
 30
0.0
 11
768.6557028521551
 21
382.6509907649675
 31
0.0
  0
CIRCLE
  5
50A
330
1F
100
AcDbEntity
  8
1
  6
CONTINUOUS
 62
   253
100
AcDbCircle
 10
-1105.249999999999
 20
326.4
 30
0.0
 40
54.91040869491142
  0
ARC
  5
50B
330
1F
100
AcDbEntity
  8
1
  6
CONTINUOUS
 62
     7
100
AcDbCircle
 10
781.4207617441429
 20
303.4207617441429
 30
0.0
 40
35.63644543923272
100
AcDbArc
 50
200.9898378277803
 51
249.0101621722197
  0
LINE
  5
50C
330
1F
100
AcDbEntity
  8
1
  6
CONTINUOUS
 62
     7
100
AcDbLine
 10
835.6977970245188
 20
267.6155692539274
 30
0.0
 11
838.5955745033858
 21
269.2692850512353
 31
0.0
  0
LINE
  5
50D
330
1F
100
AcDbEntity
  8
1
  6
CONTINUOUS
 62
     7
100
AcDbLine
 10
835.4532253728413
 20
267.443993476364
 30
0.0
 11
834.453225372833
 21
266.9352233337158
 31
0.0
  0
ARC
  5
50E
330
1F
100
AcDbEntity
  8
1
  6
CONTINUOUS
 62
     7
100
AcDbCircle
 10
827.3792382558571
 20
349.3792382558571
 30
0.0
 40
35.63644543923272
100
AcDbArc
 50
20.98983782778037
 51
69.01016217221962
  0
LINE
  5
50F
330
1F
100
AcDbEntity
  8
1
  6
CONTINUOUS
 62
     7
100
AcDbLine
 10
479.3972740883032
 20
260.0955882924582
 30
0.0
 11
481.2551858873684
 21
267.0294095225512
 31
0.0
  0
ARC
  5
510
330
1F
100
AcDbEntity
  8
1
  6
CONTINUOUS
 62
     7
100
AcDbCircle
 10
559.6014185693941
 20
255.7687206946198
 30
0.0
 40
0.9999999999999987
100
AcDbArc
 50
0.0
 51
89.64193552434662
  0
LINE
  5
511
330
1F
100
AcDbEntity
  8
1
  6
CONTINUOUS
 62
     7
100
AcDbLine
 10
3.672574513258711
 20
388.6123969181464
 30
0.0
 11
2.053762697485875
 21
381.3104086949112
 31
0.0
  0
LINE
  5
512
330
1F
100
AcDbEntity
  8
1
  6
CONTINUOUS
 62
     7
100
AcDbLine
 10
-244.8697373744704
 20
264.1876030818535
 30
0.0
 11
-243.2509255586976
 21
271.4895913050887
 31
0.0
  0
LINE
  5
513
330
1F
100
AcDbEntity
  8
1
  6
CONTINUOUS
 62
     7
100
AcDbLine
 10
-209.1462373025141
 20
271.4895913050887
 30
0.0
 11
-207.5274254867412
 21
264.1876030818535
 31
0.0
  0
LINE
  5
514
330
1F
100
AcDbEntity
  8
1
  6
CONTINUOUS
 62
     7
100
AcDbLine
 10
-339.5274254867412
 20
388.6123969181467
 30
0.0
 11
-341.1462373025141
 21
381.3104086949111
 31
0.0
  0
LINE
  5
515
330
1F
100
AcDbEntity
  8
1
  6
CONTINUOUS
 62
     7
100
AcDbLine
 10
-32.05092555869764
 20
381.3104086949112
 30
0.0
 11
-33.66973737447059
 21
388.6123969181469
 31
0.0
  0
LINE
  5
516
330
1F
100
AcDbEntity
  8
1
  6
CONTINUOUS
 62
     7
100
AcDbLine
 10
-60.06973737447056
 20
264.1876030818532
 30
0.0
 11
-58.45092555869761
 21
271.4895913050888
 31
0.0
  0
LINE
  5
517
330
1F
100
AcDbEntity
  8
1
  6
CONTINUOUS
 62
     7
100
AcDbLine
 10
-271.2697373744704
 20
264.1876030818532
 30
0.0
 11
-269.6509255586976
 21
271.4895913050883
 31
0.0
  0
LINE
  5
518
330
1F
100
AcDbEntity
  8
1
  6
CONTINUOUS
 62
     7
100
AcDbLine
 10
-207.5274254867412
 20
388.6123969181464
 30
0.0
 11
-209.1462373025141
 21
381.3104086949112
 31
0.0
  0
LINE
  5
519
330
1F
100
AcDbEntity
  8
1
  6
CONTINUOUS
 62
     7
100
AcDbLine
 10
-103.5462373025141
 20
271.4895913050887
 30
0.0
 11
-101.9274254867412
 21
264.1876030818535
 31
0.0
  0
LINE
  5
51A
330
1F
100
AcDbEntity
  8
1
  6
CONTINUOUS
 62
     7
100
AcDbLine
 10
-49.12742548674125
 20
388.6123969181467
 30
0.0
 11
-50.74623730251408
 21
381.3104086949116
 31
0.0
  0
ARC
  5
51B
330
1F
100
AcDbEntity
  8
1
  6
CONTINUOUS
 62
     7
100
AcDbCircle
 10
385.0203377984736
 20
387.7899263851818
 30
0.0
 40
3.799999999999986
100
AcDbArc
 50
12.49999999999997
 51
81.17634251609584
  0
ARC
  5
51C
330
1F
100
AcDbEntity
  8
1
  6
CONTINUOUS
 62
     7
100
AcDbCircle
 10
112.9824993403145
 20
265.0100736148181
 30
0.0
 40
3.799999999999984
100
AcDbArc
 50
192.4999999999999
 51
261.1763425160961
  0
LINE
  5
51D
330
1F
100
AcDbEntity
  8
1
  6
CONTINUOUS
 62
     7
100
AcDbLine
 10
-297.6697373744704
 20
264.1876030818538
 30
0.0
 11
-296.0509255586975
 21
271.4895913050888
 31
0.0
  0
LINE
  5
51E
330
1F
100
AcDbEntity
  8
1
  6
CONTINUOUS
 62
     7
100
AcDbLine
 10
-314.7462373025141
 20
271.4895913050887
 30
0.0
 11
-313.1274254867412
 21
264.187603081853
 31
0.0
  0
LINE
  5
51F
330
1F
100
AcDbEntity
  8
1
  6
CONTINUOUS
 62
     7
100
AcDbLine
 10
-288.346237302514
 20
271.4895913050882
 30
0.0
 11
-286.7274254867412
 21
264.187603081853
 31
0.0
  0
LINE
  5
520
330
1F
100
AcDbEntity
  8
1
  6
CONTINUOUS
 62
     7
100
AcDbLine
 10
-218.4697373744704
 20
264.1876030818535
 30
0.0
 11
-216.8509255586976
 21
271.4895913050887
 31
0.0
  0
LINE
  5
521
330
1F
100
AcDbEntity
  8
1
  6
CONTINUOUS
 62
     7
100
AcDbLine
 10
-112.8697373744705
 20
264.187603081853
 30
0.0
 11
-111.2509255586976
 21
271.4895913050887
 31
0.0
  0
LINE
  5
522
330
1F
100
AcDbEntity
  8
1
  6
CONTINUOUS
 62
     7
100
AcDbLine
 10
-182.7462373025141
 20
271.4895913050887
 30
0.0
 11
-181.1274254867413
 21
264.1876030818535
 31
0.0
  0
LINE
  5
523
330
1F
100
AcDbEntity
  8
1
  6
CONTINUOUS
 62
     7
100
AcDbLine
 10
-58.45092555869761
 20
381.3104086949111
 30
0.0
 11
-60.06973737447056
 21
388.6123969181467
 31
0.0
  0
LINE
  5
524
330
1F
100
AcDbEntity
  8
1
  6
CONTINUOUS
 62
     7
100
AcDbLine
 10
2.053762697485875
 20
271.4895913050887
 30
0.0
 11
3.672574513258711
 21
264.1876030818535
 31
0.0
  0
ARC
  5
525
330
1F
100
AcDbEntity
  8
1
  6
CONTINUOUS
 62
     7
100
AcDbCircle
 10
385.0203377984736
 20
265.0100736148181
 30
0.0
 40
3.800000000000002
100
AcDbArc
 50
278.8236574839042
 51
347.5000000000002
  0
LINE
  5
526
330
1F
100
AcDbEntity
  8
1
  6
CONTINUOUS
 62
     7
100
AcDbLine
 10
-261.9462373025141
 20
271.4895913050888
 30
0.0
 11
-260.3274254867412
 21
264.1876030818532
 31
0.0
  0
LINE
  5
527
330
1F
100
AcDbEntity
  8
1
  6
CONTINUOUS
 62
     7
100
AcDbLine
 10
-84.85092555869761
 20
381.3104086949111
 30
0.0
 11
-86.46973737447055
 21
388.6123969181467
 31
0.0
  0
LINE
  5
528
330
1F
100
AcDbEntity
  8
1
  6
CONTINUOUS
 62
     7
100
AcDbLine
 10
-86.46973737447055
 20
264.1876030818532
 30
0.0
 11
-84.85092555869761
 21
271.4895913050888
 31
0.0
  0
ARC
  5
529
330
1F
100
AcDbEntity
  8
1
  6
CONTINUOUS
 62
     7
100
AcDbCircle
 10
253.0203377984737
 20
265.0100736148181
 30
0.0
 40
3.8
100
AcDbArc
 50
278.8236574839045
 51
347.4999999999998
  0
LINE
  5
52A
330
1F
100
AcDbEntity
  8
1
  6
CONTINUOUS
 62
     7
100
AcDbLine
 10
-365.9274254867412
 20
388.6123969181462
 30
0.0
 11
-367.546237302514
 21
381.3104086949111
 31
0.0
  0
LINE
  5
52B
330
1F
100
AcDbEntity
  8
1
  6
CONTINUOUS
 62
     7
100
AcDbLine
 10
-139.2697373744705
 20
264.187603081853
 30
0.0
 11
-137.6509255586977
 21
271.4895913050882
 31
0.0
  0
LINE
  5
52C
330
1F
100
AcDbEntity
  8
1
  6
CONTINUOUS
 62
     7
100
AcDbLine
 10
-235.546237302514
 20
271.4895913050883
 30
0.0
 11
-233.9274254867412
 21
264.1876030818532
 31
0.0
  0
ARC
  5
52D
330
1F
100
AcDbEntity
  8
1
  6
CONTINUOUS
 62
     7
100
AcDbCircle
 10
218.5824993403145
 20
265.0100736148181
 30
0.0
 40
3.799999999999986
100
AcDbArc
 50
192.5
 51
261.1763425160952
  0
ARC
  5
52E
330
1F
100
AcDbEntity
  8
1
  6
CONTINUOUS
 62
     7
100
AcDbCircle
 10
-71.81750065968555
 20
387.7899263851818
 30
0.0
 40
3.800000000000002
100
AcDbArc
 50
98.82365748390394
 51
167.5000000000001
  0
LINE
  5
52F
330
1F
100
AcDbEntity
  8
1
  6
CONTINUOUS
 62
     7
100
AcDbLine
 10
-33.66973737447059
 20
264.187603081853
 30
0.0
 11
-32.05092555869764
 21
271.4895913050887
 31
0.0
  0
LINE
  5
530
330
1F
100
AcDbEntity
  8
1
  6
CONTINUOUS
 62
     7
100
AcDbLine
 10
-296.0509255586975
 20
381.3104086949111
 30
0.0
 11
-297.6697373744704
 21
388.6123969181462
 31
0.0
  0
LINE
  5
531
330
1F
100
AcDbEntity
  8
1
  6
CONTINUOUS
 62
     7
100
AcDbLine
 10
-367.546237302514
 20
271.4895913050888
 30
0.0
 11
-365.9274254867412
 21
264.1876030818538
 31
0.0
  0
LINE
  5
532
330
1F
100
AcDbEntity
  8
1
  6
CONTINUOUS
 62
     7
100
AcDbLine
 10
-190.4509255586976
 20
381.3104086949116
 30
0.0
 11
-192.0697373744705
 21
388.6123969181467
 31
0.0
  0
ARC
  5
533
330
1F
100
AcDbEntity
  8
1
  6
CONTINUOUS
 62
     7
100
AcDbCircle
 10
271.3824993403144
 20
387.7899263851818
 30
0.0
 40
3.8
100
AcDbArc
 50
98.82365748390438
 51
167.4999999999998
  0
LINE
  5
534
330
1F
100
AcDbEntity
  8
1
  6
CONTINUOUS
 62
     7
100
AcDbLine
 10
-192.0697373744705
 20
264.1876030818532
 30
0.0
 11
-190.4509255586976
 21
271.4895913050883
 31
0.0
  0
LINE
  5
535
330
1F
100
AcDbEntity
  8
1
  6
CONTINUOUS
 62
     7
100
AcDbLine
 10
-22.72742548674127
 20
388.6123969181467
 30
0.0
 11
-24.3462373025141
 21
381.3104086949116
 31
0.0
  0
LINE
  5
536
330
1F
100
AcDbEntity
  8
1
  6
CONTINUOUS
 62
     7
100
AcDbLine
 10
-24.3462373025141
 20
271.4895913050883
 30
0.0
 11
-22.72742548674127
 21
264.1876030818532
 31
0.0
  0
LINE
  5
537
330
1F
100
AcDbEntity
  8
1
  6
CONTINUOUS
 62
     7
100
AcDbLine
 10
-156.3462373025141
 20
271.4895913050883
 30
0.0
 11
-154.7274254867413
 21
264.1876030818532
 31
0.0
  0
ARC
  5
538
330
1F
100
AcDbEntity
  8
1
  6
CONTINUOUS
 62
     7
100
AcDbCircle
 10
7.382499340314499
 20
265.0100736148181
 30
0.0
 40
3.799999999999984
100
AcDbArc
 50
192.4999999999999
 51
261.1763425160961
  0
LINE
  5
539
330
1F
100
AcDbEntity
  8
1
  6
CONTINUOUS
 62
     7
100
AcDbLine
 10
-128.3274254867413
 20
388.6123969181462
 30
0.0
 11
-129.9462373025141
 21
381.3104086949111
 31
0.0
  0
LINE
  5
53A
330
1F
100
AcDbEntity
  8
1
  6
CONTINUOUS
 62
     7
100
AcDbLine
 10
-313.1274254867412
 20
388.6123969181469
 30
0.0
 11
-314.7462373025141
 21
381.3104086949112
 31
0.0
  0
LINE
  5
53B
330
1F
100
AcDbEntity
  8
1
  6
CONTINUOUS
 62
     7
100
AcDbLine
 10
-77.14623730251407
 20
271.4895913050887
 30
0.0
 11
-75.52742548674122
 21
264.1876030818535
 31
0.0
  0
ARC
  5
53C
330
1F
100
AcDbEntity
  8
1
  6
CONTINUOUS
 62
     7
100
AcDbCircle
 10
350.5824993403144
 20
265.0100736148181
 30
0.0
 40
3.799999999999987
100
AcDbArc
 50
192.5000000000001
 51
261.176342516096
  0
LINE
  5
53D
330
1F
100
AcDbEntity
  8
1
  6
CONTINUOUS
 62
     7
100
AcDbLine
 10
-165.6697373744705
 20
264.1876030818532
 30
0.0
 11
-164.0509255586975
 21
271.4895913050888
 31
0.0
  0
LINE
  5
53E
330
1F
100
AcDbEntity
  8
1
  6
CONTINUOUS
 62
     7
100
AcDbLine
 10
-348.8509255586976
 20
381.3104086949112
 30
0.0
 11
-350.4697373744705
 21
388.6123969181464
 31
0.0
  0
ARC
  5
53F
330
1F
100
AcDbEntity
  8
1
  6
CONTINUOUS
 62
     7
100
AcDbCircle
 10
218.5824993403145
 20
387.7899263851818
 30
0.0
 40
3.799999999999997
100
AcDbArc
 50
98.82365748390481
 51
167.5
  0
ARC
  5
540
330
1F
100
AcDbEntity
  8
1
  6
CONTINUOUS
 62
     7
100
AcDbCircle
 10
350.5824993403144
 20
387.7899263851818
 30
0.0
 40
3.800000000000002
100
AcDbArc
 50
98.82365748390394
 51
167.4999999999999
  0
LINE
  5
541
330
1F
100
AcDbEntity
  8
1
  6
CONTINUOUS
 62
     7
100
AcDbLine
 10
-75.52742548674122
 20
388.6123969181464
 30
0.0
 11
-77.14623730251407
 21
381.3104086949112
 31
0.0
  0
LINE
  5
542
330
1F
100
AcDbEntity
  8
1
  6
CONTINUOUS
 62
     7
100
AcDbLine
 10
-350.4697373744705
 20
264.1876030818535
 30
0.0
 11
-348.8509255586976
 21
271.4895913050887
 31
0.0
  0
LINE
  5
543
330
1F
100
AcDbEntity
  8
1
  6
CONTINUOUS
 62
     7
100
AcDbLine
 10
-243.2509255586976
 20
381.3104086949112
 30
0.0
 11
-244.8697373744704
 21
388.6123969181464
 31
0.0
  0
LINE
  5
544
330
1F
100
AcDbEntity
  8
1
  6
CONTINUOUS
 62
     7
100
AcDbLine
 10
-181.1274254867413
 20
388.6123969181464
 30
0.0
 11
-182.7462373025141
 21
381.3104086949112
 31
0.0
  0
LINE
  5
545
330
1F
100
AcDbEntity
  8
1
  6
CONTINUOUS
 62
     7
100
AcDbLine
 10
-324.0697373744705
 20
264.187603081853
 30
0.0
 11
-322.4509255586976
 21
271.4895913050882
 31
0.0
  0
LINE
  5
546
330
1F
100
AcDbEntity
  8
1
  6
CONTINUOUS
 62
     7
100
AcDbLine
 10
-154.7274254867413
 20
388.6123969181467
 30
0.0
 11
-156.3462373025141
 21
381.3104086949116
 31
0.0
  0
LINE
  5
547
330
1F
100
AcDbEntity
  8
1
  6
CONTINUOUS
 62
     7
100
AcDbLine
 10
-137.6509255586977
 20
381.3104086949117
 30
0.0
 11
-139.2697373744705
 21
388.6123969181469
 31
0.0
  0
LINE
  5
548
330
1F
100
AcDbEntity
  8
1
  6
CONTINUOUS
 62
     7
100
AcDbLine
 10
-216.8509255586976
 20
381.3104086949112
 30
0.0
 11
-218.4697373744704
 21
388.6123969181464
 31
0.0
  0
LINE
  5
549
330
1F
100
AcDbEntity
  8
1
  6
CONTINUOUS
 62
     7
100
AcDbLine
 10
-286.7274254867412
 20
388.6123969181469
 30
0.0
 11
-288.346237302514
 21
381.3104086949117
 31
0.0
  0
LINE
  5
54A
330
1F
100
AcDbEntity
  8
1
  6
CONTINUOUS
 62
     7
100
AcDbLine
 10
-50.74623730251408
 20
271.4895913050883
 30
0.0
 11
-49.12742548674125
 21
264.1876030818532
 31
0.0
  0
LINE
  5
54B
330
1F
100
AcDbEntity
  8
1
  6
CONTINUOUS
 62
     7
100
AcDbLine
 10
-164.0509255586975
 20
381.3104086949111
 30
0.0
 11
-165.6697373744705
 21
388.6123969181467
 31
0.0
  0
LINE
  5
54C
330
1F
100
AcDbEntity
  8
1
  6
CONTINUOUS
 62
     7
100
AcDbLine
 10
-260.3274254867412
 20
388.6123969181467
 30
0.0
 11
-261.9462373025141
 21
381.3104086949111
 31
0.0
  0
LINE
  5
54D
330
1F
100
AcDbEntity
  8
1
  6
CONTINUOUS
 62
     7
100
AcDbLine
 10
-322.4509255586976
 20
381.3104086949117
 30
0.0
 11
-324.0697373744705
 21
388.6123969181469
 31
0.0
  0
ARC
  5
54E
330
1F
100
AcDbEntity
  8
1
  6
CONTINUOUS
 62
     7
100
AcDbCircle
 10
279.4203377984737
 20
387.7899263851818
 30
0.0
 40
3.799999999999987
100
AcDbArc
 50
12.50000000000012
 51
81.17634251609606
  0
ARC
  5
54F
330
1F
100
AcDbEntity
  8
1
  6
CONTINUOUS
 62
     7
100
AcDbCircle
 10
68.22033779847376
 20
265.0100736148181
 30
0.0
 40
3.800000000000002
100
AcDbArc
 50
278.8236574839039
 51
347.4999999999998
  0
LINE
  5
550
330
1F
100
AcDbEntity
  8
1
  6
CONTINUOUS
 62
     7
100
AcDbLine
 10
-269.6509255586976
 20
381.3104086949116
 30
0.0
 11
-271.2697373744704
 21
388.6123969181467
 31
0.0
  0
LINE
  5
551
330
1F
100
AcDbEntity
  8
1
  6
CONTINUOUS
 62
   253
100
AcDbLine
 10
30.07257451325874
 20
264.1876030818534
 30
0.0
 11
30.07257451325874
 21
388.6123969181466
 31
0.0
  0
LINE
  5
552
330
1F
100
AcDbEntity
  8
1
  6
CONTINUOUS
 62
   253
100
AcDbLine
 10
-274.396765519446
 20
261.2550461238375
 30
0.0
 11
-274.396765519446
 21
391.5449538761624
 31
0.0
  0
LINE
  5
553
330
1F
100
AcDbEntity
  8
1
  6
CONTINUOUS
 62
   253
100
AcDbLine
 10
253.603234480554
 20
261.2550461238375
 30
0.0
 11
253.603234480554
 21
391.5449538761624
 31
0.0
  0
LINE
  5
554
330
1F
100
AcDbEntity
  8
1
  6
CONTINUOUS
 62
   253
100
AcDbLine
 10
165.1996026582343
 20
261.2550461238375
 30
0.0
 11
165.1996026582343
 21
391.5449538761624
 31
0.0
  0
LINE
  5
555
330
1F
100
AcDbEntity
  8
1
  6
CONTINUOUS
 62
   253
100
AcDbLine
 10
-350.4697373744705
 20
264.1876030818533
 30
0.0
 11
-350.4697373744705
 21
388.6123969181466
 31
0.0
  0
ARC
  5
556
330
1F
100
AcDbEntity
  8
1
  6
CONTINUOUS
 62
     7
100
AcDbCircle
 10
279.4203377984737
 20
265.0100736148181
 30
0.0
 40
3.800000000000002
100
AcDbArc
 50
278.8236574839039
 51
347.4999999999998
  0
LINE
  5
557
330
1F
100
AcDbEntity
  8
1
  6
CONTINUOUS
 62
   253
100
AcDbLine
 10
297.1996026582342
 20
261.2550461238375
 30
0.0
 11
297.1996026582342
 21
391.5449538761624
 31
0.0
  0
LINE
  5
558
330
1F
100
AcDbEntity
  8
1
  6
CONTINUOUS
 62
   253
100
AcDbLine
 10
-218.4697373744704
 20
264.1876030818533
 30
0.0
 11
-218.4697373744704
 21
388.6123969181466
 31
0.0
  0
LINE
  5
559
330
1F
100
AcDbEntity
  8
1
  6
CONTINUOUS
 62
   253
100
AcDbLine
 10
191.5996026582342
 20
261.2550461238375
 30
0.0
 11
191.5996026582342
 21
391.5449538761624
 31
0.0
  0
LINE
  5
55A
330
1F
100
AcDbEntity
  8
1
  6
CONTINUOUS
 62
   253
100
AcDbLine
 10
346.8725745132587
 20
264.1876030818534
 30
0.0
 11
346.8725745132587
 21
388.6123969181466
 31
0.0
  0
LINE
  5
55B
330
1F
100
AcDbEntity
  8
1
  6
CONTINUOUS
 62
   253
100
AcDbLine
 10
-46.00039734176579
 20
261.2550461238375
 30
0.0
 11
-46.00039734176579
 21
391.5449538761624
 31
0.0
  0
LINE
  5
55C
330
1F
100
AcDbEntity
  8
1
  6
CONTINUOUS
 62
   253
100
AcDbLine
 10
214.8725745132587
 20
264.1876030818534
 30
0.0
 11
214.8725745132587
 21
388.6123969181466
 31
0.0
  0
LINE
  5
55D
330
1F
100
AcDbEntity
  8
1
  6
CONTINUOUS
 62
   253
100
AcDbLine
 10
71.9302626255295
 20
264.1876030818534
 30
0.0
 11
71.9302626255295
 21
388.6123969181466
 31
0.0
  0
LINE
  5
55E
330
1F
100
AcDbEntity
  8
1
  6
CONTINUOUS
 62
   253
100
AcDbLine
 10
-230.8003973417657
 20
261.2550461238375
 30
0.0
 11
-230.8003973417657
 21
391.5449538761624
 31
0.0
  0
LINE
  5
55F
330
1F
100
AcDbEntity
  8
1
  6
CONTINUOUS
 62
   253
100
AcDbLine
 10
-101.9274254867412
 20
264.1876030818534
 30
0.0
 11
-101.9274254867412
 21
388.6123969181466
 31
0.0
  0
LINE
  5
560
330
1F
100
AcDbEntity
  8
1
  6
CONTINUOUS
 62
   253
100
AcDbLine
 10
-336.4003973417657
 20
261.2550461238375
 30
0.0
 11
-336.4003973417657
 21
391.5449538761624
 31
0.0
  0
LINE
  5
561
330
1F
100
AcDbEntity
  8
1
  6
CONTINUOUS
 62
     7
100
AcDbLine
 10
-129.9462373025141
 20
271.4895913050888
 30
0.0
 11
-128.3274254867413
 21
264.1876030818538
 31
0.0
  0
LINE
  5
562
330
1F
100
AcDbEntity
  8
1
  6
CONTINUOUS
 62
   253
100
AcDbLine
 10
-257.2003973417657
 20
261.2550461238375
 30
0.0
 11
-257.2003973417657
 21
391.5449538761624
 31
0.0
  0
LINE
  5
563
330
1F
100
AcDbEntity
  8
1
  6
CONTINUOUS
 62
   253
100
AcDbLine
 10
109.2725745132587
 20
264.1876030818533
 30
0.0
 11
109.2725745132587
 21
388.6123969181466
 31
0.0
  0
LINE
  5
564
330
1F
100
AcDbEntity
  8
1
  6
CONTINUOUS
 62
     7
100
AcDbLine
 10
-111.2509255586976
 20
381.3104086949112
 30
0.0
 11
-112.8697373744705
 21
388.6123969181469
 31
0.0
  0
LINE
  5
565
330
1F
100
AcDbEntity
  8
1
  6
CONTINUOUS
 62
   253
100
AcDbLine
 10
-207.5274254867412
 20
264.1876030818533
 30
0.0
 11
-207.5274254867412
 21
388.6123969181466
 31
0.0
  0
LINE
  5
566
330
1F
100
AcDbEntity
  8
1
  6
CONTINUOUS
 62
   253
100
AcDbLine
 10
3.672574513258711
 20
264.1876030818533
 30
0.0
 11
3.672574513258711
 21
388.6123969181466
 31
0.0
  0
LINE
  5
567
330
1F
100
AcDbEntity
  8
1
  6
CONTINUOUS
 62
   253
100
AcDbLine
 10
-19.60039734176582
 20
261.2550461238375
 30
0.0
 11
-19.60039734176582
 21
391.5449538761624
 31
0.0
  0
LINE
  5
568
330
1F
100
AcDbEntity
  8
1
  6
CONTINUOUS
 62
   253
100
AcDbLine
 10
-151.6003973417657
 20
261.2550461238375
 30
0.0
 11
-151.6003973417657
 21
391.5449538761624
 31
0.0
  0
LINE
  5
569
330
1F
100
AcDbEntity
  8
1
  6
CONTINUOUS
 62
   253
100
AcDbLine
 10
-112.8697373744705
 20
264.1876030818533
 30
0.0
 11
-112.8697373744705
 21
388.6123969181466
 31
0.0
  0
LINE
  5
56A
330
1F
100
AcDbEntity
  8
1
  6
CONTINUOUS
 62
   253
100
AcDbLine
 10
332.803234480554
 20
261.2550461238375
 30
0.0
 11
332.803234480554
 21
391.5449538761624
 31
0.0
  0
LINE
  5
56B
330
1F
100
AcDbEntity
  8
1
  6
CONTINUOUS
 62
   253
100
AcDbLine
 10
359.2032344805539
 20
261.2550461238375
 30
0.0
 11
359.2032344805539
 21
391.5449538761624
 31
0.0
  0
LINE
  5
56C
330
1F
100
AcDbEntity
  8
1
  6
CONTINUOUS
 62
   253
100
AcDbLine
 10
283.1302626255294
 20
264.1876030818534
 30
0.0
 11
283.1302626255294
 21
388.6123969181466
 31
0.0
  0
LINE
  5
56D
330
1F
100
AcDbEntity
  8
1
  6
CONTINUOUS
 62
   253
100
AcDbLine
 10
16.00323448055398
 20
261.2550461238375
 30
0.0
 11
16.00323448055398
 21
391.5449538761624
 31
0.0
  0
LINE
  5
56E
330
1F
100
AcDbEntity
  8
1
  6
CONTINUOUS
 62
     7
100
AcDbLine
 10
-233.9274254867412
 20
388.6123969181467
 30
0.0
 11
-235.546237302514
 21
381.3104086949116
 31
0.0
  0
LINE
  5
56F
330
1F
100
AcDbEntity
  8
1
  6
CONTINUOUS
 62
   253
100
AcDbLine
 10
-168.796765519446
 20
261.2550461238375
 30
0.0
 11
-168.796765519446
 21
391.5449538761624
 31
0.0
  0
LINE
  5
570
330
1F
100
AcDbEntity
  8
1
  6
CONTINUOUS
 62
   253
100
AcDbLine
 10
-125.2003973417657
 20
261.2550461238375
 30
0.0
 11
-125.2003973417657
 21
391.5449538761624
 31
0.0
  0
LINE
  5
571
330
1F
100
AcDbEntity
  8
1
  6
CONTINUOUS
 62
   253
100
AcDbLine
 10
-139.2697373744705
 20
264.1876030818533
 30
0.0
 11
-139.2697373744705
 21
388.6123969181466
 31
0.0
  0
LINE
  5
572
330
1F
100
AcDbEntity
  8
1
  6
CONTINUOUS
 62
   253
100
AcDbLine
 10
-286.7274254867412
 20
264.1876030818533
 30
0.0
 11
-286.7274254867412
 21
388.6123969181466
 31
0.0
  0
LINE
  5
573
330
1F
100
AcDbEntity
  8
1
  6
CONTINUOUS
 62
   253
100
AcDbLine
 10
-313.1274254867412
 20
264.1876030818533
 30
0.0
 11
-313.1274254867412
 21
388.6123969181466
 31
0.0
  0
LINE
  5
574
330
1F
100
AcDbEntity
  8
1
  6
CONTINUOUS
 62
   253
100
AcDbLine
 10
148.003234480554
 20
261.2550461238375
 30
0.0
 11
148.003234480554
 21
391.5449538761624
 31
0.0
  0
LINE
  5
575
330
1F
100
AcDbEntity
  8
1
  6
CONTINUOUS
 62
   253
100
AcDbLine
 10
-33.66973737447059
 20
264.1876030818534
 30
0.0
 11
-33.66973737447059
 21
388.6123969181466
 31
0.0
  0
LINE
  5
576
330
1F
100
AcDbEntity
  8
1
  6
CONTINUOUS
 62
   253
100
AcDbLine
 10
98.33026262552953
 20
264.1876030818533
 30
0.0
 11
98.33026262552953
 21
388.6123969181466
 31
0.0
  0
LINE
  5
577
330
1F
100
AcDbEntity
  8
1
  6
CONTINUOUS
 62
   253
100
AcDbLine
 10
-63.19676551944602
 20
261.2550461238375
 30
0.0
 11
-63.19676551944602
 21
391.5449538761624
 31
0.0
  0
LINE
  5
578
330
1F
100
AcDbEntity
  8
1
  6
CONTINUOUS
 62
   253
100
AcDbLine
 10
376.3996026582341
 20
261.2550461238375
 30
0.0
 11
376.3996026582341
 21
391.5449538761624
 31
0.0
  0
LINE
  5
579
330
1F
100
AcDbEntity
  8
1
  6
CONTINUOUS
 62
   253
100
AcDbLine
 10
270.7996026582342
 20
261.2550461238375
 30
0.0
 11
270.7996026582342
 21
391.5449538761624
 31
0.0
  0
LINE
  5
57A
330
1F
100
AcDbEntity
  8
1
  6
CONTINUOUS
 62
   253
100
AcDbLine
 10
-181.1274254867413
 20
264.1876030818533
 30
0.0
 11
-181.1274254867413
 21
388.6123969181466
 31
0.0
  0
LINE
  5
57B
330
1F
100
AcDbEntity
  8
1
  6
CONTINUOUS
 62
   253
100
AcDbLine
 10
-89.59676551944601
 20
261.2550461238375
 30
0.0
 11
-89.59676551944601
 21
391.5449538761624
 31
0.0
  0
LINE
  5
57C
330
1F
100
AcDbEntity
  8
1
  6
CONTINUOUS
 62
     7
100
AcDbLine
 10
-341.1462373025141
 20
271.4895913050888
 30
0.0
 11
-339.5274254867412
 21
264.1876030818532
 31
0.0
  0
LINE
  5
57D
330
1F
100
AcDbEntity
  8
1
  6
CONTINUOUS
 62
   253
100
AcDbLine
 10
-7.269737374470495
 20
264.1876030818533
 30
0.0
 11
-7.269737374470495
 21
388.6123969181466
 31
0.0
  0
LINE
  5
57E
330
1F
100
AcDbEntity
  8
1
  6
CONTINUOUS
 62
   253
100
AcDbLine
 10
42.40323448055401
 20
261.2550461238375
 30
0.0
 11
42.40323448055401
 21
391.5449538761624
 31
0.0
  0
LINE
  5
57F
330
1F
100
AcDbEntity
  8
1
  6
CONTINUOUS
 62
   253
100
AcDbLine
 10
-362.8003973417657
 20
261.2550461238375
 30
0.0
 11
-362.8003973417657
 21
391.5449538761624
 31
0.0
  0
LINE
  5
580
330
1F
100
AcDbEntity
  8
1
  6
CONTINUOUS
 62
   253
100
AcDbLine
 10
85.99960265823427
 20
261.2550461238375
 30
0.0
 11
85.99960265823427
 21
391.5449538761624
 31
0.0
  0
LINE
  5
581
330
1F
100
AcDbEntity
  8
1
  6
CONTINUOUS
 62
   253
100
AcDbLine
 10
227.203234480554
 20
261.2550461238375
 30
0.0
 11
227.203234480554
 21
391.5449538761624
 31
0.0
  0
LINE
  5
582
330
1F
100
AcDbEntity
  8
1
  6
CONTINUOUS
 62
   253
100
AcDbLine
 10
59.59960265823423
 20
261.2550461238375
 30
0.0
 11
59.59960265823423
 21
391.5449538761624
 31
0.0
  0
LINE
  5
583
330
1F
100
AcDbEntity
  8
1
  6
CONTINUOUS
 62
     7
100
AcDbLine
 10
-101.9274254867412
 20
388.6123969181464
 30
0.0
 11
-103.5462373025141
 21
381.3104086949112
 31
0.0
  0
LINE
  5
584
330
1F
100
AcDbEntity
  8
1
  6
CONTINUOUS
 62
   253
100
AcDbLine
 10
241.2725745132587
 20
264.1876030818534
 30
0.0
 11
241.2725745132587
 21
388.6123969181466
 31
0.0
  0
LINE
  5
585
330
1F
100
AcDbEntity
  8
1
  6
CONTINUOUS
 62
   253
100
AcDbLine
 10
388.7302626255294
 20
264.1876030818534
 30
0.0
 11
388.7302626255294
 21
388.6123969181466
 31
0.0
  0
LINE
  5
586
330
1F
100
AcDbEntity
  8
1
  6
CONTINUOUS
 62
   253
100
AcDbLine
 10
-300.796765519446
 20
261.2550461238375
 30
0.0
 11
-300.796765519446
 21
391.5449538761624
 31
0.0
  0
LINE
  5
587
330
1F
100
AcDbEntity
  8
1
  6
CONTINUOUS
 62
   253
100
AcDbLine
 10
203.9302626255294
 20
264.1876030818534
 30
0.0
 11
203.9302626255294
 21
388.6123969181466
 31
0.0
  0
LINE
  5
588
330
1F
100
AcDbEntity
  8
1
  6
CONTINUOUS
 62
   253
100
AcDbLine
 10
-195.196765519446
 20
261.2550461238375
 30
0.0
 11
-195.196765519446
 21
391.5449538761624
 31
0.0
  0
LINE
  5
589
330
1F
100
AcDbEntity
  8
1
  6
CONTINUOUS
 62
   253
100
AcDbLine
 10
121.603234480554
 20
261.2550461238375
 30
0.0
 11
121.603234480554
 21
391.5449538761624
 31
0.0
  0
LINE
  5
58A
330
1F
100
AcDbEntity
  8
1
  6
CONTINUOUS
 62
   253
100
AcDbLine
 10
135.6725745132588
 20
264.1876030818534
 30
0.0
 11
135.6725745132588
 21
388.6123969181466
 31
0.0
  0
LINE
  5
58B
330
1F
100
AcDbEntity
  8
1
  6
CONTINUOUS
 62
   253
100
AcDbLine
 10
-75.52742548674122
 20
264.1876030818534
 30
0.0
 11
-75.52742548674122
 21
388.6123969181466
 31
0.0
  0
LINE
  5
58C
330
1F
100
AcDbEntity
  8
1
  6
CONTINUOUS
 62
   253
100
AcDbLine
 10
177.5302626255294
 20
264.1876030818534
 30
0.0
 11
177.5302626255294
 21
388.6123969181466
 31
0.0
  0
LINE
  5
58D
330
1F
100
AcDbEntity
  8
1
  6
CONTINUOUS
 62
   253
100
AcDbLine
 10
47.14907444130235
 20
271.4895913050886
 30
0.0
 11
47.14907444130235
 21
381.3104086949113
 31
0.0
  0
LINE
  5
58E
330
1F
100
AcDbEntity
  8
1
  6
CONTINUOUS
 62
   253
100
AcDbLine
 10
186.8537626974858
 20
271.4895913050885
 30
0.0
 11
186.8537626974858
 21
381.3104086949114
 31
0.0
  0
LINE
  5
58F
330
1F
100
AcDbEntity
  8
1
  6
CONTINUOUS
 62
   253
100
AcDbLine
 10
-129.9462373025141
 20
271.4895913050885
 30
0.0
 11
-129.9462373025141
 21
381.3104086949114
 31
0.0
  0
LINE
  5
590
330
1F
100
AcDbEntity
  8
1
  6
CONTINUOUS
 62
   253
100
AcDbLine
 10
-406.396765519446
 20
261.2550461238375
 30
0.0
 11
-406.396765519446
 21
391.5449538761624
 31
0.0
  0
LINE
  5
591
330
1F
100
AcDbEntity
  8
1
  6
CONTINUOUS
 62
   253
100
AcDbLine
 10
-164.0509255586975
 20
271.4895913050885
 30
0.0
 11
-164.0509255586975
 21
381.3104086949114
 31
0.0
  0
LINE
  5
592
330
1F
100
AcDbEntity
  8
1
  6
CONTINUOUS
 62
   253
100
AcDbLine
 10
-379.996765519446
 20
261.2550461238375
 30
0.0
 11
-379.996765519446
 21
391.5449538761624
 31
0.0
  0
LINE
  5
593
330
1F
100
AcDbEntity
  8
1
  6
CONTINUOUS
 62
   253
100
AcDbLine
 10
-468.4003973417657
 20
261.2550461238375
 30
0.0
 11
-468.4003973417657
 21
391.5449538761624
 31
0.0
  0
LINE
  5
594
330
1F
100
AcDbEntity
  8
1
  6
CONTINUOUS
 62
   253
100
AcDbLine
 10
-574.0003973417657
 20
261.2550461238375
 30
0.0
 11
-574.0003973417657
 21
391.5449538761624
 31
0.0
  0
LINE
  5
595
330
1F
100
AcDbEntity
  8
1
  6
CONTINUOUS
 62
   253
100
AcDbLine
 10
-58.45092555869761
 20
271.4895913050885
 30
0.0
 11
-58.45092555869761
 21
381.3104086949114
 31
0.0
  0
LINE
  5
596
330
1F
100
AcDbEntity
  8
1
  6
CENTER
 62
     1
100
AcDbLine
 10
-1105.249999999999
 20
252.6499999999999
 30
0.0
 11
-1105.249999999999
 21
400.15
 31
0.0
  0
ARC
  5
597
330
1F
100
AcDbEntity
  8
1
  6
CONTINUOUS
 62
     7
100
AcDbCircle
 10
-516.5985814306058
 20
290.8999999999999
 30
0.0
 40
29.99999999999999
100
AcDbArc
 50
261.1763425160957
 51
278.8236574839043
  0
LINE
  5
598
330
1F
100
AcDbEntity
  8
1
  6
CONTINUOUS
 62
   253
100
AcDbLine
 10
-235.546237302514
 20
271.4895913050885
 30
0.0
 11
-235.546237302514
 21
381.3104086949114
 31
0.0
  0
LINE
  5
599
330
1F
100
AcDbEntity
  8
1
  6
CONTINUOUS
 62
   253
100
AcDbLine
 10
20.74907444130232
 20
271.4895913050885
 30
0.0
 11
20.74907444130232
 21
381.3104086949114
 31
0.0
  0
LINE
  5
59A
330
1F
100
AcDbEntity
  8
1
  6
CONTINUOUS
 62
   253
100
AcDbLine
 10
231.9490744413023
 20
271.4895913050885
 30
0.0
 11
231.9490744413023
 21
381.3104086949114
 31
0.0
  0
LINE
  5
59B
330
1F
100
AcDbEntity
  8
1
  6
CONTINUOUS
 62
   253
100
AcDbLine
 10
-480.8509255586975
 20
271.4895913050885
 30
0.0
 11
-480.8509255586975
 21
381.3104086949114
 31
0.0
  0
ARC
  5
59C
330
1F
100
AcDbEntity
  8
1
  6
CONTINUOUS
 62
     7
100
AcDbCircle
 10
-622.1985814306057
 20
290.8999999999999
 30
0.0
 40
29.99999999999999
100
AcDbArc
 50
261.1763425160955
 51
278.8236574839043
  0
LINE
  5
59D
330
1F
100
AcDbEntity
  8
1
  6
CENTER
 62
     1
100
AcDbLine
 10
804.4
 20
252.6499999999999
 30
0.0
 11
804.4
 21
400.15
 31
0.0
  0
LINE
  5
59E
330
1F
100
AcDbEntity
  8
1
  6
CONTINUOUS
 62
   253
100
AcDbLine
 10
-735.5274254867412
 20
264.1876030818533
 30
0.0
 11
-735.5274254867412
 21
388.6123969181466
 31
0.0
  0
LINE
  5
59F
330
1F
100
AcDbEntity
  8
1
  6
CONTINUOUS
 62
   253
100
AcDbLine
 10
-789.946237302514
 20
271.4895913050886
 30
0.0
 11
-789.946237302514
 21
381.3104086949113
 31
0.0
  0
LINE
  5
5A0
330
1F
100
AcDbEntity
  8
1
  6
CONTINUOUS
 62
   253
100
AcDbLine
 10
-629.9274254867411
 20
264.1876030818533
 30
0.0
 11
-629.9274254867411
 21
388.6123969181466
 31
0.0
  0
LINE
  5
5A1
330
1F
100
AcDbEntity
  8
1
  6
CONTINUOUS
 62
   253
100
AcDbLine
 10
292.4537626974858
 20
271.4895913050886
 30
0.0
 11
292.4537626974858
 21
381.3104086949113
 31
0.0
  0
LINE
  5
5A2
330
1F
100
AcDbEntity
  8
1
  6
CONTINUOUS
 62
   253
100
AcDbLine
 10
-785.2003973417657
 20
261.2550461238375
 30
0.0
 11
-785.2003973417657
 21
391.5449538761624
 31
0.0
  0
LINE
  5
5A3
330
1F
100
AcDbEntity
  8
1
  6
CONTINUOUS
 62
   253
100
AcDbLine
 10
-442.0003973417657
 20
261.2550461238375
 30
0.0
 11
-442.0003973417657
 21
391.5449538761624
 31
0.0
  0
LINE
  5
5A4
330
1F
100
AcDbEntity
  8
1
  6
CONTINUOUS
 62
   253
100
AcDbLine
 10
-401.6509255586976
 20
271.4895913050885
 30
0.0
 11
-401.6509255586976
 21
381.3104086949114
 31
0.0
  0
LINE
  5
5A5
330
1F
100
AcDbEntity
  8
1
  6
CONTINUOUS
 62
   253
100
AcDbLine
 10
-84.85092555869761
 20
271.4895913050885
 30
0.0
 11
-84.85092555869761
 21
381.3104086949114
 31
0.0
  0
LINE
  5
5A6
330
1F
100
AcDbEntity
  8
1
  6
CONTINUOUS
 62
   253
100
AcDbLine
 10
-190.4509255586976
 20
271.4895913050885
 30
0.0
 11
-190.4509255586976
 21
381.3104086949114
 31
0.0
  0
LINE
  5
5A7
330
1F
100
AcDbEntity
  8
1
  6
CONTINUOUS
 62
   253
100
AcDbLine
 10
-156.3462373025141
 20
271.4895913050885
 30
0.0
 11
-156.3462373025141
 21
381.3104086949114
 31
0.0
  0
LINE
  5
5A8
330
1F
100
AcDbEntity
  8
1
  6
CONTINUOUS
 62
   253
100
AcDbLine
 10
152.7490744413024
 20
271.4895913050886
 30
0.0
 11
152.7490744413024
 21
381.3104086949113
 31
0.0
  0
LINE
  5
5A9
330
1F
100
AcDbEntity
  8
1
  6
CONTINUOUS
 62
   253
100
AcDbLine
 10
-261.9462373025141
 20
271.4895913050885
 30
0.0
 11
-261.9462373025141
 21
381.3104086949114
 31
0.0
  0
LINE
  5
5AA
330
1F
100
AcDbEntity
  8
1
  6
CENTER
 62
     1
100
AcDbLine
 10
730.65
 20
326.4
 30
0.0
 11
878.15
 21
326.4
 31
0.0
  0
LINE
  5
5AB
330
1F
100
AcDbEntity
  8
1
  6
CONTINUOUS
 62
   253
100
AcDbLine
 10
126.3490744413023
 20
271.4895913050885
 30
0.0
 11
126.3490744413023
 21
381.3104086949114
 31
0.0
  0
LINE
  5
5AC
330
1F
100
AcDbEntity
  8
1
  6
CONTINUOUS
 62
   253
100
AcDbLine
 10
-591.1967655194459
 20
261.2550461238375
 30
0.0
 11
-591.1967655194459
 21
391.5449538761624
 31
0.0
  0
LINE
  5
5AD
330
1F
100
AcDbEntity
  8
1
  6
CONTINUOUS
 62
   253
100
AcDbLine
 10
-696.7967655194459
 20
261.2550461238375
 30
0.0
 11
-696.7967655194459
 21
391.5449538761624
 31
0.0
  0
LINE
  5
5AE
330
1F
100
AcDbEntity
  8
1
  6
CONTINUOUS
 62
   253
100
AcDbLine
 10
-802.3967655194459
 20
261.2550461238375
 30
0.0
 11
-802.3967655194459
 21
391.5449538761624
 31
0.0
  0
ARC
  5
5AF
330
1F
100
AcDbEntity
  8
1
  6
CONTINUOUS
 62
     7
100
AcDbCircle
 10
-384.5985814306058
 20
290.8999999999999
 30
0.0
 40
29.99999999999999
100
AcDbArc
 50
261.1763425160955
 51
278.8236574839043
  0
LINE
  5
5B0
330
1F
100
AcDbEntity
  8
1
  6
CONTINUOUS
 62
   253
100
AcDbLine
 10
-578.746237302514
 20
271.4895913050885
 30
0.0
 11
-578.746237302514
 21
381.3104086949114
 31
0.0
  0
ARC
  5
5B1
330
1F
100
AcDbEntity
  8
1
  6
CONTINUOUS
 62
     7
100
AcDbCircle
 10
-437.3985814306059
 20
290.8999999999999
 30
0.0
 40
30.00000000000001
100
AcDbArc
 50
261.1763425160957
 51
278.8236574839045
  0
LINE
  5
5B2
330
1F
100
AcDbEntity
  8
1
  6
CONTINUOUS
 62
   253
100
AcDbLine
 10
-296.0509255586975
 20
271.4895913050885
 30
0.0
 11
-296.0509255586975
 21
381.3104086949114
 31
0.0
  0
LINE
  5
5B3
330
1F
100
AcDbEntity
  8
1
  6
CONTINUOUS
 62
   253
100
AcDbLine
 10
54.85376269748589
 20
271.4895913050886
 30
0.0
 11
54.85376269748589
 21
381.3104086949113
 31
0.0
  0
LINE
  5
5B4
330
1F
100
AcDbEntity
  8
1
  6
CONTINUOUS
 62
   253
100
AcDbLine
 10
-324.0697373744705
 20
264.1876030818534
 30
0.0
 11
-324.0697373744705
 21
388.6123969181466
 31
0.0
  0
LINE
  5
5B5
330
1F
100
AcDbEntity
  8
1
  6
CONTINUOUS
 62
   253
100
AcDbLine
 10
337.5490744413023
 20
271.4895913050886
 30
0.0
 11
337.5490744413023
 21
381.3104086949113
 31
0.0
  0
LINE
  5
5B6
330
1F
100
AcDbEntity
  8
1
  6
CONTINUOUS
 62
   253
100
AcDbLine
 10
-392.3274254867412
 20
264.1876030818533
 30
0.0
 11
-392.3274254867412
 21
388.6123969181466
 31
0.0
  0
LINE
  5
5B7
330
1F
100
AcDbEntity
  8
1
  6
CONTINUOUS
 62
   253
100
AcDbLine
 10
81.25376269748593
 20
271.4895913050885
 30
0.0
 11
81.25376269748593
 21
381.3104086949114
 31
0.0
  0
LINE
  5
5B8
330
1F
100
AcDbEntity
  8
1
  6
CONTINUOUS
 62
   253
100
AcDbLine
 10
-50.74623730251408
 20
271.4895913050885
 30
0.0
 11
-50.74623730251408
 21
381.3104086949114
 31
0.0
  0
LINE
  5
5B9
330
1F
100
AcDbEntity
  8
1
  6
CONTINUOUS
 62
   253
100
AcDbLine
 10
-653.2003973417657
 20
261.2550461238375
 30
0.0
 11
-653.2003973417657
 21
391.5449538761624
 31
0.0
  0
LINE
  5
5BA
330
1F
100
AcDbEntity
  8
1
  6
CONTINUOUS
 62
   253
100
AcDbLine
 10
-864.4003973417656
 20
261.2550461238375
 30
0.0
 11
-864.4003973417656
 21
391.5449538761624
 31
0.0
  0
LINE
  5
5BB
330
1F
100
AcDbEntity
  8
1
  6
CONTINUOUS
 62
   253
100
AcDbLine
 10
-841.1274254867412
 20
264.1876030818533
 30
0.0
 11
-841.1274254867412
 21
388.6123969181466
 31
0.0
  0
LINE
  5
5BC
330
1F
100
AcDbEntity
  8
1
  6
CONTINUOUS
 62
   253
100
AcDbLine
 10
160.4537626974858
 20
271.4895913050886
 30
0.0
 11
160.4537626974858
 21
381.3104086949113
 31
0.0
  0
LINE
  5
5BD
330
1F
100
AcDbEntity
  8
1
  6
CONTINUOUS
 62
   253
100
AcDbLine
 10
266.0537626974858
 20
271.4895913050886
 30
0.0
 11
266.0537626974858
 21
381.3104086949113
 31
0.0
  0
LINE
  5
5BE
330
1F
100
AcDbEntity
  8
1
  6
CONTINUOUS
 62
   253
100
AcDbLine
 10
-485.5967655194459
 20
261.2550461238375
 30
0.0
 11
-485.5967655194459
 21
391.5449538761624
 31
0.0
  0
LINE
  5
5BF
330
1F
100
AcDbEntity
  8
1
  6
CONTINUOUS
 62
   253
100
AcDbLine
 10
258.3490744413023
 20
271.4895913050886
 30
0.0
 11
258.3490744413023
 21
381.3104086949113
 31
0.0
  0
LINE
  5
5C0
330
1F
100
AcDbEntity
  8
1
  6
CONTINUOUS
 62
   253
100
AcDbLine
 10
-24.3462373025141
 20
271.4895913050885
 30
0.0
 11
-24.3462373025141
 21
381.3104086949114
 31
0.0
  0
LINE
  5
5C1
330
1F
100
AcDbEntity
  8
1
  6
CONTINUOUS
 62
   253
100
AcDbLine
 10
-772.8697373744703
 20
264.1876030818534
 30
0.0
 11
-772.8697373744703
 21
388.6123969181466
 31
0.0
  0
LINE
  5
5C2
330
1F
100
AcDbEntity
  8
1
  6
CONTINUOUS
 62
   253
100
AcDbLine
 10
-824.0509255586976
 20
271.4895913050885
 30
0.0
 11
-824.0509255586976
 21
381.3104086949114
 31
0.0
  0
LINE
  5
5C3
330
1F
100
AcDbEntity
  8
1
  6
CONTINUOUS
 62
   253
100
AcDbLine
 10
-617.5967655194459
 20
261.2550461238375
 30
0.0
 11
-617.5967655194459
 21
391.5449538761624
 31
0.0
  0
LINE
  5
5C4
330
1F
100
AcDbEntity
  8
1
  6
CONTINUOUS
 62
   253
100
AcDbLine
 10
-511.9967655194459
 20
261.2550461238375
 30
0.0
 11
-511.9967655194459
 21
391.5449538761624
 31
0.0
  0
ARC
  5
5C5
330
1F
100
AcDbEntity
  8
1
  6
CONTINUOUS
 62
     7
100
AcDbCircle
 10
-622.1985814306057
 20
361.9
 30
0.0
 40
30.00000000000002
100
AcDbArc
 50
81.17634251609593
 51
98.82365748390463
  0
LINE
  5
5C6
330
1F
100
AcDbEntity
  8
1
  6
CONTINUOUS
 62
   253
100
AcDbLine
 10
-244.8697373744704
 20
264.1876030818533
 30
0.0
 11
-244.8697373744704
 21
388.6123969181466
 31
0.0
  0
LINE
  5
5C7
330
1F
100
AcDbEntity
  8
1
  6
CONTINUOUS
 62
   253
100
AcDbLine
 10
-367.546237302514
 20
271.4895913050885
 30
0.0
 11
-367.546237302514
 21
381.3104086949114
 31
0.0
  0
ARC
  5
5C8
330
1F
100
AcDbEntity
  8
1
  6
CONTINUOUS
 62
     7
100
AcDbCircle
 10
-569.3985814306058
 20
290.8999999999999
 30
0.0
 40
29.99999999999999
100
AcDbArc
 50
261.1763425160955
 51
278.8236574839043
  0
LINE
  5
5C9
330
1F
100
AcDbEntity
  8
1
  6
CONTINUOUS
 62
   253
100
AcDbLine
 10
-561.6697373744703
 20
264.1876030818533
 30
0.0
 11
-561.6697373744703
 21
388.6123969181466
 31
0.0
  0
LINE
  5
5CA
330
1F
100
AcDbEntity
  8
1
  6
CONTINUOUS
 62
   253
100
AcDbLine
 10
-341.1462373025141
 20
271.4895913050885
 30
0.0
 11
-341.1462373025141
 21
381.3104086949114
 31
0.0
  0
LINE
  5
5CB
330
1F
100
AcDbEntity
  8
1
  6
CENTER
 62
     1
100
AcDbLine
 10
-1178.999999999999
 20
326.4
 30
0.0
 11
-1031.499999999999
 21
326.4
 31
0.0
  0
LINE
  5
5CC
330
1F
100
AcDbEntity
  8
1
  6
CONTINUOUS
 62
   253
100
AcDbLine
 10
-269.6509255586976
 20
271.4895913050885
 30
0.0
 11
-269.6509255586976
 21
381.3104086949114
 31
0.0
  0
LINE
  5
5CD
330
1F
100
AcDbEntity
  8
1
  6
CONTINUOUS
 62
   253
100
AcDbLine
 10
-446.7462373025141
 20
271.4895913050885
 30
0.0
 11
-446.7462373025141
 21
381.3104086949114
 31
0.0
  0
LINE
  5
5CE
330
1F
100
AcDbEntity
  8
1
  6
CONTINUOUS
 62
   253
100
AcDbLine
 10
-418.7274254867412
 20
264.1876030818534
 30
0.0
 11
-418.7274254867412
 21
388.6123969181466
 31
0.0
  0
LINE
  5
5CF
330
1F
100
AcDbEntity
  8
1
  6
CONTINUOUS
 62
   253
100
AcDbLine
 10
-657.946237302514
 20
271.4895913050885
 30
0.0
 11
-657.946237302514
 21
381.3104086949114
 31
0.0
  0
LINE
  5
5D0
330
1F
100
AcDbEntity
  8
1
  6
CONTINUOUS
 62
   253
100
AcDbLine
 10
-552.346237302514
 20
271.4895913050885
 30
0.0
 11
-552.346237302514
 21
381.3104086949114
 31
0.0
  0
LINE
  5
5D1
330
1F
100
AcDbEntity
  8
1
  6
CONTINUOUS
 62
   253
100
AcDbLine
 10
-692.0509255586976
 20
271.4895913050885
 30
0.0
 11
-692.0509255586976
 21
381.3104086949114
 31
0.0
  0
LINE
  5
5D2
330
1F
100
AcDbEntity
  8
1
  6
CONTINUOUS
 62
   253
100
AcDbLine
 10
-797.6509255586975
 20
271.4895913050886
 30
0.0
 11
-797.6509255586975
 21
381.3104086949113
 31
0.0
  0
ARC
  5
5D3
330
1F
100
AcDbEntity
  8
1
  6
CONTINUOUS
 62
     7
100
AcDbCircle
 10
-547.0175006596853
 20
265.0100736148181
 30
0.0
 40
3.799999999999982
100
AcDbArc
 50
192.4999999999995
 51
261.1763425160959
  0
ARC
  5
5D4
330
1F
100
AcDbEntity
  8
1
  6
CONTINUOUS
 62
     7
100
AcDbCircle
 10
-512.5796622015262
 20
265.0100736148181
 30
0.0
 40
3.800000000000043
100
AcDbArc
 50
278.8236574839036
 51
347.5
  0
ARC
  5
5D5
330
1F
100
AcDbEntity
  8
1
  6
CONTINUOUS
 62
     7
100
AcDbCircle
 10
-406.9796622015262
 20
387.7899263851818
 30
0.0
 40
3.799999999999982
100
AcDbArc
 50
12.5
 51
81.17634251609604
  0
LINE
  5
5D6
330
1F
100
AcDbEntity
  8
1
  6
CONTINUOUS
 62
   253
100
AcDbLine
 10
-640.8697373744704
 20
264.1876030818534
 30
0.0
 11
-640.8697373744704
 21
388.6123969181466
 31
0.0
  0
ARC
  5
5D7
330
1F
100
AcDbEntity
  8
1
  6
CONTINUOUS
 62
     7
100
AcDbCircle
 10
-591.7796622015261
 20
387.7899263851818
 30
0.0
 40
3.799999999999982
100
AcDbArc
 50
12.49999999999966
 51
81.17634251609604
  0
LINE
  5
5D8
330
1F
100
AcDbEntity
  8
1
  6
CONTINUOUS
 62
   253
100
AcDbLine
 10
-746.4697373744704
 20
264.1876030818533
 30
0.0
 11
-746.4697373744704
 21
388.6123969181466
 31
0.0
  0
ARC
  5
5D9
330
1F
100
AcDbEntity
  8
1
  6
CONTINUOUS
 62
     7
100
AcDbCircle
 10
-463.7985814306059
 20
361.9
 30
0.0
 40
29.99999999999999
100
AcDbArc
 50
81.17634251609576
 51
98.82365748390424
  0
ARC
  5
5DA
330
1F
100
AcDbEntity
  8
1
  6
CONTINUOUS
 62
     7
100
AcDbCircle
 10
-437.3985814306059
 20
361.9
 30
0.0
 40
29.99999999999999
100
AcDbArc
 50
81.17634251609553
 51
98.82365748390424
  0
LINE
  5
5DB
330
1F
100
AcDbEntity
  8
1
  6
CONTINUOUS
 62
   253
100
AcDbLine
 10
-473.1462373025141
 20
271.4895913050885
 30
0.0
 11
-473.1462373025141
 21
381.3104086949114
 31
0.0
  0
ARC
  5
5DC
330
1F
100
AcDbEntity
  8
1
  6
CONTINUOUS
 62
     7
100
AcDbCircle
 10
-833.3985814306059
 20
290.8999999999999
 30
0.0
 40
30.00000000000001
100
AcDbArc
 50
261.1763425160958
 51
278.8236574839045
  0
LINE
  5
5DD
330
1F
100
AcDbEntity
  8
1
  6
CONTINUOUS
 62
   253
100
AcDbLine
 10
-869.146237302514
 20
271.4895913050885
 30
0.0
 11
-869.146237302514
 21
381.3104086949114
 31
0.0
  0
ARC
  5
5DE
330
1F
100
AcDbEntity
  8
1
  6
CONTINUOUS
 62
     7
100
AcDbCircle
 10
-463.7985814306059
 20
290.8999999999999
 30
0.0
 40
29.99999999999999
100
AcDbArc
 50
261.1763425160957
 51
278.8236574839043
  0
LINE
  5
5DF
330
1F
100
AcDbEntity
  8
1
  6
CONTINUOUS
 62
   253
100
AcDbLine
 10
-718.4509255586976
 20
271.4895913050885
 30
0.0
 11
-718.4509255586976
 21
381.3104086949114
 31
0.0
  0
ARC
  5
5E0
330
1F
100
AcDbEntity
  8
1
  6
CONTINUOUS
 62
     7
100
AcDbCircle
 10
-674.9985814306059
 20
290.8999999999999
 30
0.0
 40
30.00000000000001
100
AcDbArc
 50
261.1763425160957
 51
278.8236574839045
  0
LINE
  5
5E1
330
1F
100
AcDbEntity
  8
1
  6
CONTINUOUS
 62
   253
100
AcDbLine
 10
-497.9274254867412
 20
264.1876030818533
 30
0.0
 11
-497.9274254867412
 21
388.6123969181466
 31
0.0
  0
LINE
  5
5E2
330
1F
100
AcDbEntity
  8
1
  6
CONTINUOUS
 62
   253
100
AcDbLine
 10
-667.2697373744704
 20
264.1876030818534
 30
0.0
 11
-667.2697373744704
 21
388.6123969181466
 31
0.0
  0
LINE
  5
5E3
330
1F
100
AcDbEntity
  8
1
  6
CONTINUOUS
 62
   253
100
AcDbLine
 10
-723.1967655194459
 20
261.2550461238375
 30
0.0
 11
-723.1967655194459
 21
391.5449538761624
 31
0.0
  0
LINE
  5
5E4
330
1F
100
AcDbEntity
  8
1
  6
CONTINUOUS
 62
   253
100
AcDbLine
 10
-763.546237302514
 20
271.4895913050885
 30
0.0
 11
-763.546237302514
 21
381.3104086949114
 31
0.0
  0
LINE
  5
5E5
330
1F
100
AcDbEntity
  8
1
  6
CONTINUOUS
 62
   253
100
AcDbLine
 10
-758.8003973417656
 20
261.2550461238375
 30
0.0
 11
-758.8003973417656
 21
391.5449538761624
 31
0.0
  0
LINE
  5
5E6
330
1F
100
AcDbEntity
  8
1
  6
CONTINUOUS
 62
   253
100
AcDbLine
 10
-612.8509255586976
 20
271.4895913050885
 30
0.0
 11
-612.8509255586976
 21
381.3104086949114
 31
0.0
  0
LINE
  5
5E7
330
1F
100
AcDbEntity
  8
1
  6
CONTINUOUS
 62
   253
100
AcDbLine
 10
-684.346237302514
 20
271.4895913050885
 30
0.0
 11
-684.346237302514
 21
381.3104086949114
 31
0.0
  0
ARC
  5
5E8
330
1F
100
AcDbEntity
  8
1
  6
CONTINUOUS
 62
     7
100
AcDbCircle
 10
-723.7796622015262
 20
265.0100736148181
 30
0.0
 40
3.800000000000043
100
AcDbArc
 50
278.8236574839053
 51
347.5
  0
LINE
  5
5E9
330
1F
100
AcDbEntity
  8
1
  6
CONTINUOUS
 62
   253
100
AcDbLine
 10
-524.3274254867412
 20
264.1876030818533
 30
0.0
 11
-524.3274254867412
 21
388.6123969181466
 31
0.0
  0
ARC
  5
5EA
330
1F
100
AcDbEntity
  8
1
  6
CONTINUOUS
 62
     7
100
AcDbCircle
 10
-384.5985814306058
 20
361.9
 30
0.0
 40
30.00000000000001
100
AcDbArc
 50
81.17634251609576
 51
98.82365748390447
  0
LINE
  5
5EB
330
1F
100
AcDbEntity
  8
1
  6
CONTINUOUS
 62
   253
100
AcDbLine
 10
-535.2697373744703
 20
264.1876030818533
 30
0.0
 11
-535.2697373744703
 21
388.6123969181466
 31
0.0
  0
LINE
  5
5EC
330
1F
100
AcDbEntity
  8
1
  6
CONTINUOUS
 62
   253
100
AcDbLine
 10
-375.2509255586976
 20
271.4895913050885
 30
0.0
 11
-375.2509255586976
 21
381.3104086949114
 31
0.0
  0
ARC
  5
5ED
330
1F
100
AcDbEntity
  8
1
  6
CONTINUOUS
 62
     7
100
AcDbCircle
 10
-410.9985814306058
 20
290.8999999999999
 30
0.0
 40
29.99999999999999
100
AcDbArc
 50
261.1763425160955
 51
278.8236574839043
  0
LINE
  5
5EE
330
1F
100
AcDbEntity
  8
1
  6
CONTINUOUS
 62
   253
100
AcDbLine
 10
-814.7274254867411
 20
264.1876030818534
 30
0.0
 11
-814.7274254867411
 21
388.6123969181466
 31
0.0
  0
LINE
  5
5EF
330
1F
100
AcDbEntity
  8
1
  6
CONTINUOUS
 62
   253
100
AcDbLine
 10
-429.6697373744705
 20
264.1876030818533
 30
0.0
 11
-429.6697373744705
 21
388.6123969181466
 31
0.0
  0
ARC
  5
5F0
330
1F
100
AcDbEntity
  8
1
  6
CONTINUOUS
 62
     7
100
AcDbCircle
 10
-494.2175006596854
 20
265.0100736148181
 30
0.0
 40
3.799999999999982
100
AcDbArc
 50
192.4999999999995
 51
261.1763425160959
  0
ARC
  5
5F1
330
1F
100
AcDbEntity
  8
1
  6
CONTINUOUS
 62
     7
100
AcDbCircle
 10
-380.5796622015262
 20
387.7899263851818
 30
0.0
 40
3.799999999999982
100
AcDbArc
 50
12.49999999999966
 51
81.17634251609604
  0
ARC
  5
5F2
330
1F
100
AcDbEntity
  8
1
  6
CONTINUOUS
 62
     7
100
AcDbCircle
 10
-595.7985814306057
 20
361.9
 30
0.0
 40
29.99999999999999
100
AcDbArc
 50
81.17634251609576
 51
98.82365748390424
  0
ARC
  5
5F3
330
1F
100
AcDbEntity
  8
1
  6
CONTINUOUS
 62
     7
100
AcDbCircle
 10
-780.5985814306058
 20
290.8999999999999
 30
0.0
 40
29.99999999999999
100
AcDbArc
 50
261.1763425160955
 51
278.8236574839043
  0
ARC
  5
5F4
330
1F
100
AcDbEntity
  8
1
  6
CONTINUOUS
 62
     7
100
AcDbCircle
 10
-648.5985814306057
 20
290.8999999999999
 30
0.0
 40
29.99999999999999
100
AcDbArc
 50
261.1763425160955
 51
278.8236574839043
  0
LINE
  5
5F5
330
1F
100
AcDbEntity
  8
1
  6
CONTINUOUS
 62
   253
100
AcDbLine
 10
-709.1274254867411
 20
264.1876030818534
 30
0.0
 11
-709.1274254867411
 21
388.6123969181466
 31
0.0
  0
LINE
  5
5F6
330
1F
100
AcDbEntity
  8
1
  6
CONTINUOUS
 62
   253
100
AcDbLine
 10
-828.7967655194459
 20
261.2550461238375
 30
0.0
 11
-828.7967655194459
 21
391.5449538761624
 31
0.0
  0
LINE
  5
5F7
330
1F
100
AcDbEntity
  8
1
  6
CONTINUOUS
 62
   253
100
AcDbLine
 10
-547.6003973417655
 20
261.2550461238375
 30
0.0
 11
-547.6003973417655
 21
391.5449538761624
 31
0.0
  0
ARC
  5
5F8
330
1F
100
AcDbEntity
  8
1
  6
CONTINUOUS
 62
     7
100
AcDbCircle
 10
-490.1985814306058
 20
290.8999999999999
 30
0.0
 40
30.00000000000001
100
AcDbArc
 50
261.1763425160957
 51
278.8236574839045
  0
ARC
  5
5F9
330
1F
100
AcDbEntity
  8
1
  6
CONTINUOUS
 62
     7
100
AcDbCircle
 10
-569.3985814306058
 20
361.9
 30
0.0
 40
30.00000000000002
100
AcDbArc
 50
81.17634251609593
 51
98.82365748390463
  0
ARC
  5
5FA
330
1F
100
AcDbEntity
  8
1
  6
CONTINUOUS
 62
     7
100
AcDbCircle
 10
-388.6175006596854
 20
265.0100736148181
 30
0.0
 40
3.799999999999999
100
AcDbArc
 50
192.4999999999995
 51
261.1763425160943
  0
LINE
  5
5FB
330
1F
100
AcDbEntity
  8
1
  6
CONTINUOUS
 62
   253
100
AcDbLine
 10
-603.5274254867411
 20
264.1876030818533
 30
0.0
 11
-603.5274254867411
 21
388.6123969181466
 31
0.0
  0
ARC
  5
5FC
330
1F
100
AcDbEntity
  8
1
  6
CONTINUOUS
 62
     7
100
AcDbCircle
 10
-727.7985814306059
 20
290.8999999999999
 30
0.0
 40
30.00000000000001
100
AcDbArc
 50
261.1763425160957
 51
278.8236574839045
  0
ARC
  5
5FD
330
1F
100
AcDbEntity
  8
1
  6
CONTINUOUS
 62
     7
100
AcDbCircle
 10
-410.9985814306058
 20
361.9
 30
0.0
 40
30.00000000000001
100
AcDbArc
 50
81.17634251609576
 51
98.82365748390447
  0
ARC
  5
5FE
330
1F
100
AcDbEntity
  8
1
  6
CONTINUOUS
 62
     7
100
AcDbCircle
 10
-516.5985814306058
 20
361.9
 30
0.0
 40
29.99999999999999
100
AcDbArc
 50
81.17634251609576
 51
98.82365748390424
  0
ARC
  5
5FF
330
1F
100
AcDbEntity
  8
1
  6
CONTINUOUS
 62
     7
100
AcDbCircle
 10
-754.1985814306058
 20
361.9
 30
0.0
 40
29.99999999999999
100
AcDbArc
 50
81.17634251609566
 51
98.82365748390424
  0
ARC
  5
600
330
1F
100
AcDbEntity
  8
1
  6
CONTINUOUS
 62
     7
100
AcDbCircle
 10
-486.1796622015262
 20
265.0100736148181
 30
0.0
 40
3.800000000000043
100
AcDbArc
 50
278.8236574839053
 51
347.5
  0
ARC
  5
601
330
1F
100
AcDbEntity
  8
1
  6
CONTINUOUS
 62
     7
100
AcDbCircle
 10
-415.0175006596855
 20
265.0100736148181
 30
0.0
 40
3.799999999999982
100
AcDbArc
 50
192.4999999999999
 51
261.1763425160959
  0
LINE
  5
602
330
1F
100
AcDbEntity
  8
1
  6
CONTINUOUS
 62
   253
100
AcDbLine
 10
-586.4509255586976
 20
271.4895913050885
 30
0.0
 11
-586.4509255586976
 21
381.3104086949114
 31
0.0
  0
ARC
  5
603
330
1F
100
AcDbEntity
  8
1
  6
CONTINUOUS
 62
     7
100
AcDbCircle
 10
-490.1985814306058
 20
361.9
 30
0.0
 40
29.99999999999999
100
AcDbArc
 50
81.17634251609553
 51
98.82365748390424
  0
ARC
  5
604
330
1F
100
AcDbEntity
  8
1
  6
CONTINUOUS
 62
     7
100
AcDbCircle
 10
-595.7985814306057
 20
290.8999999999999
 30
0.0
 40
29.99999999999999
100
AcDbArc
 50
261.1763425160957
 51
278.8236574839043
  0
ARC
  5
605
330
1F
100
AcDbEntity
  8
1
  6
CONTINUOUS
 62
     7
100
AcDbCircle
 10
-415.0175006596855
 20
387.7899263851818
 30
0.0
 40
3.800000000000043
100
AcDbArc
 50
98.82365748390384
 51
167.5
  0
ARC
  5
606
330
1F
100
AcDbEntity
  8
1
  6
CONTINUOUS
 62
     7
100
AcDbCircle
 10
-486.1796622015262
 20
387.7899263851818
 30
0.0
 40
3.799999999999999
100
AcDbArc
 50
12.49999999999977
 51
81.17634251609434
  0
ARC
  5
607
330
1F
100
AcDbEntity
  8
1
  6
CONTINUOUS
 62
     7
100
AcDbCircle
 10
-467.8175006596854
 20
265.0100736148181
 30
0.0
 40
3.799999999999982
100
AcDbArc
 50
192.4999999999995
 51
261.1763425160959
  0
LINE
  5
608
330
1F
100
AcDbEntity
  8
1
  6
CONTINUOUS
 62
   253
100
AcDbLine
 10
-456.0697373744705
 20
264.1876030818533
 30
0.0
 11
-456.0697373744705
 21
388.6123969181466
 31
0.0
  0
ARC
  5
609
330
1F
100
AcDbEntity
  8
1
  6
CONTINUOUS
 62
     7
100
AcDbCircle
 10
-520.6175006596853
 20
265.0100736148181
 30
0.0
 40
3.799999999999982
100
AcDbArc
 50
192.4999999999995
 51
261.1763425160959
  0
LINE
  5
60A
330
1F
100
AcDbEntity
  8
1
  6
CONTINUOUS
 62
   253
100
AcDbLine
 10
-679.6003973417656
 20
261.2550461238375
 30
0.0
 11
-679.6003973417656
 21
391.5449538761624
 31
0.0
  0
LINE
  5
60B
330
1F
100
AcDbEntity
  8
1
  6
CONTINUOUS
 62
   253
100
AcDbLine
 10
-507.2509255586975
 20
271.4895913050885
 30
0.0
 11
-507.2509255586975
 21
381.3104086949114
 31
0.0
  0
LINE
  5
60C
330
1F
100
AcDbEntity
  8
1
  6
CONTINUOUS
 62
   253
100
AcDbLine
 10
-852.0697373744704
 20
264.1876030818533
 30
0.0
 11
-852.0697373744704
 21
388.6123969181466
 31
0.0
  0
ARC
  5
60D
330
1F
100
AcDbEntity
  8
1
  6
CONTINUOUS
 62
     7
100
AcDbCircle
 10
-573.4175006596853
 20
387.7899263851818
 30
0.0
 40
3.800000000000031
100
AcDbArc
 50
98.823657483906
 51
167.5000000000007
  0
ARC
  5
60E
330
1F
100
AcDbEntity
  8
1
  6
CONTINUOUS
 62
     7
100
AcDbCircle
 10
-648.5985814306057
 20
361.9
 30
0.0
 40
30.00000000000002
100
AcDbArc
 50
81.17634251609593
 51
98.82365748390463
  0
ARC
  5
60F
330
1F
100
AcDbEntity
  8
1
  6
CONTINUOUS
 62
     7
100
AcDbCircle
 10
-573.4175006596853
 20
265.0100736148181
 30
0.0
 40
3.800000000000016
100
AcDbArc
 50
192.499999999998
 51
261.1763425160927
  0
ARC
  5
610
330
1F
100
AcDbEntity
  8
1
  6
CONTINUOUS
 62
     7
100
AcDbCircle
 10
-520.6175006596853
 20
387.7899263851818
 30
0.0
 40
3.800000000000031
100
AcDbArc
 50
98.82365748390431
 51
167.5000000000007
  0
ARC
  5
611
330
1F
100
AcDbEntity
  8
1
  6
CONTINUOUS
 62
     7
100
AcDbCircle
 10
-380.5796622015262
 20
265.0100736148181
 30
0.0
 40
3.800000000000043
100
AcDbArc
 50
278.8236574839036
 51
347.5
  0
ARC
  5
612
330
1F
100
AcDbEntity
  8
1
  6
CONTINUOUS
 62
     7
100
AcDbCircle
 10
-652.6175006596854
 20
265.0100736148181
 30
0.0
 40
3.799999999999982
100
AcDbArc
 50
192.5
 51
261.1763425160959
  0
ARC
  5
613
330
1F
100
AcDbEntity
  8
1
  6
CONTINUOUS
 62
     7
100
AcDbCircle
 10
-780.5985814306058
 20
361.9
 30
0.0
 40
30.00000000000001
100
AcDbArc
 50
81.17634251609576
 51
98.82365748390447
  0
ARC
  5
614
330
1F
100
AcDbEntity
  8
1
  6
CONTINUOUS
 62
     7
100
AcDbCircle
 10
-441.4175006596855
 20
265.0100736148181
 30
0.0
 40
3.799999999999982
100
AcDbArc
 50
192.4999999999995
 51
261.1763425160959
  0
ARC
  5
615
330
1F
100
AcDbEntity
  8
1
  6
CONTINUOUS
 62
     7
100
AcDbCircle
 10
-406.9796622015262
 20
265.0100736148181
 30
0.0
 40
3.800000000000043
100
AcDbArc
 50
278.8236574839039
 51
347.5
  0
ARC
  5
616
330
1F
100
AcDbEntity
  8
1
  6
CONTINUOUS
 62
     7
100
AcDbCircle
 10
-388.6175006596854
 20
387.7899263851818
 30
0.0
 40
3.800000000000031
100
AcDbArc
 50
98.823657483906
 51
167.5000000000007
  0
ARC
  5
617
330
1F
100
AcDbEntity
  8
1
  6
CONTINUOUS
 62
     7
100
AcDbCircle
 10
-441.4175006596855
 20
387.7899263851818
 30
0.0
 40
3.800000000000031
100
AcDbArc
 50
98.82365748390438
 51
167.5000000000007
  0
ARC
  5
618
330
1F
100
AcDbEntity
  8
1
  6
CONTINUOUS
 62
     7
100
AcDbCircle
 10
-547.0175006596853
 20
387.7899263851818
 30
0.0
 40
3.800000000000031
100
AcDbArc
 50
98.82365748390438
 51
167.5000000000007
  0
ARC
  5
619
330
1F
100
AcDbEntity
  8
1
  6
CONTINUOUS
 62
     7
100
AcDbCircle
 10
-859.7985814306059
 20
290.8999999999999
 30
0.0
 40
29.99999999999999
100
AcDbArc
 50
261.1763425160957
 51
278.8236574839043
  0
ARC
  5
61A
330
1F
100
AcDbEntity
  8
1
  6
CONTINUOUS
 62
     7
100
AcDbCircle
 10
-459.7796622015263
 20
387.7899263851818
 30
0.0
 40
3.799999999999982
100
AcDbArc
 50
12.49999999999955
 51
81.17634251609604
  0
ARC
  5
61B
330
1F
100
AcDbEntity
  8
1
  6
CONTINUOUS
 62
     7
100
AcDbCircle
 10
-542.9985814306058
 20
290.8999999999999
 30
0.0
 40
29.99999999999999
100
AcDbArc
 50
261.1763425160957
 51
278.8236574839043
  0
ARC
  5
61C
330
1F
100
AcDbEntity
  8
1
  6
CONTINUOUS
 62
     7
100
AcDbCircle
 10
-674.9985814306059
 20
361.9
 30
0.0
 40
29.99999999999999
100
AcDbArc
 50
81.17634251609553
 51
98.82365748390424
  0
ARC
  5
61D
330
1F
100
AcDbEntity
  8
1
  6
CONTINUOUS
 62
     7
100
AcDbCircle
 10
-591.7796622015261
 20
265.0100736148181
 30
0.0
 40
3.800000000000043
100
AcDbArc
 50
278.8236574839036
 51
347.5
  0
ARC
  5
61E
330
1F
100
AcDbEntity
  8
1
  6
CONTINUOUS
 62
     7
100
AcDbCircle
 10
-859.7985814306059
 20
361.9
 30
0.0
 40
29.99999999999999
100
AcDbArc
 50
81.17634251609566
 51
98.82365748390424
  0
ARC
  5
61F
330
1F
100
AcDbEntity
  8
1
  6
CONTINUOUS
 62
     7
100
AcDbCircle
 10
-618.1796622015261
 20
387.7899263851818
 30
0.0
 40
3.799999999999982
100
AcDbArc
 50
12.49999999999966
 51
81.17634251609604
  0
ARC
  5
620
330
1F
100
AcDbEntity
  8
1
  6
CONTINUOUS
 62
     7
100
AcDbCircle
 10
-433.3796622015263
 20
265.0100736148181
 30
0.0
 40
3.800000000000031
100
AcDbArc
 50
278.823657483906
 51
347.5000000000006
  0
ENDSEC
  0
SECTION
  2
OBJECTS
  0
DICTIONARY
  5
C
330
0
100
AcDbDictionary
  3
ACAD_GROUP
350
D
  3
ACAD_LAYOUT
350
1A
  3
ACAD_MATERIAL
350
43
  3
ACAD_MLEADERSTYLE
350
6B
  3
ACAD_MLINESTYLE
350
17
  3
ACAD_PLOTSETTINGS
350
19
  3
ACAD_SCALELIST
350
47
  3
ACAD_VISUALSTYLE
350
2A
  3
ACDBHEADERROUNDTRIPXREC
350
621
  3
ACDBVARIABLEDICTIONARY
350
642
  0
DICTIONARY
  5
649
330
8
100
AcDbDictionary
280
     1
  3
ACAD_XREC_ROUNDTRIP
360
64A
  0
DICTIONARY
  5
D
102
{ACAD_REACTORS
330
C
102
}
330
C
100
AcDbDictionary
  0
DICTIONARY
  5
1A
102
{ACAD_REACTORS
330
C
102
}
330
C
100
AcDbDictionary
  0
DICTIONARY
  5
43
102
{ACAD_REACTORS
330
C
102
}
330
C
100
AcDbDictionary
  3
BYBLOCK
350
45
  3
BYLAYER
350
44
  3
GLOBAL
350
46
  0
DICTIONARY
  5
6B
102
{ACAD_REACTORS
330
C
102
}
330
C
100
AcDbDictionary
  3
STANDARD
350
6C
  0
DICTIONARY
  5
17
102
{ACAD_REACTORS
330
C
102
}
330
C
100
AcDbDictionary
  3
STANDARD
350
18
  0
DICTIONARY
  5
19
102
{ACAD_REACTORS
330
C
102
}
330
C
100
AcDbDictionary
  0
DICTIONARY
  5
47
102
{ACAD_REACTORS
330
C
102
}
330
C
100
AcDbDictionary
  3
A0
350
48
  3
A1
350
49
  3
A2
350
4A
  3
A3
350
4B
  3
A4
350
4C
  3
A5
350
4D
  3
A6
350
4E
  3
A7
350
4F
  3
A8
350
50
  3
A9
350
51
  3
B0
350
52
  3
B1
350
53
  3
B2
350
54
  3
B3
350
55
  3
B4
350
56
  3
B5
350
57
  3
B6
350
58
  3
B7
350
59
  3
B8
350
5A
  3
B9
350
5B
  3
C0
350
5C
  3
C1
350
5D
  3
C2
350
5E
  3
C3
350
5F
  3
C4
350
60
  3
C5
350
61
  3
C6
350
62
  3
C7
350
63
  3
C8
350
64
  3
C9
350
65
  3
D0
350
66
  3
D1
350
67
  3
D2
350
68
  0
DICTIONARY
  5
2A
102
{ACAD_REACTORS
330
C
102
}
330
C
100
AcDbDictionary
  3
2DWIREFRAME
350
2F
  3
BASIC
350
32
  3
BRIGHTEN
350
36
  3
COLORCHANGE
350
3A
  3
CONCEPTUAL
350
34
  3
DIM
350
35
  3
EDGECOLOROFF
350
3D
  3
FACEPATTERN
350
39
  3
FLAT
350
2B
  3
FLATWITHEDGES
350
2C
  3
GOURAUD
350
2D
  3
GOURAUDWITHEDGES
350
2E
  3
HIDDEN
350
31
  3
JITTEROFF
350
3B
  3
LINEPATTERN
350
38
  3
OVERHANGOFF
350
3C
  3
REALISTIC
350
33
  3
SHADED
350
42
  3
SHADED_WITH_EDGES
350
41
  3
SHADES_OF_GRAY
350
3E
  3
SKETCHY
350
3F
  3
THICKEN
350
37
  3
WIREFRAME
350
30
  3
X-RAY
350
40
  0
DICTIONARY
  5
621
102
{ACAD_REACTORS
330
C
102
}
330
C
100
AcDbDictionary
  3
CEPSNID
350
62B
  3
CEPSNTYPE
350
62A
  3
DIMSTYLEDATA
350
641
  3
FINGERPRINTGUID
350
62C
  3
HYPERLINKBASE
350
624
  3
INSUNITS
350
629
  3
LAYOUTDICT
350
626
  3
LWETCUNION
350
628
  3
PLOTSETDICT
350
627
  3
PSVPSCALE
350
62E
  3
PUCSBASE
350
631
  3
PUCSORGBACK
350
637
  3
PUCSORGBOTTOM
350
633
  3
PUCSORGFRONT
350
636
  3
PUCSORGLEFT
350
634
  3
PUCSORGRIGHT
350
635
  3
PUCSORGTOP
350
632
  3
PUCSORTHOREF
350
62F
  3
PUCSORTHOVIEW
350
630
  3
STYLESHEET
350
625
  3
TSTACKALIGN
350
622
  3
TSTACKSIZE
350
623
  3
UCSBASE
350
63A
  3
UCSORGBACK
350
640
  3
UCSORGBOTTOM
350
63C
  3
UCSORGFRONT
350
63F
  3
UCSORGLEFT
350
63D
  3
UCSORGRIGHT
350
63E
  3
UCSORGTOP
350
63B
  3
UCSORTHOREF
350
638
  3
UCSORTHOVIEW
350
639
  3
VERSIONGUID
350
62D
  0
DICTIONARY
  5
642
102
{ACAD_REACTORS
330
C
102
}
330
C
100
AcDbDictionary
  3
CANNOSCALE
350
64B
  3
CMLEADERSTYLE
350
644
  3
CTABLESTYLE
350
643
  3
DIMASSOC
350
647
  3
HIDETEXT
350
648
  3
MSLTSCALE
350
64C
  0
XRECORD
  5
64A
102
{ACAD_REACTORS
330
649
102
}
330
649
100
AcDbXrecord
102
VTR_0.000_0.000_1.000_1.000_VISUALSTYLE
340
2F
102
VTR_0.000_0.000_1.000_1.000_GRIDDISPLAY
 70
     3
102
VTR_0.000_0.000_1.000_1.000_GRIDMAJOR
 70
     5
102
VTR_0.000_0.000_1.000_1.000_DEFAULTLIGHTING
280
     1
102
VTR_0.000_0.000_1.000_1.000_DEFAULTLIGHTINGTYPE
 70
     1
102
VTR_0.000_0.000_1.000_1.000_BRIGHTNESS
141
0.0
102
VTR_0.000_0.000_1.000_1.000_CONTRAST
142
0.0
  0
MATERIAL
  5
45
102
{ACAD_REACTORS
330
43
102
}
102
{ACAD_XDICTIONARY
360
64F
102
}
330
43
100
AcDbMaterial
  1
BYBLOCK
  0
MATERIAL
  5
44
102
{ACAD_REACTORS
330
43
102
}
102
{ACAD_XDICTIONARY
360
64D
102
}
330
43
100
AcDbMaterial
  1
BYLAYER
  0
MATERIAL
  5
46
102
{ACAD_REACTORS
330
43
102
}
102
{ACAD_XDICTIONARY
360
651
102
}
330
43
100
AcDbMaterial
  1
GLOBAL
  0
ACAD_PROXY_OBJECT
  5
6C
102
{ACAD_REACTORS
330
6B
102
}
330
6B
100
AcDbProxyObject
 90
      499
 91
      505
 93
      610
310
40901902A4063FBFFFFFE056BD1B81E855B9FC0AD7A3703D0AD73F4214DD185B99185C9900AD7A3703D0AC73F90141901A02B5E8DC0F42B1CFC02B5E8DC0F42B1CFE5764000000000000300FC0
340
14
340
0
340
11
340
0
 94
        0
1001
ACAD_MLEADERVER
1070
     2
  0
MLINESTYLE
  5
18
102
{ACAD_REACTORS
330
17
102
}
330
17
100
AcDbMlineStyle
  2
Standard
 70
     0
  3

 62
   256
 51
90.0
 52
90.0
 71
     2
 49
0.5
 62
   256
  6
BYLAYER
 49
-0.5
 62
   256
  6
BYLAYER
  0
ACAD_PROXY_OBJECT
  5
48
102
{ACAD_REACTORS
330
47
102
}
330
47
100
AcDbProxyObject
 90
      499
 91
      503
 93
       41
310
903313A31580
  0
ACAD_PROXY_OBJECT
  5
49
102
{ACAD_REACTORS
330
47
102
}
330
47
100
AcDbProxyObject
 90
      499
 91
      503
 93
      105
310
903313A324000000000000004000
  0
ACAD_PROXY_OBJECT
  5
4A
102
{ACAD_REACTORS
330
47
102
}
330
47
100
AcDbProxyObject
 90
      499
 91
      503
 93
      105
310
903313A344000000000000104000
  0
ACAD_PROXY_OBJECT
  5
4B
102
{ACAD_REACTORS
330
47
102
}
330
47
100
AcDbProxyObject
 90
      499
 91
      503
 93
      105
310
903313A354000000000000144000
  0
ACAD_PROXY_OBJECT
  5
4C
102
{ACAD_REACTORS
330
47
102
}
330
47
100
AcDbProxyObject
 90
      499
 91
      503
 93
      105
310
903313A384000000000000204000
  0
ACAD_PROXY_OBJECT
  5
4D
102
{ACAD_REACTORS
330
47
102
}
330
47
100
AcDbProxyObject
 90
      499
 91
      503
 93
      113
310
904313A31304000000000000244000
  0
ACAD_PROXY_OBJECT
  5
4E
102
{ACAD_REACTORS
330
47
102
}
330
47
100
AcDbProxyObject
 90
      499
 91
      503
 93
      113
310
904313A31364000000000000304000
  0
ACAD_PROXY_OBJECT
  5
4F
102
{ACAD_REACTORS
330
47
102
}
330
47
100
AcDbProxyObject
 90
      499
 91
      503
 93
      113
310
904313A32304000000000000344000
  0
ACAD_PROXY_OBJECT
  5
50
102
{ACAD_REACTORS
330
47
102
}
330
47
100
AcDbProxyObject
 90
      499
 91
      503
 93
      113
310
904313A333040000000000003E4000
  0
ACAD_PROXY_OBJECT
  5
51
102
{ACAD_REACTORS
330
47
102
}
330
47
100
AcDbProxyObject
 90
      499
 91
      503
 93
      113
310
904313A34304000000000000444000
  0
ACAD_PROXY_OBJECT
  5
52
102
{ACAD_REACTORS
330
47
102
}
330
47
100
AcDbProxyObject
 90
      499
 91
      503
 93
      113
310
904313A35304000000000000494000
  0
ACAD_PROXY_OBJECT
  5
53
102
{ACAD_REACTORS
330
47
102
}
330
47
100
AcDbProxyObject
 90
      499
 91
      503
 93
      121
310
905313A3130304000000000000594000
  0
ACAD_PROXY_OBJECT
  5
54
102
{ACAD_REACTORS
330
47
102
}
330
47
100
AcDbProxyObject
 90
      499
 91
      503
 93
      105
310
903323A310000000000000010100
  0
ACAD_PROXY_OBJECT
  5
55
102
{ACAD_REACTORS
330
47
102
}
330
47
100
AcDbProxyObject
 90
      499
 91
      503
 93
      105
310
903343A310000000000000410100
  0
ACAD_PROXY_OBJECT
  5
56
102
{ACAD_REACTORS
330
47
102
}
330
47
100
AcDbProxyObject
 90
      499
 91
      503
 93
      105
310
903383A310000000000000810100
  0
ACAD_PROXY_OBJECT
  5
57
102
{ACAD_REACTORS
330
47
102
}
330
47
100
AcDbProxyObject
 90
      499
 91
      503
 93
      113
310
90431303A310000000000000910100
  0
ACAD_PROXY_OBJECT
  5
58
102
{ACAD_REACTORS
330
47
102
}
330
47
100
AcDbProxyObject
 90
      499
 91
      503
 93
      121
310
9053130303A310000000000001650100
  0
ACAD_PROXY_OBJECT
  5
59
102
{ACAD_REACTORS
330
47
102
}
330
47
100
AcDbProxyObject
 90
      499
 91
      503
 93
      257
310
90E312F31323822203D2031272D3022000000000000200FC000000000000284000
  0
ACAD_PROXY_OBJECT
  5
5A
102
{ACAD_REACTORS
330
47
102
}
330
47
100
AcDbProxyObject
 90
      499
 91
      503
 93
      249
310
90D312F363422203D2031272D3022000000000000240FC000000000000284000
  0
ACAD_PROXY_OBJECT
  5
5B
102
{ACAD_REACTORS
330
47
102
}
330
47
100
AcDbProxyObject
 90
      499
 91
      503
 93
      249
310
90D312F333222203D2031272D3022000000000000280FC000000000000284000
  0
ACAD_PROXY_OBJECT
  5
5C
102
{ACAD_REACTORS
330
47
102
}
330
47
100
AcDbProxyObject
 90
      499
 91
      503
 93
      249
310
90D312F313622203D2031272D30220000000000002C0FC000000000000284000
  0
ACAD_PROXY_OBJECT
  5
5D
102
{ACAD_REACTORS
330
47
102
}
330
47
100
AcDbProxyObject
 90
      499
 91
      503
 93
      249
310
90D332F333222203D2031272D30220000000000002E0FC000000000000284000
  0
ACAD_PROXY_OBJECT
  5
5E
102
{ACAD_REACTORS
330
47
102
}
330
47
100
AcDbProxyObject
 90
      499
 91
      503
 93
      241
310
90C312F3822203D2031272D3022000000000000300FC000000000000284000
  0
ACAD_PROXY_OBJECT
  5
5F
102
{ACAD_REACTORS
330
47
102
}
330
47
100
AcDbProxyObject
 90
      499
 91
      503
 93
      249
310
90D332F313622203D2031272D3022000000000000320FC000000000000284000
  0
ACAD_PROXY_OBJECT
  5
60
102
{ACAD_REACTORS
330
47
102
}
330
47
100
AcDbProxyObject
 90
      499
 91
      503
 93
      241
310
90C312F3422203D2031272D3022000000000000340FC000000000000284000
  0
ACAD_PROXY_OBJECT
  5
61
102
{ACAD_REACTORS
330
47
102
}
330
47
100
AcDbProxyObject
 90
      499
 91
      503
 93
      241
310
90C332F3822203D2031272D3022000000000000360FC000000000000284000
  0
ACAD_PROXY_OBJECT
  5
62
102
{ACAD_REACTORS
330
47
102
}
330
47
100
AcDbProxyObject
 90
      499
 91
      503
 93
      241
310
90C312F3222203D2031272D3022000000000000380FC000000000000284000
  0
ACAD_PROXY_OBJECT
  5
63
102
{ACAD_REACTORS
330
47
102
}
330
47
100
AcDbProxyObject
 90
      499
 91
      503
 93
      241
310
90C332F3422203D2031272D30220000000000003A0FC000000000000284000
  0
ACAD_PROXY_OBJECT
  5
64
102
{ACAD_REACTORS
330
47
102
}
330
47
100
AcDbProxyObject
 90
      499
 91
      503
 93
      161
310
90A3122203D2031272D30224000000000000284000
  0
ACAD_PROXY_OBJECT
  5
65
102
{ACAD_REACTORS
330
47
102
}
330
47
100
AcDbProxyObject
 90
      499
 91
      503
 93
      257
310
90E312D312F3222203D2031272D30220000000000003E0FC000000000000284000
  0
ACAD_PROXY_OBJECT
  5
66
102
{ACAD_REACTORS
330
47
102
}
330
47
100
AcDbProxyObject
 90
      499
 91
      503
 93
      225
310
90A3322203D2031272D302200000000000002100000000000000284000
  0
ACAD_PROXY_OBJECT
  5
67
102
{ACAD_REACTORS
330
47
102
}
330
47
100
AcDbProxyObject
 90
      499
 91
      503
 93
      225
310
90A3622203D2031272D302200000000000006100000000000000284000
  0
ACAD_PROXY_OBJECT
  5
68
102
{ACAD_REACTORS
330
47
102
}
330
47
100
AcDbProxyObject
 90
      499
 91
      503
 93
      249
310
90D31272D3022203D2031272D30220000000000000A100000000000000284000
  0
ACAD_PROXY_OBJECT
  5
2F
102
{ACAD_REACTORS
330
2A
102
}
330
2A
100
AcDbProxyObject
 90
      499
 91
      501
 93
      436
310
42CC9915DA5C99599C985B595049028333333333333E33F0000000000000F90107901411070040501600405405064090741402480A0340
1001
ACAD
1000
AcDbSavedByObjectVersion
1070
     0
  0
ACAD_PROXY_OBJECT
  5
32
102
{ACAD_REACTORS
330
2A
102
}
330
2A
100
AcDbProxyObject
 90
      499
 91
      501
 93
      388
310
4150985CDA58D07406404333333333333E33F0000000000000F90107A41107004050150841D405064090741402480A0350
1001
ACAD
1000
AcDbSavedByObjectVersion
1070
     0
  0
ACAD_PROXY_OBJECT
  5
36
102
{ACAD_REACTORS
330
2A
102
}
330
2A
100
AcDbProxyObject
 90
      499
 91
      501
 93
      428
310
42109C9A59DA1D195B90C409028333333333333E33F0000000000000F9010790141107004050150841D405064090741402480A029950
1001
ACAD
1000
AcDbSavedByObjectVersion
1070
     0
  0
ACAD_PROXY_OBJECT
  5
3A
102
{ACAD_REACTORS
330
2A
102
}
330
2A
100
AcDbProxyObject
 90
      499
 91
      501
 93
      452
310
42D0DBDB1BDC90DA185B99D95104090240C333333333333E33F0000000000000F90108901411070040501508421405064090741402480A0350
1001
ACAD
1000
AcDbSavedByObjectVersion
1070
     0
  0
ACAD_PROXY_OBJECT
  5
34
102
{ACAD_REACTORS
330
2A
102
}
330
2A
100
AcDbProxyObject
 90
      499
 91
      501
 93
      500
310
4290DBDB98D95C1D1D585B10940D028333333333333E33F0000000000000F90107902409070040501000000000018199010841D405064090740C02480A0340
1001
ACAD
1000
AcDbSavedByObjectVersion
1070
     0
  0
ACAD_PROXY_OBJECT
  5
35
102
{ACAD_REACTORS
330
2A
102
}
330
2A
100
AcDbProxyObject
 90
      499
 91
      501
 93
      412
310
40D11A5B50B409028333333333333E33F0000000000000F9010790141107004050150841D405064090741402480A02677FFFFFD0
1001
ACAD
1000
AcDbSavedByObjectVersion
1070
     0
  0
ACAD_PROXY_OBJECT
  5
3D
102
{ACAD_REACTORS
330
2A
102
}
330
2A
100
AcDbProxyObject
 90
      499
 91
      501
 93
      452
310
43115919D950DBDB1BDC93D999916409028333333333333E33F0000000000000F9010790141107004050150841D405064090741402480A0350
1001
ACAD
1000
AcDbSavedByObjectVersion
1070
     0
  0
ACAD_PROXY_OBJECT
  5
39
102
{ACAD_REACTORS
330
2A
102
}
330
2A
100
AcDbProxyObject
 90
      499
 91
      501
 93
      444
310
42D19858D95C185D1D195C9B90F409028333333333333E33F0000000000000F9010790141107004050150841D405064090741402480A0350
1001
ACAD
1000
AcDbSavedByObjectVersion
1070
     0
  0
ACAD_PROXY_OBJECT
  5
2B
102
{ACAD_REACTORS
330
2A
102
}
330
2A
100
AcDbProxyObject
 90
      499
 91
      501
 93
      380
310
41119B185D240901404333333333333E33F0000000000000F9010740A907004050150841D405064090741402480A1B50
1001
ACAD
1000
AcDbSavedByObjectVersion
1070
     0
  0
ACAD_PROXY_OBJECT
  5
2C
102
{ACAD_REACTORS
330
2A
102
}
330
2A
100
AcDbProxyObject
 90
      499
 91
      501
 93
      468
310
43519B185D15DA5D1A115919D95CD0140901404333333333333E33F0000000000000F90107409019070040501600405405064090741402480A1B50
1001
ACAD
1000
AcDbSavedByObjectVersion
1070
     0
  0
ACAD_PROXY_OBJECT
  5
2D
102
{ACAD_REACTORS
330
2A
102
}
330
2A
100
AcDbProxyObject
 90
      499
 91
      501
 93
      404
310
41D1DBDD5C985D5910240902404333333333333E33F0000000000000F9010740A9070040501641D405064090741402480A1B50
1001
ACAD
1000
AcDbSavedByObjectVersion
1070
     0
  0
ACAD_PROXY_OBJECT
  5
2E
102
{ACAD_REACTORS
330
2A
102
}
330
2A
100
AcDbProxyObject
 90
      499
 91
      501
 93
      492
310
4411DBDD5C985D5915DA5D1A115919D95CD0340902404333333333333E33F0000000000000F90107409019070040501600405405064090741402480A1B50
1001
ACAD
1000
AcDbSavedByObjectVersion
1070
     0
  0
ACAD_PROXY_OBJECT
  5
31
102
{ACAD_REACTORS
330
2A
102
}
330
2A
100
AcDbProxyObject
 90
      499
 91
      501
 93
      476
310
41921A5919195B90640502408333333333333E33F0000000000000F901079024090700405020000000000001110200405405064090740C02480A0340
1001
ACAD
1000
AcDbSavedByObjectVersion
1070
     0
  0
ACAD_PROXY_OBJECT
  5
3B
102
{ACAD_REACTORS
330
2A
102
}
330
2A
100
AcDbProxyObject
 90
      499
 91
      501
 93
      428
310
42529A5D1D195C93D999914409028333333333333E33F0000000000000F9010790141107004050150A41D405064090741402480A0350
1001
ACAD
1000
AcDbSavedByObjectVersion
1070
     0
  0
ACAD_PROXY_OBJECT
  5
38
102
{ACAD_REACTORS
330
2A
102
}
330
2A
100
AcDbProxyObject
 90
      499
 91
      501
 93
      444
310
42D31A5B995C185D1D195C9B90E409028333333333333E33F0000000000000F9010790141107004050750841D405064090741402483A0350
1001
ACAD
1000
AcDbSavedByObjectVersion
1070
     0
  0
ACAD_PROXY_OBJECT
  5
3C
102
{ACAD_REACTORS
330
2A
102
}
330
2A
100
AcDbProxyObject
 90
      499
 91
      501
 93
      444
310
42D3DD995C9A185B99D3D999915409028333333333333E33F0000000000000F9010790141107004050150941D405064090741402480A0350
1001
ACAD
1000
AcDbSavedByObjectVersion
1070
     0
  0
ACAD_PROXY_OBJECT
  5
33
102
{ACAD_REACTORS
330
2A
102
}
330
2A
100
AcDbProxyObject
 90
      499
 91
      501
 93
      428
310
425499585B1A5CDD1A58D08409038333333333333E33F0000000000000F9010740A907004050150800405405064090740C02480A1B40
1001
ACAD
1000
AcDbSavedByObjectVersion
1070
     0
  0
ACAD_PROXY_OBJECT
  5
42
102
{ACAD_REACTORS
330
2A
102
}
330
2A
100
AcDbProxyObject
 90
      499
 91
      501
 93
      420
310
4194DA1859195911B40902404333333333333E33F0000000000000F9010740A41107004050150800405405064090840C02480A0B40
1001
ACAD
1000
AcDbSavedByObjectVersion
1070
     0
  0
ACAD_PROXY_OBJECT
  5
41
102
{ACAD_REACTORS
330
2A
102
}
330
2A
100
AcDbProxyObject
 90
      499
 91
      501
 93
      516
310
4454DA18591959081DDA5D1A08195919D95CD1A40902404333333333333E33F0000000000000F901074090142907004050250800405405064090740C02480A0B40
1001
ACAD
1000
AcDbSavedByObjectVersion
1070
     0
  0
ACAD_PROXY_OBJECT
  5
3E
102
{ACAD_REACTORS
330
2A
102
}
330
2A
100
AcDbProxyObject
 90
      499
 91
      501
 93
      532
310
4394DA1859195CC81BD98811DC985E5174090240C333333333333E33F0000000000000F901079024090741D01000000000000111010841D405064090740C02480A0340
1001
ACAD
1000
AcDbSavedByObjectVersion
1070
     0
  0
ACAD_PROXY_OBJECT
  5
3F
102
{ACAD_REACTORS
330
2A
102
}
330
2A
100
AcDbProxyObject
 90
      499
 91
      501
 93
      476
310
41D4DAD95D18DA1E51840502408333333333333E33F0000000000000F901079024090741D01000000000000111010B41D405064090741802480A0340
1001
ACAD
1000
AcDbSavedByObjectVersion
1070
     0
  0
ACAD_PROXY_OBJECT
  5
37
102
{ACAD_REACTORS
330
2A
102
}
330
2A
100
AcDbProxyObject
 90
      499
 91
      501
 93
      412
310
41D51A1A58DAD95B90D409028333333333333E33F0000000000000F9010790141107004050150C41D405064090741402480A0350
1001
ACAD
1000
AcDbSavedByObjectVersion
1070
     0
  0
ACAD_PROXY_OBJECT
  5
30
102
{ACAD_REACTORS
330
2A
102
}
330
2A
100
AcDbProxyObject
 90
      499
 91
      501
 93
      420
310
4255DA5C99599C985B595059028333333333333E33F0000000000000F90107901411070040501600405405064090740C02480A0340
1001
ACAD
1000
AcDbSavedByObjectVersion
1070
     0
  0
ACAD_PROXY_OBJECT
  5
40
102
{ACAD_REACTORS
330
2A
102
}
330
2A
100
AcDbProxyObject
 90
      499
 91
      501
 93
      404
310
41560B54985E51940902404000000000000E03F0000000000000F9010740501907004050150841D405064090740C02480A1B40
1001
ACAD
1000
AcDbSavedByObjectVersion
1070
     0
  0
XRECORD
  5
62B
102
{ACAD_REACTORS
330
621
102
}
330
621
100
AcDbXrecord
340
0
  0
XRECORD
  5
62A
102
{ACAD_REACTORS
330
621
102
}
330
621
100
AcDbXrecord
 90
        0
  0
XRECORD
  5
641
102
{ACAD_REACTORS
330
621
102
}
330
621
100
AcDbXrecord
1000
DSTYLE
1002
{
1070
   179
 70
     2
1070
   171
 70
     2
1070
   143
 40
25.4
1070
   274
 70
     2
1070
    41
 40
3.0
1070
   141
 40
0.09
1070
    43
 40
0.38
1070
   278
 70
    46
1070
    44
 40
1.5
1070
    42
 40
0.0625
1070
   147
 40
1.5
1070
   272
 70
     4
1070
    73
 70
     1
1070
   172
 70
     0
1070
    74
 70
     1
1070
   283
 70
     1
1070
   340
340
6F
1070
   140
 40
3.0
1070
   284
 70
     0
1070
    78
 70
     0
1002
}
  0
XRECORD
  5
62C
102
{ACAD_REACTORS
330
621
102
}
330
621
100
AcDbXrecord
  1
{36496509-3669-4DC8-9CBB-715FDE4B2690}
  0
XRECORD
  5
624
102
{ACAD_REACTORS
330
621
102
}
330
621
100
AcDbXrecord
  1

  0
XRECORD
  5
629
102
{ACAD_REACTORS
330
621
102
}
330
621
100
AcDbXrecord
 90
        4
  0
XRECORD
  5
626
102
{ACAD_REACTORS
330
621
102
}
330
621
100
AcDbXrecord
340
1A
  0
XRECORD
  5
628
102
{ACAD_REACTORS
330
621
102
}
330
621
100
AcDbXrecord
 90
    10269
  0
XRECORD
  5
627
102
{ACAD_REACTORS
330
621
102
}
330
621
100
AcDbXrecord
340
19
  0
XRECORD
  5
62E
102
{ACAD_REACTORS
330
621
102
}
330
621
100
AcDbXrecord
 40
0.0
  0
XRECORD
  5
631
102
{ACAD_REACTORS
330
621
102
}
330
621
100
AcDbXrecord
340
0
  0
XRECORD
  5
637
102
{ACAD_REACTORS
330
621
102
}
330
621
100
AcDbXrecord
 10
0.0
 20
0.0
 30
0.0
  0
XRECORD
  5
633
102
{ACAD_REACTORS
330
621
102
}
330
621
100
AcDbXrecord
 10
0.0
 20
0.0
 30
0.0
  0
XRECORD
  5
636
102
{ACAD_REACTORS
330
621
102
}
330
621
100
AcDbXrecord
 10
0.0
 20
0.0
 30
0.0
  0
XRECORD
  5
634
102
{ACAD_REACTORS
330
621
102
}
330
621
100
AcDbXrecord
 10
0.0
 20
0.0
 30
0.0
  0
XRECORD
  5
635
102
{ACAD_REACTORS
330
621
102
}
330
621
100
AcDbXrecord
 10
0.0
 20
0.0
 30
0.0
  0
XRECORD
  5
632
102
{ACAD_REACTORS
330
621
102
}
330
621
100
AcDbXrecord
 10
0.0
 20
0.0
 30
0.0
  0
XRECORD
  5
62F
102
{ACAD_REACTORS
330
621
102
}
330
621
100
AcDbXrecord
340
0
  0
XRECORD
  5
630
102
{ACAD_REACTORS
330
621
102
}
330
621
100
AcDbXrecord
 70
     0
  0
XRECORD
  5
625
102
{ACAD_REACTORS
330
621
102
}
330
621
100
AcDbXrecord
  1

  0
XRECORD
  5
622
102
{ACAD_REACTORS
330
621
102
}
330
621
100
AcDbXrecord
 90
        1
  0
XRECORD
  5
623
102
{ACAD_REACTORS
330
621
102
}
330
621
100
AcDbXrecord
 90
       70
  0
XRECORD
  5
63A
102
{ACAD_REACTORS
330
621
102
}
330
621
100
AcDbXrecord
340
0
  0
XRECORD
  5
640
102
{ACAD_REACTORS
330
621
102
}
330
621
100
AcDbXrecord
 10
0.0
 20
0.0
 30
0.0
  0
XRECORD
  5
63C
102
{ACAD_REACTORS
330
621
102
}
330
621
100
AcDbXrecord
 10
0.0
 20
0.0
 30
0.0
  0
XRECORD
  5
63F
102
{ACAD_REACTORS
330
621
102
}
330
621
100
AcDbXrecord
 10
0.0
 20
0.0
 30
0.0
  0
XRECORD
  5
63D
102
{ACAD_REACTORS
330
621
102
}
330
621
100
AcDbXrecord
 10
0.0
 20
0.0
 30
0.0
  0
XRECORD
  5
63E
102
{ACAD_REACTORS
330
621
102
}
330
621
100
AcDbXrecord
 10
0.0
 20
0.0
 30
0.0
  0
XRECORD
  5
63B
102
{ACAD_REACTORS
330
621
102
}
330
621
100
AcDbXrecord
 10
0.0
 20
0.0
 30
0.0
  0
XRECORD
  5
638
102
{ACAD_REACTORS
330
621
102
}
330
621
100
AcDbXrecord
340
0
  0
XRECORD
  5
639
102
{ACAD_REACTORS
330
621
102
}
330
621
100
AcDbXrecord
 70
     0
  0
XRECORD
  5
62D
102
{ACAD_REACTORS
330
621
102
}
330
621
100
AcDbXrecord
  1
{FAEB1C32-E019-11D5-929B-00C0DF256EC4}
  0
DICTIONARYVAR
  5
64B
102
{ACAD_REACTORS
330
642
102
}
330
642
100
DictionaryVariables
280
     0
  1
1:1
  0
DICTIONARYVAR
  5
644
102
{ACAD_REACTORS
330
642
102
}
330
642
100
DictionaryVariables
280
     0
  1
Standard
  0
DICTIONARYVAR
  5
643
102
{ACAD_REACTORS
330
642
102
}
330
642
100
DictionaryVariables
280
     0
  1
Standard
  0
DICTIONARYVAR
  5
647
102
{ACAD_REACTORS
330
642
102
}
330
642
100
DictionaryVariables
280
     0
  1
2
  0
DICTIONARYVAR
  5
648
102
{ACAD_REACTORS
330
642
102
}
330
642
100
DictionaryVariables
280
     0
  1
1
  0
DICTIONARYVAR
  5
64C
102
{ACAD_REACTORS
330
642
102
}
330
642
100
DictionaryVariables
280
     0
  1
1
  0
DICTIONARY
  5
64F
330
45
100
AcDbDictionary
280
     1
  3
ACAD_XREC_ROUNDTRIP
360
650
  0
DICTIONARY
  5
64D
330
44
100
AcDbDictionary
280
     1
  3
ACAD_XREC_ROUNDTRIP
360
64E
  0
DICTIONARY
  5
651
330
46
100
AcDbDictionary
280
     1
  3
ACAD_XREC_ROUNDTRIP
360
652
  0
XRECORD
  5
650
102
{ACAD_REACTORS
330
64F
102
}
330
64F
100
AcDbXrecord
102
MATERIAL
148
0.0
149
0.0
149
0.0
 93
        0
 94
      127
282
     0
 72
     1
 77
     1
171
     1
175
     1
179
     1
273
     0
  0
XRECORD
  5
64E
102
{ACAD_REACTORS
330
64D
102
}
330
64D
100
AcDbXrecord
102
MATERIAL
148
0.0
149
0.0
149
0.0
 93
        0
 94
      127
282
     0
 72
     1
 77
     1
171
     1
175
     1
179
     1
273
     0
  0
XRECORD
  5
652
102
{ACAD_REACTORS
330
651
102
}
330
651
100
AcDbXrecord
102
MATERIAL
148
0.0
149
0.0
149
0.0
 93
        0
 94
      127
282
     0
 72
     1
 77
     1
171
     1
175
     1
179
     1
273
     0
  0
ENDSEC
  0
EOF
