  0
SECTION
  2
HEADER
  9
$ACADVER
  1
AC1014
  9
$ACADMAINTVER
 70
     9
  9
$DWGCODEPAGE
  3
ANSI_932
  9
$INSBASE
 10
0.0
 20
0.0
 30
0.0
  9
$EXTMIN
 10
-1195.4
 20
-106.6539389771164
 30
0.0
  9
$EXTMAX
 10
891.0999999999999
 20
124.35
 30
10.0
  9
$LIMMIN
 10
0.0
 20
0.0
  9
$LIMMAX
 10
12.0
 20
9.0
  9
$ORTHOMODE
 70
     0
  9
$REGENMODE
 70
     1
  9
$FILLMODE
 70
     1
  9
$QTEXTMODE
 70
     0
  9
$MIRRTEXT
 70
     1
  9
$DRAGMODE
 70
     2
  9
$LTSCALE
 40
1.0
  9
$OSMODE
 70
    37
  9
$ATTMODE
 70
     1
  9
$TEXTSIZE
 40
0.2
  9
$TRACEWID
 40
0.05
  9
$TEXTSTYLE
  7
STANDARD
  9
$CLAYER
  8
0
  9
$CELTYPE
  6
BYLAYER
  9
$CECOLOR
 62
   256
  9
$CELTSCALE
 40
1.0
  9
$DELOBJ
 70
     1
  9
$DISPSILH
 70
     0
  9
$DIMSCALE
 40
1.0
  9
$DIMASZ
 40
3.0
  9
$DIMEXO
 40
0.0625
  9
$DIMDLI
 40
0.38
  9
$DIMRND
 40
0.0
  9
$DIMDLE
 40
0.0
  9
$DIMEXE
 40
1.5
  9
$DIMTP
 40
0.0
  9
$DIMTM
 40
0.0
  9
$DIMTXT
 40
3.0
  9
$DIMCEN
 40
0.09
  9
$DIMTSZ
 40
0.0
  9
$DIMTOL
 70
     0
  9
$DIMLIM
 70
     0
  9
$DIMTIH
 70
     1
  9
$DIMTOH
 70
     1
  9
$DIMSE1
 70
     0
  9
$DIMSE2
 70
     0
  9
$DIMTAD
 70
     1
  9
$DIMZIN
 70
     0
  9
$DIMBLK
  1

  9
$DIMASO
 70
     1
  9
$DIMSHO
 70
     1
  9
$DIMPOST
  1

  9
$DIMAPOST
  1

  9
$DIMALT
 70
     0
  9
$DIMALTD
 70
     2
  9
$DIMALTF
 40
25.4
  9
$DIMLFAC
 40
1.0
  9
$DIMTOFL
 70
     0
  9
$DIMTVP
 40
0.0
  9
$DIMTIX
 70
     0
  9
$DIMSOXD
 70
     0
  9
$DIMSAH
 70
     0
  9
$DIMBLK1
  1

  9
$DIMBLK2
  1

  9
$DIMSTYLE
  2
STANDARD
  9
$DIMCLRD
 70
     0
  9
$DIMCLRE
 70
     0
  9
$DIMCLRT
 70
     0
  9
$DIMTFAC
 40
1.0
  9
$DIMGAP
 40
1.5
  9
$DIMJUST
 70
     0
  9
$DIMSD1
 70
     0
  9
$DIMSD2
 70
     0
  9
$DIMTOLJ
 70
     1
  9
$DIMTZIN
 70
     0
  9
$DIMALTZ
 70
     0
  9
$DIMALTTZ
 70
     0
  9
$DIMFIT
 70
     3
  9
$DIMUPT
 70
     0
  9
$DIMUNIT
 70
     2
  9
$DIMDEC
 70
     2
  9
$DIMTDEC
 70
     4
  9
$DIMALTU
 70
     2
  9
$DIMALTTD
 70
     2
  9
$DIMTXSTY
  7
ＭＳ_ゴシック
  9
$DIMAUNIT
 70
     0
  9
$LUNITS
 70
     2
  9
$LUPREC
 70
     4
  9
$SKETCHINC
 40
0.1
  9
$FILLETRAD
 40
0.5
  9
$AUNITS
 70
     0
  9
$AUPREC
 70
     0
  9
$MENU
  1
.
  9
$ELEVATION
 40
0.0
  9
$PELEVATION
 40
0.0
  9
$THICKNESS
 40
0.0
  9
$LIMCHECK
 70
     0
  9
$CHAMFERA
 40
0.0
  9
$CHAMFERB
 40
0.0
  9
$CHAMFERC
 40
0.0
  9
$CHAMFERD
 40
0.0
  9
$SKPOLY
 70
     0
  9
$TDCREATE
 40
2460354.55803125
  9
$TDUPDATE
 40
2460354.558031678
  9
$TDINDWG
 40
0.0000000116
  9
$TDUSRTIMER
 40
0.0000000116
  9
$USRTIMER
 70
     1
  9
$ANGBASE
 50
0.0
  9
$ANGDIR
 70
     0
  9
$PDMODE
 70
     0
  9
$PDSIZE
 40
0.0
  9
$PLINEWID
 40
0.0
  9
$COORDS
 70
     1
  9
$SPLFRAME
 70
     0
  9
$SPLINETYPE
 70
     6
  9
$SPLINESEGS
 70
     8
  9
$ATTDIA
 70
     0
  9
$ATTREQ
 70
     1
  9
$HANDLING
 70
     1
  9
$HANDSEED
  5
57C
  9
$SURFTAB1
 70
     6
  9
$SURFTAB2
 70
     6
  9
$SURFTYPE
 70
     6
  9
$SURFU
 70
     6
  9
$SURFV
 70
     6
  9
$UCSNAME
  2

  9
$UCSORG
 10
0.0
 20
0.0
 30
0.0
  9
$UCSXDIR
 10
1.0
 20
0.0
 30
0.0
  9
$UCSYDIR
 10
0.0
 20
1.0
 30
0.0
  9
$PUCSNAME
  2

  9
$PUCSORG
 10
0.0
 20
0.0
 30
0.0
  9
$PUCSXDIR
 10
1.0
 20
0.0
 30
0.0
  9
$PUCSYDIR
 10
0.0
 20
1.0
 30
0.0
  9
$USERI1
 70
     0
  9
$USERI2
 70
     0
  9
$USERI3
 70
     0
  9
$USERI4
 70
     0
  9
$USERI5
 70
     0
  9
$USERR1
 40
0.0
  9
$USERR2
 40
0.0
  9
$USERR3
 40
0.0
  9
$USERR4
 40
0.0
  9
$USERR5
 40
0.0
  9
$WORLDVIEW
 70
     1
  9
$SHADEDGE
 70
     3
  9
$SHADEDIF
 70
    70
  9
$TILEMODE
 70
     1
  9
$MAXACTVP
 70
    64
  9
$PINSBASE
 10
0.0
 20
0.0
 30
0.0
  9
$PLIMCHECK
 70
     0
  9
$PEXTMIN
 10
1.000000000000000E+20
 20
1.000000000000000E+20
 30
1.000000000000000E+20
  9
$PEXTMAX
 10
-1.000000000000000E+20
 20
-1.000000000000000E+20
 30
-1.000000000000000E+20
  9
$PLIMMIN
 10
0.0
 20
0.0
  9
$PLIMMAX
 10
12.0
 20
9.0
  9
$UNITMODE
 70
     0
  9
$VISRETAIN
 70
     1
  9
$PLINEGEN
 70
     0
  9
$PSLTSCALE
 70
     1
  9
$TREEDEPTH
 70
  3020
  9
$PICKSTYLE
 70
     1
  9
$CMLSTYLE
  2
STANDARD
  9
$CMLJUST
 70
     0
  9
$CMLSCALE
 40
1.0
  9
$PROXYGRAPHICS
 70
     1
  9
$MEASUREMENT
 70
     1
  0
ENDSEC
  0
SECTION
  2
CLASSES
  0
CLASS
  1
ACDBDICTIONARYWDFLT
  2
AcDbDictionaryWithDefault
  3
ObjectDBX Classes
 90
        0
280
     0
281
     0
  0
CLASS
  1
VISUALSTYLE
  2
AcDbVisualStyle
  3
ObjectDBX Classes
 90
     4095
280
     0
281
     0
  0
CLASS
  1
MATERIAL
  2
AcDbMaterial
  3
ObjectDBX Classes
 90
     1153
280
     0
281
     0
  0
CLASS
  1
SCALE
  2
AcDbScale
  3
ObjectDBX Classes
 90
     1153
280
     0
281
     0
  0
CLASS
  1
TABLESTYLE
  2
AcDbTableStyle
  3
ObjectDBX Classes
 90
     4095
280
     0
281
     0
  0
CLASS
  1
MLEADERSTYLE
  2
AcDbMLeaderStyle
  3
ACDB_MLEADERSTYLE_CLASS
 90
     4095
280
     0
281
     0
  0
CLASS
  1
SUN
  2
AcDbSun
  3
SCENEOE
 90
     1153
280
     0
281
     0
  0
CLASS
  1
DICTIONARYVAR
  2
AcDbDictionaryVar
  3
ObjectDBX Classes
 90
        0
280
     0
281
     0
  0
CLASS
  1
XRECORD
  2
AcDbXrecord
  3
ObjectDBX Classes
 90
        0
280
     0
281
     0
  0
CLASS
  1
LWPOLYLINE
  2
AcDbPolyline
  3
ObjectDBX Classes
 90
        0
280
     0
281
     1
  0
CLASS
  1
HATCH
  2
AcDbHatch
  3
ObjectDBX Classes
 90
        0
280
     0
281
     1
  0
CLASS
  1
ACDBPLACEHOLDER
  2
AcDbPlaceHolder
  3
ObjectDBX Classes
 90
        0
280
     0
281
     0
  0
CLASS
  1
LAYOUT
  2
AcDbLayout
  3
ObjectDBX Classes
 90
        0
280
     0
281
     0
  0
ENDSEC
  0
SECTION
  2
TABLES
  0
TABLE
  2
VPORT
  5
8
102
{ACAD_XDICTIONARY
360
571
102
}
330
0
100
AcDbSymbolTable
 70
     1
  0
VPORT
  5
29
330
8
100
AcDbSymbolTableRecord
100
AcDbViewportTableRecord
  2
*ACTIVE
 70
     0
 10
0.0
 20
0.0
 11
1.0
 21
1.0
 12
-152.1500000000001
 22
8.848030511441792
 13
0.0
 23
0.0
 14
0.5
 24
0.5
 15
0.5
 25
0.5
 16
0.0
 26
0.0
 36
1.0
 17
0.0
 27
0.0
 37
0.0
 40
231.0039389771164
 41
1.6
 42
50.0
 43
0.0
 44
0.0
 50
0.0
 51
0.0
 71
     0
 72
   100
 73
     1
 74
     3
 75
     0
 76
     0
 77
     0
 78
     0
  0
ENDTAB
  0
TABLE
  2
LTYPE
  5
5
330
0
100
AcDbSymbolTable
 70
     2
  0
LTYPE
  5
14
330
5
100
AcDbSymbolTableRecord
100
AcDbLinetypeTableRecord
  2
BYBLOCK
 70
     0
  3

 72
    65
 73
     0
 40
0.0
  0
LTYPE
  5
15
330
5
100
AcDbSymbolTableRecord
100
AcDbLinetypeTableRecord
  2
BYLAYER
 70
     0
  3

 72
    65
 73
     0
 40
0.0
  0
LTYPE
  5
16
330
5
100
AcDbSymbolTableRecord
100
AcDbLinetypeTableRecord
  2
CONTINUOUS
 70
     0
  3
Solid line
 72
    65
 73
     0
 40
0.0
  0
LTYPE
  5
142
330
5
100
AcDbSymbolTableRecord
100
AcDbLinetypeTableRecord
  2
CENTER
 70
     0
  3

 72
    65
 73
     0
 40
0.0
  0
ENDTAB
  0
TABLE
  2
LAYER
  5
2
330
0
100
AcDbSymbolTable
 70
     2
  0
LAYER
  5
10
330
2
100
AcDbSymbolTableRecord
100
AcDbLayerTableRecord
  2
0
 70
     0
 62
     7
  6
CONTINUOUS
  0
LAYER
  5
6E
330
2
100
AcDbSymbolTableRecord
100
AcDbLayerTableRecord
  2
1
 70
     0
 62
     7
  6
CONTINUOUS
  0
ENDTAB
  0
TABLE
  2
STYLE
  5
3
330
0
100
AcDbSymbolTable
 70
     2
  0
STYLE
  5
11
330
3
100
AcDbSymbolTableRecord
100
AcDbTextStyleTableRecord
  2
STANDARD
 70
     0
 40
0.0
 41
1.0
 50
0.0
 71
     0
 42
0.2
  3
txt
  4

  0
STYLE
  5
6F
330
3
100
AcDbSymbolTableRecord
100
AcDbTextStyleTableRecord
  2
ＭＳ_ゴシック
 70
     0
 40
0.0
 41
1.0
 50
0.0
 71
     0
 42
0.2
  3
ＭＳ ゴシック.shx
  4

  0
ENDTAB
  0
TABLE
  2
VIEW
  5
6
330
0
100
AcDbSymbolTable
 70
     0
  0
ENDTAB
  0
TABLE
  2
UCS
  5
7
330
0
100
AcDbSymbolTable
 70
     0
  0
ENDTAB
  0
TABLE
  2
APPID
  5
9
330
0
100
AcDbSymbolTable
 70
     2
  0
APPID
  5
12
330
9
100
AcDbSymbolTableRecord
100
AcDbRegAppTableRecord
  2
ACAD
 70
     0
  0
APPID
  5
57B
330
9
100
AcDbSymbolTableRecord
100
AcDbRegAppTableRecord
  2
ACAD_MLEADERVER
 70
     0
  0
ENDTAB
  0
TABLE
  2
DIMSTYLE
  5
A
330
0
100
AcDbSymbolTable
 70
     1
  0
DIMSTYLE
105
27
330
A
100
AcDbSymbolTableRecord
100
AcDbDimStyleTableRecord
  2
STANDARD
 70
     0
  3

  4

  5

  6

  7

 40
1.0
 41
0.18
 42
0.0625
 43
0.38
 44
0.18
 45
0.0
 46
0.0
 47
0.0
 48
0.0
140
0.18
141
0.09
142
0.0
143
25.4
144
1.0
145
0.0
146
1.0
147
0.09
 71
     0
 72
     0
 73
     1
 74
     1
 75
     0
 76
     0
 77
     0
 78
     0
170
     0
171
     2
172
     0
173
     0
174
     0
175
     0
176
     0
177
     0
178
     0
270
     2
271
     4
272
     4
273
     2
274
     2
340
11
275
     0
280
     0
281
     0
282
     0
283
     1
284
     0
285
     0
286
     0
287
     3
288
     0
  0
ENDTAB
  0
TABLE
  2
BLOCK_RECORD
  5
1
330
0
100
AcDbSymbolTable
 70
     0
  0
BLOCK_RECORD
  5
1F
330
1
100
AcDbSymbolTableRecord
100
AcDbBlockTableRecord
  2
*MODEL_SPACE
  0
BLOCK_RECORD
  5
1B
330
1
100
AcDbSymbolTableRecord
100
AcDbBlockTableRecord
  2
*PAPER_SPACE
  0
ENDTAB
  0
ENDSEC
  0
SECTION
  2
BLOCKS
  0
BLOCK
  5
20
330
1F
100
AcDbEntity
  8
0
100
AcDbBlockBegin
  2
*MODEL_SPACE
 70
     0
 10
0.0
 20
0.0
 30
0.0
  3
*MODEL_SPACE
  1

  0
ENDBLK
  5
21
330
1F
100
AcDbEntity
  8
0
100
AcDbBlockEnd
  0
BLOCK
  5
1C
330
1B
100
AcDbEntity
 67
     1
  8
0
100
AcDbBlockBegin
  2
*PAPER_SPACE
 70
     0
 10
0.0
 20
0.0
 30
0.0
  3
*PAPER_SPACE
  1

  0
ENDBLK
  5
1D
330
1B
100
AcDbEntity
 67
     1
  8
0
100
AcDbBlockEnd
  0
ENDSEC
  0
SECTION
  2
ENTITIES
  0
LWPOLYLINE
  5
70
330
1F
100
AcDbEntity
  8
1
  6
CONTINUOUS
 62
   253
100
AcDbPolyline
 90
        4
 70
     0
 43
0.0
 10
-465.6446443935185
 20
26.18426949323156
 10
-465.7037733943525
 20
26.29375440103054
 10
-465.7898059295138
 20
26.38003600374067
 10
-465.8284081180192
 20
26.39463615834834
210
0.0
220
0.0
230
-1.0
  0
LWPOLYLINE
  5
71
330
1F
100
AcDbEntity
  8
1
  6
CONTINUOUS
 62
   253
100
AcDbPolyline
 90
        3
 70
     0
 43
0.0
 10
-465.8284081180192
 20
22.30536384165167
 10
-465.7272702048027
 20
22.37481633837871
 10
-465.6637731021559
 20
22.47514517277198
210
0.0
220
0.0
230
-1.0
  0
LWPOLYLINE
  5
72
330
1F
100
AcDbEntity
  8
1
  6
CONTINUOUS
 62
     7
100
AcDbPolyline
 90
        5
 70
     0
 43
0.0
 10
395.1425703692276
 20
-47.60034605052009
 10
395.2268150820466
 20
-47.44933090446543
 10
395.2872127018497
 20
-47.29463271928106
 10
395.3244403839042
 20
-47.1331454135023
 10
395.3368339886072
 20
-46.96979191500463
  0
ARC
  5
73
330
1F
100
AcDbEntity
  8
1
  6
CONTINUOUS
 62
     7
100
AcDbCircle
 10
347.4918090572373
 20
-52.62985001559508
 30
0.0
 40
3.999999999999995
100
AcDbArc
 50
280.5106653393304
 51
347.5000000000002
  0
ARC
  5
74
330
1F
100
AcDbEntity
  8
1
  6
CONTINUOUS
 62
     7
100
AcDbCircle
 10
-275.5781410800229
 20
-52.62985001559509
 30
0.0
 40
3.99999999999999
100
AcDbArc
 50
192.4999999999999
 51
259.4893346606697
  0
ARC
  5
75
330
1F
100
AcDbEntity
  8
1
  6
CONTINUOUS
 62
     7
100
AcDbCircle
 10
41.61180905723727
 20
-52.6298500155951
 30
0.0
 40
3.999999999999995
100
AcDbArc
 50
280.5106653393304
 51
347.5000000000002
  0
ARC
  5
76
330
1F
100
AcDbEntity
  8
1
  6
CONTINUOUS
 62
     7
100
AcDbCircle
 10
-231.2681909427627
 20
101.3298500155951
 30
0.0
 40
3.99999999999999
100
AcDbArc
 50
12.49999999999991
 51
79.48933466066964
  0
ARC
  5
77
330
1F
100
AcDbEntity
  8
1
  6
CONTINUOUS
 62
     7
100
AcDbCircle
 10
41.61180905723727
 20
101.3298500155951
 30
0.0
 40
3.99999999999999
100
AcDbArc
 50
12.49999999999991
 51
79.48933466066964
  0
ARC
  5
78
330
1F
100
AcDbEntity
  8
1
  6
CONTINUOUS
 62
     7
100
AcDbCircle
 10
96.301858919977
 20
101.329850015595
 30
0.0
 40
3.999999999999995
100
AcDbArc
 50
100.5106653393304
 51
167.5000000000001
  0
ARC
  5
79
330
1F
100
AcDbEntity
  8
1
  6
CONTINUOUS
 62
     7
100
AcDbCircle
 10
-189.3881909427628
 20
-52.62985001559508
 30
0.0
 40
3.999999999999995
100
AcDbArc
 50
280.5106653393304
 51
347.5000000000002
  0
ARC
  5
7A
330
1F
100
AcDbEntity
  8
1
  6
CONTINUOUS
 62
     7
100
AcDbCircle
 10
-374.5781410800229
 20
101.3298500155951
 30
0.0
 40
3.999999999999995
100
AcDbArc
 50
100.5106653393304
 51
167.4999999999999
  0
ARC
  5
7B
330
1F
100
AcDbEntity
  8
1
  6
CONTINUOUS
 62
     7
100
AcDbCircle
 10
138.1818589199771
 20
101.3298500155951
 30
0.0
 40
3.999999999999995
100
AcDbArc
 50
100.5106653393304
 51
167.5000000000003
  0
ARC
  5
7C
330
1F
100
AcDbEntity
  8
1
  6
CONTINUOUS
 62
     7
100
AcDbCircle
 10
107.6118090572372
 20
-52.62985001559512
 30
0.0
 40
3.999999999999995
100
AcDbArc
 50
280.5106653393304
 51
347.5000000000003
  0
ARC
  5
7D
330
1F
100
AcDbEntity
  8
1
  6
CONTINUOUS
 62
     7
100
AcDbCircle
 10
30.301858919977
 20
101.3298500155951
 30
0.0
 40
3.999999999999995
100
AcDbArc
 50
100.5106653393304
 51
167.5000000000001
  0
LINE
  5
7E
330
1F
100
AcDbEntity
  8
1
  6
CONTINUOUS
 62
     7
100
AcDbLine
 10
-653.8637056341047
 20
-42.21712077212387
 30
0.0
 11
-651.3633251085027
 21
-53.49560847134725
 31
0.0
  0
LINE
  5
7F
330
1F
100
AcDbEntity
  8
1
  6
CONTINUOUS
 62
     7
100
AcDbLine
 10
-345.4833251085026
 20
102.1956084713476
 30
0.0
 11
-347.9837056341046
 21
90.91712077212367
 31
0.0
  0
ARC
  5
80
330
1F
100
AcDbEntity
  8
1
  6
CONTINUOUS
 62
     7
100
AcDbCircle
 10
-101.6981410800229
 20
-52.62985001559509
 30
0.0
 40
3.999999999999984
100
AcDbArc
 50
192.4999999999995
 51
259.4893346606696
  0
ARC
  5
81
330
1F
100
AcDbEntity
  8
1
  6
CONTINUOUS
 62
     7
100
AcDbCircle
 10
336.1818589199771
 20
-52.62985001559508
 30
0.0
 40
3.99999999999999
100
AcDbArc
 50
192.4999999999999
 51
259.4893346606697
  0
LINE
  5
82
330
1F
100
AcDbEntity
  8
1
  6
CONTINUOUS
 62
     7
100
AcDbLine
 10
-174.1037056341046
 20
-42.21712077212356
 30
0.0
 11
-171.6033251085027
 21
-53.49560847134744
 31
0.0
  0
LINE
  5
83
330
1F
100
AcDbEntity
  8
1
  6
CONTINUOUS
 62
     7
100
AcDbLine
 10
-119.483006914283
 20
-53.49560847134752
 30
0.0
 11
-116.9826263886811
 21
-42.21712077212415
 31
0.0
  0
LINE
  5
84
330
1F
100
AcDbEntity
  8
1
  6
CONTINUOUS
 62
     7
100
AcDbLine
 10
-116.9826263886811
 20
90.91712077212405
 30
0.0
 11
-119.483006914283
 21
102.1956084713474
 31
0.0
  0
LINE
  5
85
330
1F
100
AcDbEntity
  8
1
  6
CONTINUOUS
 62
     7
100
AcDbLine
 10
-455.862626388681
 20
90.91712077212355
 30
0.0
 11
-458.3630069142829
 21
102.1956084713474
 31
0.0
  0
ARC
  5
86
330
1F
100
AcDbEntity
  8
1
  6
CONTINUOUS
 62
     7
100
AcDbCircle
 10
281.4918090572373
 20
-52.62985001559508
 30
0.0
 40
3.999999999999995
100
AcDbArc
 50
280.5106653393304
 51
347.5000000000002
  0
LINE
  5
87
330
1F
100
AcDbEntity
  8
1
  6
CONTINUOUS
 62
     7
100
AcDbLine
 10
-794.7426263886811
 20
90.91712077212317
 30
0.0
 11
-797.2430069142831
 21
102.1956084713476
 31
0.0
  0
ARC
  5
88
330
1F
100
AcDbEntity
  8
1
  6
CONTINUOUS
 62
     7
100
AcDbCircle
 10
314.4918090572373
 20
-52.62985001559508
 30
0.0
 40
3.999999999999995
100
AcDbArc
 50
280.5106653393304
 51
347.5000000000002
  0
LINE
  5
89
330
1F
100
AcDbEntity
  8
1
  6
CONTINUOUS
 62
     7
100
AcDbLine
 10
-512.9837056341046
 20
-42.21712077212398
 30
0.0
 11
-510.4833251085027
 21
-53.49560847134737
 31
0.0
  0
ARC
  5
8A
330
1F
100
AcDbEntity
  8
1
  6
CONTINUOUS
 62
     7
100
AcDbCircle
 10
-24.38819094276273
 20
-52.6298500155951
 30
0.0
 40
3.999999999999995
100
AcDbArc
 50
280.5106653393304
 51
347.5000000000002
  0
ARC
  5
8B
330
1F
100
AcDbEntity
  8
1
  6
CONTINUOUS
 62
     7
100
AcDbCircle
 10
-123.3881909427627
 20
101.3298500155951
 30
0.0
 40
3.99999999999999
100
AcDbArc
 50
12.49999999999991
 51
79.48933466066964
  0
ARC
  5
8C
330
1F
100
AcDbEntity
  8
1
  6
CONTINUOUS
 62
     7
100
AcDbCircle
 10
138.1818589199771
 20
-52.62985001559508
 30
0.0
 40
3.999999999999986
100
AcDbArc
 50
192.4999999999997
 51
259.4893346606696
  0
ARC
  5
8D
330
1F
100
AcDbEntity
  8
1
  6
CONTINUOUS
 62
     7
100
AcDbCircle
 10
-101.6981410800229
 20
101.3298500155951
 30
0.0
 40
3.999999999999995
100
AcDbArc
 50
100.5106653393304
 51
167.5000000000005
  0
ARC
  5
8E
330
1F
100
AcDbEntity
  8
1
  6
CONTINUOUS
 62
     7
100
AcDbCircle
 10
-57.38819094276276
 20
101.3298500155951
 30
0.0
 40
3.99999999999999
100
AcDbArc
 50
12.49999999999991
 51
79.48933466066964
  0
ARC
  5
8F
330
1F
100
AcDbEntity
  8
1
  6
CONTINUOUS
 62
     7
100
AcDbCircle
 10
-363.2681909427627
 20
101.3298500155951
 30
0.0
 40
3.99999999999999
100
AcDbArc
 50
12.49999999999991
 51
79.48933466066964
  0
ARC
  5
90
330
1F
100
AcDbEntity
  8
1
  6
CONTINUOUS
 62
     7
100
AcDbCircle
 10
-156.3881909427627
 20
-52.62985001559509
 30
0.0
 40
3.999999999999995
100
AcDbArc
 50
280.5106653393304
 51
347.5000000000002
  0
ARC
  5
91
330
1F
100
AcDbEntity
  8
1
  6
CONTINUOUS
 62
     7
100
AcDbCircle
 10
107.6118090572372
 20
101.329850015595
 30
0.0
 40
3.999999999999986
100
AcDbArc
 50
12.49999999999971
 51
79.48933466066963
  0
ARC
  5
92
330
1F
100
AcDbEntity
  8
1
  6
CONTINUOUS
 62
     7
100
AcDbCircle
 10
171.1818589199771
 20
101.3298500155951
 30
0.0
 40
3.999999999999995
100
AcDbArc
 50
100.5106653393304
 51
167.5000000000001
  0
ARC
  5
93
330
1F
100
AcDbEntity
  8
1
  6
CONTINUOUS
 62
     7
100
AcDbCircle
 10
-374.5781410800229
 20
-52.62985001559508
 30
0.0
 40
3.999999999999986
100
AcDbArc
 50
192.4999999999997
 51
259.4893346606696
  0
ARC
  5
94
330
1F
100
AcDbEntity
  8
1
  6
CONTINUOUS
 62
     7
100
AcDbCircle
 10
-308.5781410800229
 20
101.3298500155951
 30
0.0
 40
3.999999999999995
100
AcDbArc
 50
100.5106653393304
 51
167.5000000000001
  0
LINE
  5
95
330
1F
100
AcDbEntity
  8
1
  6
CONTINUOUS
 62
     7
100
AcDbLine
 10
-458.3630069142829
 20
-53.49560847134752
 30
0.0
 11
-455.862626388681
 21
-42.21712077212364
 31
0.0
  0
ARC
  5
96
330
1F
100
AcDbEntity
  8
1
  6
CONTINUOUS
 62
     7
100
AcDbCircle
 10
-341.578141080023
 20
101.3298500155951
 30
0.0
 40
3.999999999999995
100
AcDbArc
 50
100.5106653393304
 51
167.4999999999997
  0
ARC
  5
97
330
1F
100
AcDbEntity
  8
1
  6
CONTINUOUS
 62
     7
100
AcDbCircle
 10
-363.2681909427627
 20
-52.62985001559508
 30
0.0
 40
3.999999999999995
100
AcDbArc
 50
280.5106653393304
 51
347.5000000000002
  0
ARC
  5
98
330
1F
100
AcDbEntity
  8
1
  6
CONTINUOUS
 62
     7
100
AcDbCircle
 10
96.301858919977
 20
-52.62985001559512
 30
0.0
 40
3.99999999999999
100
AcDbArc
 50
192.4999999999999
 51
259.4893346606697
  0
ARC
  5
99
330
1F
100
AcDbEntity
  8
1
  6
CONTINUOUS
 62
     7
100
AcDbCircle
 10
-57.38819094276276
 20
-52.6298500155951
 30
0.0
 40
3.999999999999995
100
AcDbArc
 50
280.5106653393304
 51
347.5000000000002
  0
ARC
  5
9A
330
1F
100
AcDbEntity
  8
1
  6
CONTINUOUS
 62
     7
100
AcDbCircle
 10
171.1818589199771
 20
-52.62985001559508
 30
0.0
 40
3.99999999999999
100
AcDbArc
 50
192.4999999999999
 51
259.4893346606697
  0
LINE
  5
9B
330
1F
100
AcDbEntity
  8
1
  6
CONTINUOUS
 62
     7
100
AcDbLine
 10
26.39667489149727
 20
102.1956084713475
 30
0.0
 11
23.89629436589535
 21
90.91712077212385
 31
0.0
  0
ARC
  5
9C
330
1F
100
AcDbEntity
  8
1
  6
CONTINUOUS
 62
     7
100
AcDbCircle
 10
347.4918090572373
 20
101.3298500155951
 30
0.0
 40
3.99999999999999
100
AcDbArc
 50
12.49999999999985
 51
79.48933466066963
  0
ARC
  5
9D
330
1F
100
AcDbEntity
  8
1
  6
CONTINUOUS
 62
     7
100
AcDbCircle
 10
215.4918090572374
 20
101.3298500155951
 30
0.0
 40
3.99999999999999
100
AcDbArc
 50
12.49999999999991
 51
79.48933466066964
  0
LINE
  5
9E
330
1F
100
AcDbEntity
  8
1
  6
CONTINUOUS
 62
     7
100
AcDbLine
 10
-797.2430069142831
 20
-53.4956084713474
 30
0.0
 11
-794.7426263886811
 21
-42.21712077212302
 31
0.0
  0
LINE
  5
9F
330
1F
100
AcDbEntity
  8
1
  6
CONTINUOUS
 62
     7
100
AcDbLine
 10
-347.9837056341046
 20
-42.21712077212352
 30
0.0
 11
-345.4833251085026
 21
-53.49560847134741
 31
0.0
  0
LINE
  5
A0
330
1F
100
AcDbEntity
  8
1
  6
CONTINUOUS
 62
     7
100
AcDbLine
 10
-596.7426263886812
 20
90.91712077212411
 30
0.0
 11
-599.243006914283
 21
102.1956084713475
 31
0.0
  0
ARC
  5
A1
330
1F
100
AcDbEntity
  8
1
  6
CONTINUOUS
 62
     7
100
AcDbCircle
 10
281.4918090572373
 20
101.3298500155951
 30
0.0
 40
3.99999999999999
100
AcDbArc
 50
12.49999999999991
 51
79.48933466066964
  0
ARC
  5
A2
330
1F
100
AcDbEntity
  8
1
  6
CONTINUOUS
 62
     7
100
AcDbCircle
 10
303.1818589199771
 20
-52.62985001559508
 30
0.0
 40
3.99999999999999
100
AcDbArc
 50
192.4999999999999
 51
259.4893346606697
  0
LINE
  5
A3
330
1F
100
AcDbEntity
  8
1
  6
CONTINUOUS
 62
     7
100
AcDbLine
 10
-422.8626263886811
 20
90.91712077212404
 30
0.0
 11
-425.3630069142829
 21
102.1956084713474
 31
0.0
  0
ARC
  5
A4
330
1F
100
AcDbEntity
  8
1
  6
CONTINUOUS
 62
     7
100
AcDbCircle
 10
-264.2681909427627
 20
101.3298500155951
 30
0.0
 40
3.999999999999986
100
AcDbArc
 50
12.49999999999971
 51
79.48933466066963
  0
ARC
  5
A5
330
1F
100
AcDbEntity
  8
1
  6
CONTINUOUS
 62
     7
100
AcDbCircle
 10
-189.3881909427628
 20
101.3298500155951
 30
0.0
 40
3.99999999999999
100
AcDbArc
 50
12.49999999999991
 51
79.48933466066964
  0
ARC
  5
A6
330
1F
100
AcDbEntity
  8
1
  6
CONTINUOUS
 62
     7
100
AcDbCircle
 10
-68.69814108002298
 20
-52.62985001559509
 30
0.0
 40
3.99999999999999
100
AcDbArc
 50
192.4999999999999
 51
259.4893346606697
  0
ARC
  5
A7
330
1F
100
AcDbEntity
  8
1
  6
CONTINUOUS
 62
     7
100
AcDbCircle
 10
149.4918090572374
 20
101.3298500155951
 30
0.0
 40
3.99999999999999
100
AcDbArc
 50
12.49999999999991
 51
79.48933466066964
  0
ARC
  5
A8
330
1F
100
AcDbEntity
  8
1
  6
CONTINUOUS
 62
     7
100
AcDbCircle
 10
149.4918090572374
 20
-52.62985001559508
 30
0.0
 40
3.999999999999995
100
AcDbArc
 50
280.5106653393304
 51
347.5000000000002
  0
ARC
  5
A9
330
1F
100
AcDbEntity
  8
1
  6
CONTINUOUS
 62
     7
100
AcDbCircle
 10
-156.3881909427627
 20
101.3298500155951
 30
0.0
 40
3.99999999999999
100
AcDbArc
 50
12.49999999999991
 51
79.48933466066964
  0
ARC
  5
AA
330
1F
100
AcDbEntity
  8
1
  6
CONTINUOUS
 62
     7
100
AcDbCircle
 10
-167.698141080023
 20
101.3298500155951
 30
0.0
 40
3.999999999999995
100
AcDbArc
 50
100.5106653393304
 51
167.4999999999999
  0
ARC
  5
AB
330
1F
100
AcDbEntity
  8
1
  6
CONTINUOUS
 62
     7
100
AcDbCircle
 10
-308.5781410800229
 20
-52.62985001559509
 30
0.0
 40
3.99999999999999
100
AcDbArc
 50
192.4999999999999
 51
259.4893346606697
  0
ARC
  5
AC
330
1F
100
AcDbEntity
  8
1
  6
CONTINUOUS
 62
     7
100
AcDbCircle
 10
-24.38819094276273
 20
101.3298500155951
 30
0.0
 40
3.99999999999999
100
AcDbArc
 50
12.49999999999991
 51
79.48933466066964
  0
ARC
  5
AD
330
1F
100
AcDbEntity
  8
1
  6
CONTINUOUS
 62
     7
100
AcDbCircle
 10
63.30185891997703
 20
101.329850015595
 30
0.0
 40
3.999999999999995
100
AcDbArc
 50
100.5106653393304
 51
167.5000000000001
  0
ARC
  5
AE
330
1F
100
AcDbEntity
  8
1
  6
CONTINUOUS
 62
     7
100
AcDbCircle
 10
-68.69814108002298
 20
101.3298500155951
 30
0.0
 40
3.999999999999995
100
AcDbArc
 50
100.5106653393304
 51
167.5000000000001
  0
ARC
  5
AF
330
1F
100
AcDbEntity
  8
1
  6
CONTINUOUS
 62
     7
100
AcDbCircle
 10
-134.6981410800229
 20
-52.62985001559509
 30
0.0
 40
3.99999999999999
100
AcDbArc
 50
192.4999999999999
 51
259.4893346606697
  0
ARC
  5
B0
330
1F
100
AcDbEntity
  8
1
  6
CONTINUOUS
 62
     7
100
AcDbCircle
 10
74.61180905723724
 20
-52.62985001559512
 30
0.0
 40
3.999999999999995
100
AcDbArc
 50
280.5106653393304
 51
347.5000000000002
  0
ARC
  5
B1
330
1F
100
AcDbEntity
  8
1
  6
CONTINUOUS
 62
     7
100
AcDbCircle
 10
-2.698141080022975
 20
101.3298500155951
 30
0.0
 40
3.999999999999995
100
AcDbArc
 50
100.5106653393304
 51
167.5000000000001
  0
ARC
  5
B2
330
1F
100
AcDbEntity
  8
1
  6
CONTINUOUS
 62
     7
100
AcDbCircle
 10
182.4918090572373
 20
101.3298500155951
 30
0.0
 40
3.99999999999999
100
AcDbArc
 50
12.49999999999991
 51
79.48933466066964
  0
ARC
  5
B3
330
1F
100
AcDbEntity
  8
1
  6
CONTINUOUS
 62
     7
100
AcDbCircle
 10
-787.8162976483446
 20
-42.64999999999982
 30
0.0
 40
2.000000000000002
100
AcDbArc
 50
12.50000000000102
 51
90.0
  0
LINE
  5
B4
330
1F
100
AcDbEntity
  8
1
  6
CONTINUOUS
 62
     7
100
AcDbLine
 10
164.7762943658955
 20
-42.21712077212386
 30
0.0
 11
167.2766748914974
 21
-53.49560847134748
 31
0.0
  0
LINE
  5
B5
330
1F
100
AcDbEntity
  8
1
  6
CONTINUOUS
 62
     7
100
AcDbLine
 10
332.2766748914974
 20
102.1956084713475
 30
0.0
 11
329.7762943658955
 21
90.91712077212385
 31
0.0
  0
LINE
  5
B6
330
1F
100
AcDbEntity
  8
1
  6
CONTINUOUS
 62
     7
100
AcDbLine
 10
-684.3633251085027
 20
102.1956084713477
 30
0.0
 11
-686.8637056341048
 21
90.91712077212334
 31
0.0
  0
ARC
  5
B7
330
1F
100
AcDbEntity
  8
1
  6
CONTINUOUS
 62
     7
100
AcDbCircle
 10
215.4918090572374
 20
-52.62985001559508
 30
0.0
 40
3.999999999999995
100
AcDbArc
 50
280.5106653393304
 51
347.5000000000002
  0
LINE
  5
B8
330
1F
100
AcDbEntity
  8
1
  6
CONTINUOUS
 62
     7
100
AcDbLine
 10
329.7762943658955
 20
-42.21712077212386
 30
0.0
 11
332.2766748914974
 21
-53.49560847134748
 31
0.0
  0
LINE
  5
B9
330
1F
100
AcDbEntity
  8
1
  6
CONTINUOUS
 62
     7
100
AcDbLine
 10
363.3368339886072
 20
93.44555161492927
 30
0.0
 11
362.7762943658954
 21
90.91712077212378
 31
0.0
  0
LINE
  5
BA
330
1F
100
AcDbEntity
  8
1
  6
CONTINUOUS
 62
     7
100
AcDbLine
 10
-425.3630069142829
 20
-53.49560847134754
 30
0.0
 11
-422.8626263886811
 21
-42.21712077212416
 31
0.0
  0
LINE
  5
BB
330
1F
100
AcDbEntity
  8
1
  6
CONTINUOUS
 62
     7
100
AcDbLine
 10
-215.9831660113928
 20
-42.21955485287857
 30
0.0
 11
-215.9826263886811
 21
-42.21712077212395
 31
0.0
  0
LINE
  5
BC
330
1F
100
AcDbEntity
  8
1
  6
CONTINUOUS
 62
     7
100
AcDbLine
 10
-215.9826263886811
 20
90.91712077212387
 30
0.0
 11
-215.9831660113928
 21
90.91955485287845
 31
0.0
  0
ARC
  5
BD
330
1F
100
AcDbEntity
  8
1
  6
CONTINUOUS
 62
     7
100
AcDbCircle
 10
-886.8162976483445
 20
-42.64999999999978
 30
0.0
 40
2.000000000000002
100
AcDbArc
 50
12.50000000000102
 51
90.0
  0
ARC
  5
BE
330
1F
100
AcDbEntity
  8
1
  6
CONTINUOUS
 62
     7
100
AcDbCircle
 10
-792.7900343744412
 20
91.35000000000018
 30
0.0
 40
2.000000000000002
100
AcDbArc
 50
192.5000000000014
 51
270.0
  0
LINE
  5
BF
330
1F
100
AcDbEntity
  8
1
  6
CONTINUOUS
 62
     7
100
AcDbLine
 10
122.8968339886072
 20
-42.21955485287853
 30
0.0
 11
122.897373611319
 21
-42.21712077212366
 31
0.0
  0
ARC
  5
C0
330
1F
100
AcDbEntity
  8
1
  6
CONTINUOUS
 62
     7
100
AcDbCircle
 10
-792.7900343744412
 20
-42.64999999999982
 30
0.0
 40
1.999999999999952
100
AcDbArc
 50
90.0
 51
167.4999999999987
  0
ARC
  5
C1
330
1F
100
AcDbEntity
  8
1
  6
CONTINUOUS
 62
     7
100
AcDbCircle
 10
-693.7900343744413
 20
-42.64999999999986
 30
0.0
 40
1.999999999999949
100
AcDbArc
 50
90.0
 51
167.499999999999
  0
LINE
  5
C2
330
1F
100
AcDbEntity
  8
1
  6
CONTINUOUS
 62
     7
100
AcDbLine
 10
-314.9837056341045
 20
-42.21712077212403
 30
0.0
 11
-312.4833251085027
 21
-53.49560847134742
 31
0.0
  0
LINE
  5
C3
330
1F
100
AcDbEntity
  8
1
  6
CONTINUOUS
 62
     7
100
AcDbLine
 10
-554.8637056341047
 20
-42.21712077212317
 30
0.0
 11
-554.8631660113929
 21
-42.2195548528783
 31
0.0
  0
LINE
  5
C4
330
1F
100
AcDbEntity
  8
1
  6
CONTINUOUS
 62
     7
100
AcDbLine
 10
-86.48300691428307
 20
-53.49560847134752
 30
0.0
 11
-83.98262638868108
 21
-42.21712077212364
 31
0.0
  0
LINE
  5
C5
330
1F
100
AcDbEntity
  8
1
  6
CONTINUOUS
 62
     7
100
AcDbLine
 10
-849.3633251085027
 20
102.1956084713478
 30
0.0
 11
-851.8637056341046
 21
90.9171207721244
 31
0.0
  0
LINE
  5
C6
330
1F
100
AcDbEntity
  8
1
  6
CONTINUOUS
 62
     7
100
AcDbLine
 10
167.2766748914974
 20
102.1956084713475
 30
0.0
 11
164.7762943658955
 21
90.91712077212385
 31
0.0
  0
LINE
  5
C7
330
1F
100
AcDbEntity
  8
1
  6
CONTINUOUS
 62
     7
100
AcDbLine
 10
-686.8637056341048
 20
-42.21712077212285
 30
0.0
 11
-684.3633251085027
 21
-53.49560847134723
 31
0.0
  0
ARC
  5
C8
330
1F
100
AcDbEntity
  8
1
  6
CONTINUOUS
 62
     7
100
AcDbCircle
 10
314.4918090572373
 20
101.3298500155951
 30
0.0
 40
3.99999999999999
100
AcDbArc
 50
12.49999999999991
 51
79.48933466066964
  0
LINE
  5
C9
330
1F
100
AcDbEntity
  8
1
  6
CONTINUOUS
 62
     7
100
AcDbLine
 10
-9.10370563410462
 20
-42.21712077212384
 30
0.0
 11
-6.6033251085027
 21
-53.49560847134747
 31
0.0
  0
ARC
  5
CA
330
1F
100
AcDbEntity
  8
1
  6
CONTINUOUS
 62
     7
100
AcDbCircle
 10
204.1818589199771
 20
-52.62985001559508
 30
0.0
 40
3.99999999999999
100
AcDbArc
 50
192.4999999999999
 51
259.4893346606697
  0
ARC
  5
CB
330
1F
100
AcDbEntity
  8
1
  6
CONTINUOUS
 62
     7
100
AcDbCircle
 10
204.1818589199771
 20
101.3298500155951
 30
0.0
 40
3.999999999999995
100
AcDbArc
 50
100.5106653393304
 51
167.5000000000001
  0
LINE
  5
CC
330
1F
100
AcDbEntity
  8
1
  6
CONTINUOUS
 62
     7
100
AcDbLine
 10
-83.98262638868108
 20
90.91712077212355
 30
0.0
 11
-86.48300691428307
 21
102.1956084713474
 31
0.0
  0
ARC
  5
CD
330
1F
100
AcDbEntity
  8
1
  6
CONTINUOUS
 62
     7
100
AcDbCircle
 10
-853.8162976483446
 20
91.35000000000021
 30
0.0
 40
1.999999999999943
100
AcDbArc
 50
270.0
 51
347.4999999999998
  0
ARC
  5
CE
330
1F
100
AcDbEntity
  8
1
  6
CONTINUOUS
 62
     7
100
AcDbCircle
 10
-886.8162976483445
 20
91.35000000000022
 30
0.0
 40
1.999999999999955
100
AcDbArc
 50
270.0
 51
347.4999999999982
  0
LINE
  5
CF
330
1F
100
AcDbEntity
  8
1
  6
CONTINUOUS
 62
     7
100
AcDbLine
 10
-761.7426263886812
 20
90.91712077212416
 30
0.0
 11
-764.243006914283
 21
102.1956084713475
 31
0.0
  0
LINE
  5
D0
330
1F
100
AcDbEntity
  8
1
  6
CONTINUOUS
 62
     7
100
AcDbLine
 10
81.01737361131889
 20
90.91712077212377
 30
0.0
 11
78.51699308571696
 21
102.1956084713474
 31
0.0
  0
ARC
  5
D1
330
1F
100
AcDbEntity
  8
1
  6
CONTINUOUS
 62
     7
100
AcDbCircle
 10
182.4918090572373
 20
-52.62985001559508
 30
0.0
 40
3.999999999999995
100
AcDbArc
 50
280.5106653393304
 51
347.5000000000002
  0
ARC
  5
D2
330
1F
100
AcDbEntity
  8
1
  6
CONTINUOUS
 62
     7
100
AcDbCircle
 10
-660.7900343744413
 20
-42.64999999999986
 30
0.0
 40
1.999999999999949
100
AcDbArc
 50
90.0
 51
167.499999999999
  0
LINE
  5
D3
330
1F
100
AcDbEntity
  8
1
  6
CONTINUOUS
 62
     7
100
AcDbLine
 10
362.7762943658954
 20
-42.21712077212378
 30
0.0
 11
363.3368339886072
 21
-44.74555161492928
 31
0.0
  0
ARC
  5
D4
330
1F
100
AcDbEntity
  8
1
  6
CONTINUOUS
 62
     7
100
AcDbCircle
 10
-820.8162976483445
 20
-42.64999999999981
 30
0.0
 40
2.000000000000002
100
AcDbArc
 50
12.50000000000102
 51
90.0
  0
ARC
  5
D5
330
1F
100
AcDbEntity
  8
1
  6
CONTINUOUS
 62
     7
100
AcDbCircle
 10
-853.8162976483446
 20
-42.64999999999979
 30
0.0
 40
2.000000000000002
100
AcDbArc
 50
12.50000000000023
 51
90.0
  0
LINE
  5
D6
330
1F
100
AcDbEntity
  8
1
  6
CONTINUOUS
 62
     7
100
AcDbLine
 10
-651.3633251085027
 20
102.1956084713477
 30
0.0
 11
-653.8637056341047
 21
90.91712077212432
 31
0.0
  0
LINE
  5
D7
330
1F
100
AcDbEntity
  8
1
  6
CONTINUOUS
 62
     7
100
AcDbLine
 10
-257.862626388681
 20
90.9171207721235
 30
0.0
 11
-260.363006914283
 21
102.1956084713474
 31
0.0
  0
LINE
  5
D8
330
1F
100
AcDbEntity
  8
1
  6
CONTINUOUS
 62
     7
100
AcDbLine
 10
122.897373611319
 20
90.91712077212365
 30
0.0
 11
122.8968339886072
 21
90.91955485287849
 31
0.0
  0
LINE
  5
D9
330
1F
100
AcDbEntity
  8
1
  6
CONTINUOUS
 62
     7
100
AcDbLine
 10
-510.4833251085027
 20
102.1956084713476
 30
0.0
 11
-512.9837056341046
 21
90.9171207721242
 31
0.0
  0
ARC
  5
DA
330
1F
100
AcDbEntity
  8
1
  6
CONTINUOUS
 62
     7
100
AcDbCircle
 10
237.1818589199771
 20
-52.62985001559508
 30
0.0
 40
3.99999999999999
100
AcDbArc
 50
192.4999999999999
 51
259.4893346606697
  0
LINE
  5
DB
330
1F
100
AcDbEntity
  8
1
  6
CONTINUOUS
 62
     7
100
AcDbLine
 10
219.3969930857171
 20
-53.49560847134748
 30
0.0
 11
221.897373611319
 21
-42.21712077212386
 31
0.0
  0
LINE
  5
DC
330
1F
100
AcDbEntity
  8
1
  6
CONTINUOUS
 62
     7
100
AcDbLine
 10
78.51699308571696
 20
-53.49560847134755
 30
0.0
 11
81.01737361131889
 21
-42.21712077212392
 31
0.0
  0
ARC
  5
DD
330
1F
100
AcDbEntity
  8
1
  6
CONTINUOUS
 62
     7
100
AcDbCircle
 10
237.1818589199771
 20
101.3298500155951
 30
0.0
 40
3.999999999999995
100
AcDbArc
 50
100.5106653393304
 51
167.5000000000001
  0
ARC
  5
DE
330
1F
100
AcDbEntity
  8
1
  6
CONTINUOUS
 62
     7
100
AcDbCircle
 10
303.1818589199771
 20
101.3298500155951
 30
0.0
 40
3.999999999999995
100
AcDbArc
 50
100.5106653393304
 51
167.5000000000001
  0
LINE
  5
DF
330
1F
100
AcDbEntity
  8
1
  6
CONTINUOUS
 62
     7
100
AcDbLine
 10
-554.8631660113929
 20
-42.21955485287856
 30
0.0
 11
-554.862626388681
 21
-42.21712077212344
 31
0.0
  0
LINE
  5
E0
330
1F
100
AcDbEntity
  8
1
  6
CONTINUOUS
 62
     7
100
AcDbLine
 10
-851.8637056341046
 20
-42.21712077212378
 30
0.0
 11
-849.3633251085027
 21
-53.49560847134716
 31
0.0
  0
LINE
  5
E1
330
1F
100
AcDbEntity
  8
1
  6
CONTINUOUS
 62
     7
100
AcDbLine
 10
-215.9831660113928
 20
90.91955485287856
 30
0.0
 11
-215.9837056341046
 21
90.91712077212397
 31
0.0
  0
LINE
  5
E2
330
1F
100
AcDbEntity
  8
1
  6
CONTINUOUS
 62
     7
100
AcDbLine
 10
-554.862626388681
 20
90.91712077212337
 30
0.0
 11
-554.8631660113929
 21
90.91955485287846
 31
0.0
  0
LINE
  5
E3
330
1F
100
AcDbEntity
  8
1
  6
CONTINUOUS
 62
     7
100
AcDbLine
 10
-260.363006914283
 20
-53.49560847134758
 30
0.0
 11
-257.862626388681
 21
-42.2171207721237
 31
0.0
  0
LINE
  5
E4
330
1F
100
AcDbEntity
  8
1
  6
CONTINUOUS
 62
     7
100
AcDbLine
 10
-312.4833251085027
 20
102.1956084713475
 30
0.0
 11
-314.9837056341045
 21
90.91712077212416
 31
0.0
  0
LINE
  5
E5
330
1F
100
AcDbEntity
  8
1
  6
CONTINUOUS
 62
     7
100
AcDbLine
 10
-171.6033251085027
 20
102.1956084713475
 30
0.0
 11
-174.1037056341046
 21
90.91712077212362
 31
0.0
  0
LINE
  5
E6
330
1F
100
AcDbEntity
  8
1
  6
CONTINUOUS
 62
     7
100
AcDbLine
 10
-599.243006914283
 20
-53.49560847134747
 30
0.0
 11
-596.7426263886812
 21
-42.21712077212409
 31
0.0
  0
ARC
  5
E7
330
1F
100
AcDbEntity
  8
1
  6
CONTINUOUS
 62
     7
100
AcDbCircle
 10
336.1818589199771
 20
101.3298500155951
 30
0.0
 40
3.999999999999995
100
AcDbArc
 50
100.5106653393304
 51
167.5000000000001
  0
LINE
  5
E8
330
1F
100
AcDbEntity
  8
1
  6
CONTINUOUS
 62
     7
100
AcDbLine
 10
-764.243006914283
 20
-53.49560847134741
 30
0.0
 11
-761.7426263886812
 21
-42.21712077212403
 31
0.0
  0
LINE
  5
E9
330
1F
100
AcDbEntity
  8
1
  6
CONTINUOUS
 62
     7
100
AcDbLine
 10
23.89629436589535
 20
-42.21712077212384
 30
0.0
 11
26.39667489149727
 21
-53.49560847134747
 31
0.0
  0
LINE
  5
EA
330
1F
100
AcDbEntity
  8
1
  6
CONTINUOUS
 62
     7
100
AcDbLine
 10
-6.6033251085027
 20
102.1956084713475
 30
0.0
 11
-9.10370563410462
 21
90.91712077212385
 31
0.0
  0
ARC
  5
EB
330
1F
100
AcDbEntity
  8
1
  6
CONTINUOUS
 62
     7
100
AcDbCircle
 10
-825.7900343744412
 20
91.3500000000002
 30
0.0
 40
2.000000000000002
100
AcDbArc
 50
192.4999999999997
 51
270.0
  0
LINE
  5
EC
330
1F
100
AcDbEntity
  8
1
  6
CONTINUOUS
 62
     7
100
AcDbLine
 10
221.897373611319
 20
90.91712077212385
 30
0.0
 11
219.3969930857171
 21
102.1956084713475
 31
0.0
  0
ARC
  5
ED
330
1F
100
AcDbEntity
  8
1
  6
CONTINUOUS
 62
     7
100
AcDbCircle
 10
-820.8162976483445
 20
91.3500000000002
 30
0.0
 40
1.999999999999949
100
AcDbArc
 50
270.0
 51
347.499999999999
  0
LINE
  5
EE
330
1F
100
AcDbEntity
  8
1
  6
CONTINUOUS
 62
     7
100
AcDbLine
 10
-554.8631660113929
 20
90.91955485287872
 30
0.0
 11
-554.8637056341047
 21
90.91712077212362
 31
0.0
  0
ARC
  5
EF
330
1F
100
AcDbEntity
  8
1
  6
CONTINUOUS
 62
     7
100
AcDbCircle
 10
-825.7900343744412
 20
-42.64999999999981
 30
0.0
 40
1.99999999999994
100
AcDbArc
 50
89.99999999999994
 51
167.5000000000001
  0
LINE
  5
F0
330
1F
100
AcDbEntity
  8
1
  6
CONTINUOUS
 62
   253
100
AcDbLine
 10
-42.10370563410465
 20
-42.21712077212381
 30
0.0
 11
-42.10370563410465
 21
90.91712077212368
 31
0.0
  0
LINE
  5
F1
330
1F
100
AcDbEntity
  8
1
  6
CONTINUOUS
 62
   253
100
AcDbLine
 10
-50.98262638868106
 20
-42.21712077212381
 30
0.0
 11
-50.98262638868106
 21
90.91712077212368
 31
0.0
  0
LINE
  5
F2
330
1F
100
AcDbEntity
  8
1
  6
CONTINUOUS
 62
   253
100
AcDbLine
 10
81.01737361131889
 20
-42.21712077212383
 30
0.0
 11
81.01737361131889
 21
90.91712077212365
 31
0.0
  0
LINE
  5
F3
330
1F
100
AcDbEntity
  8
1
  6
CONTINUOUS
 62
   253
100
AcDbLine
 10
-719.8637056341047
 20
-42.21712077212363
 30
0.0
 11
-719.8637056341047
 21
90.91712077212385
 31
0.0
  0
LINE
  5
F4
330
1F
100
AcDbEntity
  8
1
  6
CONTINUOUS
 62
     7
100
AcDbLine
 10
726.9034282705264
 20
-14.48718553867922
 30
0.0
 11
726.8874436182255
 21
-14.45973783035629
 31
0.0
  0
LINE
  5
F5
330
1F
100
AcDbEntity
  8
1
  6
CONTINUOUS
 62
   253
100
AcDbLine
 10
-224.8626263886811
 20
-42.21712077212383
 30
0.0
 11
-224.8626263886811
 21
90.91712077212368
 31
0.0
  0
LINE
  5
F6
330
1F
100
AcDbEntity
  8
1
  6
CONTINUOUS
 62
   253
100
AcDbLine
 10
-389.862626388681
 20
-42.21712077212377
 30
0.0
 11
-389.862626388681
 21
90.91712077212371
 31
0.0
  0
LINE
  5
F7
330
1F
100
AcDbEntity
  8
1
  6
CONTINUOUS
 62
   253
100
AcDbLine
 10
-207.1037056341046
 20
-42.21712077212381
 30
0.0
 11
-207.1037056341046
 21
90.91712077212371
 31
0.0
  0
LINE
  5
F8
330
1F
100
AcDbEntity
  8
1
  6
CONTINUOUS
 62
   253
100
AcDbLine
 10
114.0173736113189
 20
-42.21712077212384
 30
0.0
 11
114.0173736113189
 21
90.91712077212365
 31
0.0
  0
LINE
  5
F9
330
1F
100
AcDbEntity
  8
1
  6
CONTINUOUS
 62
   253
100
AcDbLine
 10
131.7762943658954
 20
-42.2171207721238
 30
0.0
 11
131.7762943658954
 21
90.91712077212371
 31
0.0
  0
CIRCLE
  5
FA
330
1F
100
AcDbEntity
  8
1
  6
CONTINUOUS
 62
     7
100
AcDbCircle
 10
-1111.9
 20
24.35000000000022
 30
0.0
 40
62.5
  0
LINE
  5
FB
330
1F
100
AcDbEntity
  8
1
  6
CONTINUOUS
 62
   253
100
AcDbLine
 10
465.9376658348638
 20
24.90793359443887
 30
0.0
 11
465.9376658348638
 21
23.79206640556113
 31
0.0
  0
LINE
  5
FC
330
1F
100
AcDbEntity
  8
1
  6
CONTINUOUS
 62
   253
100
AcDbLine
 10
480.7360021423506
 20
24.90793359443888
 30
0.0
 11
465.9376658348638
 21
24.90793359443888
 31
0.0
  0
LINE
  5
FD
330
1F
100
AcDbEntity
  8
1
  6
CONTINUOUS
 62
   253
100
AcDbLine
 10
-596.7426263886812
 20
-42.21712077212367
 30
0.0
 11
-596.7426263886812
 21
90.91712077212382
 31
0.0
  0
LINE
  5
FE
330
1F
100
AcDbEntity
  8
1
  6
CONTINUOUS
 62
   253
100
AcDbLine
 10
467.0583161177282
 20
26.04535978097694
 30
0.0
 11
466.3113710311637
 21
25.89897219593578
 31
0.0
  0
LINE
  5
FF
330
1F
100
AcDbEntity
  8
1
  6
CONTINUOUS
 62
   253
100
AcDbLine
 10
480.3622969460506
 20
22.80102780406423
 30
0.0
 11
466.3113710311637
 21
22.80102780406423
 31
0.0
  0
ARC
  5
100
330
1F
100
AcDbEntity
  8
1
  6
CONTINUOUS
 62
   253
100
AcDbCircle
 10
473.3368339886072
 20
-51.70455998781399
 30
0.0
 40
78.0030115489676
100
AcDbArc
 50
85.38322762404518
 51
94.61677237595474
  0
LINE
  5
101
330
1F
100
AcDbEntity
  8
1
  6
CONTINUOUS
 62
   253
100
AcDbLine
 10
558.0780149435049
 20
-49.34676749568598
 30
0.0
 11
558.0780149435049
 21
-52.72674518282549
 31
0.0
  0
LINE
  5
102
330
1F
100
AcDbEntity
  8
1
  6
CONTINUOUS
 62
     7
100
AcDbLine
 10
-215.9837056341046
 20
-42.21712077212386
 30
0.0
 11
-215.9831660113928
 21
-42.21955485287847
 31
0.0
  0
ARC
  5
103
330
1F
100
AcDbEntity
  8
1
  6
CONTINUOUS
 62
   253
100
AcDbCircle
 10
473.3368339886072
 20
95.80033573102257
 30
0.0
 40
6.996074784900032
100
AcDbArc
 50
194.8795556421494
 51
345.1204443578505
  0
LINE
  5
104
330
1F
100
AcDbEntity
  8
1
  6
CONTINUOUS
 62
   253
100
AcDbLine
 10
467.0583161177282
 20
-45.40700559938979
 30
0.0
 11
466.3113710311638
 21
-48.20024711894671
 31
0.0
  0
LINE
  5
105
330
1F
100
AcDbEntity
  8
1
  6
CONTINUOUS
 62
   253
100
AcDbLine
 10
465.9376658348638
 20
23.79206640556113
 30
0.0
 11
480.7360021423506
 21
23.79206640556113
 31
0.0
  0
LINE
  5
106
330
1F
100
AcDbEntity
  8
1
  6
CONTINUOUS
 62
   253
100
AcDbLine
 10
287.897373611319
 20
-42.21712077212378
 30
0.0
 11
287.897373611319
 21
90.91712077212371
 31
0.0
  0
LINE
  5
107
330
1F
100
AcDbEntity
  8
1
  6
CONTINUOUS
 62
   253
100
AcDbLine
 10
-851.8637056341046
 20
-42.21712077212358
 30
0.0
 11
-851.8637056341046
 21
90.91712077212391
 31
0.0
  0
LINE
  5
108
330
1F
100
AcDbEntity
  8
1
  6
CONTINUOUS
 62
   253
100
AcDbLine
 10
-174.1037056341046
 20
-42.21712077212378
 30
0.0
 11
-174.1037056341046
 21
90.91712077212371
 31
0.0
  0
LINE
  5
109
330
1F
100
AcDbEntity
  8
1
  6
CONTINUOUS
 62
     7
100
AcDbLine
 10
839.4371969085279
 20
-49.34659096750576
 30
0.0
 11
839.4097378303562
 21
-49.36255638177444
 31
0.0
  0
LINE
  5
10A
330
1F
100
AcDbEntity
  8
1
  6
CONTINUOUS
 62
     7
100
AcDbLine
 10
122.8962943658953
 20
-42.21712077212366
 30
0.0
 11
122.8968339886072
 21
-42.21955485287903
 31
0.0
  0
LINE
  5
10B
330
1F
100
AcDbEntity
  8
1
  6
CONTINUOUS
 62
   253
100
AcDbLine
 10
-545.9837056341047
 20
-42.21712077212375
 30
0.0
 11
-545.9837056341047
 21
90.91712077212374
 31
0.0
  0
LINE
  5
10C
330
1F
100
AcDbEntity
  8
1
  6
CONTINUOUS
 62
   253
100
AcDbLine
 10
466.3113710311638
 20
96.9002471189467
 30
0.0
 11
467.0583161177282
 21
94.1070055993898
 31
0.0
  0
LINE
  5
10D
330
1F
100
AcDbEntity
  8
1
  6
CONTINUOUS
 62
   253
100
AcDbLine
 10
479.6153518594861
 20
26.04535978097694
 30
0.0
 11
480.3622969460506
 21
25.89897219593578
 31
0.0
  0
LINE
  5
10E
330
1F
100
AcDbEntity
  8
1
  6
CONTINUOUS
 62
   253
100
AcDbLine
 10
479.6153518594862
 20
-45.40700559938979
 30
0.0
 11
480.3622969460506
 21
-48.20024711894671
 31
0.0
  0
LINE
  5
10F
330
1F
100
AcDbEntity
  8
1
  6
CONTINUOUS
 62
   253
100
AcDbLine
 10
-380.9837056341046
 20
-42.21712077212377
 30
0.0
 11
-380.9837056341046
 21
90.91712077212371
 31
0.0
  0
LINE
  5
110
330
1F
100
AcDbEntity
  8
1
  6
CONTINUOUS
 62
   253
100
AcDbLine
 10
296.7762943658954
 20
-42.21712077212378
 30
0.0
 11
296.7762943658954
 21
90.91712077212371
 31
0.0
  0
LINE
  5
111
330
1F
100
AcDbEntity
  8
1
  6
CONTINUOUS
 62
   253
100
AcDbLine
 10
164.7762943658955
 20
-42.21712077212378
 30
0.0
 11
164.7762943658955
 21
90.91712077212371
 31
0.0
  0
LINE
  5
112
330
1F
100
AcDbEntity
  8
1
  6
CONTINUOUS
 62
   253
100
AcDbLine
 10
465.8284081180193
 20
-48.09705708166111
 30
0.0
 11
466.5753532045837
 21
-45.30382800679899
 31
0.0
  0
LINE
  5
113
330
1F
100
AcDbEntity
  8
1
  6
CONTINUOUS
 62
   253
100
AcDbLine
 10
480.7360021423506
 20
97.84788235115484
 30
0.0
 11
480.3622969460506
 21
96.9002471189467
 31
0.0
  0
LINE
  5
114
330
1F
100
AcDbEntity
  8
1
  6
CONTINUOUS
 62
   253
100
AcDbLine
 10
553.5603768532998
 20
97.35604631198613
 30
0.0
 11
553.5603768532999
 21
100.76612381785
 31
0.0
  0
LINE
  5
115
330
1F
100
AcDbEntity
  8
1
  6
CONTINUOUS
 62
   253
100
AcDbLine
 10
480.3622969460506
 20
22.80102780406423
 30
0.0
 11
479.6153518594861
 21
22.65464021902306
 31
0.0
  0
LINE
  5
116
330
1F
100
AcDbEntity
  8
1
  6
CONTINUOUS
 62
   253
100
AcDbLine
 10
558.078014943505
 20
101.4267451828248
 30
0.0
 11
558.0780149435049
 21
98.04676749568551
 31
0.0
  0
ARC
  5
117
330
1F
100
AcDbEntity
  8
1
  6
CONTINUOUS
 62
   253
100
AcDbCircle
 10
473.3368339886072
 20
-47.10033573102257
 30
0.0
 40
6.99607478490003
100
AcDbArc
 50
14.87955564214928
 51
165.1204443578507
  0
ARC
  5
118
330
1F
100
AcDbEntity
  8
1
  6
CONTINUOUS
 62
     7
100
AcDbCircle
 10
558.3447796636221
 20
102.9484475473511
 30
0.0
 40
1.502296192430512
100
AcDbArc
 50
269.9860739219466
 51
290.4333650604787
  0
ARC
  5
119
330
1F
100
AcDbEntity
  8
1
  6
CONTINUOUS
 62
   253
100
AcDbCircle
 10
468.0050012070758
 20
24.93456931239679
 30
0.0
 40
2.067506953475613
100
AcDbArc
 50
161.8287344586079
 51
180.7381626645807
  0
ARC
  5
11A
330
1F
100
AcDbEntity
  8
1
  6
CONTINUOUS
 62
   253
100
AcDbCircle
 10
478.7358701203143
 20
23.75737697356322
 30
0.0
 40
2.000432818733774
100
AcDbArc
 50
340.704625278616
 51
0.9936138093825093
  0
ARC
  5
11B
330
1F
100
AcDbEntity
  8
1
  6
CONTINUOUS
 62
     7
100
AcDbCircle
 10
-660.7900343744413
 20
91.35000000000014
 30
0.0
 40
2.000000000000002
100
AcDbArc
 50
192.500000000001
 51
270.0
  0
ARC
  5
11C
330
1F
100
AcDbEntity
  8
1
  6
CONTINUOUS
 62
   253
100
AcDbCircle
 10
473.3368339886072
 20
-47.07369879693791
 30
0.0
 40
6.49597204963966
100
AcDbArc
 50
14.86683251999324
 51
165.1331674800068
  0
ARC
  5
11D
330
1F
100
AcDbEntity
  8
1
  6
CONTINUOUS
 62
     7
100
AcDbCircle
 10
388.3288883135922
 20
102.9484475473505
 30
0.0
 40
1.502296192429985
100
AcDbArc
 50
249.5666349395181
 51
270.0139260780556
  0
LINE
  5
11E
330
1F
100
AcDbEntity
  8
1
  6
CONTINUOUS
 62
   253
100
AcDbLine
 10
480.7360021423506
 20
24.90793359443887
 30
0.0
 11
480.7360021423506
 21
23.79206640556113
 31
0.0
  0
LINE
  5
11F
330
1F
100
AcDbEntity
  8
1
  6
CONTINUOUS
 62
   253
100
AcDbLine
 10
-728.7426263886811
 20
-42.21712077212363
 30
0.0
 11
-728.7426263886811
 21
90.91712077212385
 31
0.0
  0
LINE
  5
120
330
1F
100
AcDbEntity
  8
1
  6
CONTINUOUS
 62
   253
100
AcDbLine
 10
466.3113710311637
 20
22.80102780406423
 30
0.0
 11
467.0583161177282
 21
22.65464021902306
 31
0.0
  0
LINE
  5
121
330
1F
100
AcDbEntity
  8
1
  6
CONTINUOUS
 62
   253
100
AcDbLine
 10
480.3622969460506
 20
96.9002471189467
 30
0.0
 11
466.3113710311638
 21
96.9002471189467
 31
0.0
  0
LINE
  5
122
330
1F
100
AcDbEntity
  8
1
  6
CONTINUOUS
 62
   253
100
AcDbLine
 10
393.1132911239146
 20
97.35604631198613
 30
0.0
 11
393.1132911239145
 21
100.76612381785
 31
0.0
  0
LINE
  5
123
330
1F
100
AcDbEntity
  8
1
  6
CONTINUOUS
 62
   253
100
AcDbLine
 10
-563.7426263886812
 20
-42.2171207721237
 30
0.0
 11
-563.7426263886812
 21
90.9171207721238
 31
0.0
  0
LINE
  5
124
330
1F
100
AcDbEntity
  8
1
  6
CONTINUOUS
 62
     7
100
AcDbLine
 10
122.8968339886072
 20
90.91955485287899
 30
0.0
 11
122.8962943658953
 21
90.91712077212365
 31
0.0
  0
ARC
  5
125
330
1F
100
AcDbEntity
  8
1
  6
CONTINUOUS
 62
   253
100
AcDbCircle
 10
478.6686667701386
 20
24.93456931239679
 30
0.0
 40
2.067506953475613
100
AcDbArc
 50
359.2618373354192
 51
18.17126554139207
  0
LINE
  5
126
330
1F
100
AcDbEntity
  8
1
  6
CONTINUOUS
 62
   253
100
AcDbLine
 10
466.3113710311638
 20
-48.20024711894671
 30
0.0
 11
480.3622969460506
 21
-48.20024711894671
 31
0.0
  0
LINE
  5
127
330
1F
100
AcDbEntity
  8
1
  6
CONTINUOUS
 62
   253
100
AcDbLine
 10
-884.8637056341048
 20
-42.21712077212359
 30
0.0
 11
-884.8637056341048
 21
90.91712077212391
 31
0.0
  0
LINE
  5
128
330
1F
100
AcDbEntity
  8
1
  6
CONTINUOUS
 62
   253
100
AcDbLine
 10
-257.862626388681
 20
-42.21712077212381
 30
0.0
 11
-257.862626388681
 21
90.91712077212368
 31
0.0
  0
ARC
  5
129
330
1F
100
AcDbEntity
  8
1
  6
CONTINUOUS
 62
   253
100
AcDbCircle
 10
473.3368339886072
 20
95.77369879693794
 30
0.0
 40
6.495972049639667
100
AcDbArc
 50
194.8668325199934
 51
345.1331674800066
  0
LINE
  5
12A
330
1F
100
AcDbEntity
  8
1
  6
CONTINUOUS
 62
   253
100
AcDbLine
 10
-512.9837056341046
 20
-42.21712077212374
 30
0.0
 11
-512.9837056341046
 21
90.91712077212374
 31
0.0
  0
LINE
  5
12B
330
1F
100
AcDbEntity
  8
1
  6
CONTINUOUS
 62
   253
100
AcDbLine
 10
480.3622969460506
 20
96.9002471189467
 30
0.0
 11
479.6153518594862
 21
94.1070055993898
 31
0.0
  0
ARC
  5
12C
330
1F
100
AcDbEntity
  8
1
  6
CONTINUOUS
 62
     7
100
AcDbCircle
 10
558.3513801511938
 20
-54.20704772829394
 30
0.0
 40
1.460912935145706
100
AcDbArc
 50
67.96672984328565
 51
90.27318718115934
  0
LINE
  5
12D
330
1F
100
AcDbEntity
  8
1
  6
CONTINUOUS
 62
   253
100
AcDbLine
 10
465.4547029217193
 20
-49.51846215131791
 30
0.0
 11
465.8284081180193
 21
-48.09705708166111
 31
0.0
  0
ARC
  5
12E
330
1F
100
AcDbEntity
  8
1
  6
CONTINUOUS
 62
     7
100
AcDbCircle
 10
-787.8162976483446
 20
91.35000000000018
 30
0.0
 40
1.999999999999949
100
AcDbArc
 50
270.0
 51
347.499999999999
  0
ARC
  5
12F
330
1F
100
AcDbEntity
  8
1
  6
CONTINUOUS
 62
     7
100
AcDbCircle
 10
-236.9231660113928
 20
70.84999999999995
 30
0.0
 40
35.0
100
AcDbArc
 50
79.48933466066963
 51
100.5106653393303
  0
ARC
  5
130
330
1F
100
AcDbEntity
  8
1
  6
CONTINUOUS
 62
     7
100
AcDbCircle
 10
-575.8031660113928
 20
-22.14999999999988
 30
0.0
 40
35.00000000000001
100
AcDbArc
 50
259.4893346606693
 51
280.51066533933
  0
ARC
  5
131
330
1F
100
AcDbEntity
  8
1
  6
CONTINUOUS
 62
   253
100
AcDbCircle
 10
467.9377978568984
 20
23.7573769735628
 30
0.0
 40
2.000432818732117
100
AcDbArc
 50
179.0063861906046
 51
199.2953747213878
  0
ARC
  5
132
330
1F
100
AcDbEntity
  8
1
  6
CONTINUOUS
 62
     7
100
AcDbCircle
 10
388.3222878260205
 20
-54.20704772829329
 30
0.0
 40
1.460912935145059
100
AcDbArc
 50
89.726812818834
 51
112.0332701567199
  0
LINE
  5
133
330
1F
100
AcDbEntity
  8
1
  6
CONTINUOUS
 62
     7
100
AcDbLine
 10
49.96996562555878
 20
-40.65000000000003
 30
0.0
 11
54.94370235165552
 21
-40.65000000000003
 31
0.0
  0
ARC
  5
134
330
1F
100
AcDbEntity
  8
1
  6
CONTINUOUS
 62
     7
100
AcDbCircle
 10
143.8368339886072
 20
70.84999999999998
 30
0.0
 40
35.00000000000001
100
AcDbArc
 50
79.48933466066954
 51
100.5106653393303
  0
LINE
  5
135
330
1F
100
AcDbEntity
  8
1
  6
CONTINUOUS
 62
     7
100
AcDbLine
 10
-695.7426263886811
 20
90.91712077212343
 30
0.0
 11
-698.2430069142832
 21
102.1956084713479
 31
0.0
  0
LINE
  5
136
330
1F
100
AcDbEntity
  8
1
  6
CONTINUOUS
 62
     7
100
AcDbLine
 10
465.9376658348638
 20
97.84788235115484
 30
0.0
 11
480.7360021423506
 21
97.84788235115484
 31
0.0
  0
LINE
  5
137
330
1F
100
AcDbEntity
  8
1
  6
CONTINUOUS
 62
     7
100
AcDbLine
 10
-481.9362976483445
 20
89.35000000000002
 30
0.0
 11
-486.9100343744411
 21
89.35000000000002
 31
0.0
  0
LINE
  5
138
330
1F
100
AcDbEntity
  8
1
  6
CONTINUOUS
 62
     7
100
AcDbLine
 10
-143.0562976483446
 20
89.34999999999998
 30
0.0
 11
-148.0300343744412
 21
89.34999999999998
 31
0.0
  0
LINE
  5
139
330
1F
100
AcDbEntity
  8
1
  6
CONTINUOUS
 62
   253
100
AcDbLine
 10
465.9376658348638
 20
97.84788235115484
 30
0.0
 11
466.3113710311638
 21
96.9002471189467
 31
0.0
  0
LINE
  5
13A
330
1F
100
AcDbEntity
  8
1
  6
CONTINUOUS
 62
     7
100
AcDbLine
 10
-283.9362976483444
 20
89.34999999999998
 30
0.0
 11
-288.9100343744411
 21
89.34999999999998
 31
0.0
  0
LINE
  5
13B
330
1F
100
AcDbEntity
  8
1
  6
CONTINUOUS
 62
     7
100
AcDbLine
 10
-359.3630069142829
 20
-53.49560847134745
 30
0.0
 11
-356.862626388681
 21
-42.21712077212349
 31
0.0
  0
LINE
  5
13C
330
1F
100
AcDbEntity
  8
1
  6
CONTINUOUS
 62
     7
100
AcDbLine
 10
-750.3633251085027
 20
102.1956084713482
 30
0.0
 11
-752.8637056341047
 21
90.9171207721247
 31
0.0
  0
LINE
  5
13D
330
1F
100
AcDbEntity
  8
1
  6
CONTINUOUS
 62
     7
100
AcDbLine
 10
-17.98262638868109
 20
90.9171207721236
 30
0.0
 11
-20.48300691428301
 21
102.1956084713473
 31
0.0
  0
ARC
  5
13E
330
1F
100
AcDbEntity
  8
1
  6
CONTINUOUS
 62
     7
100
AcDbCircle
 10
101.9568339886072
 20
-22.15000000000002
 30
0.0
 40
34.99999999999999
100
AcDbArc
 50
259.4893346606696
 51
280.5106653393303
  0
LINE
  5
13F
330
1F
100
AcDbEntity
  8
1
  6
CONTINUOUS
 62
     7
100
AcDbLine
 10
-825.7900343744412
 20
-40.64999999999981
 30
0.0
 11
-820.8162976483445
 21
-40.64999999999981
 31
0.0
  0
LINE
  5
140
330
1F
100
AcDbEntity
  8
1
  6
CONTINUOUS
 62
     7
100
AcDbLine
 10
-75.10370563410467
 20
-42.21712077212338
 30
0.0
 11
-72.6033251085027
 21
-53.49560847134733
 31
0.0
  0
LINE
  5
141
330
1F
100
AcDbEntity
  8
1
  6
CENTER
 62
     1
100
AcDbLine
 10
-896.7431660113929
 20
24.35
 30
0.0
 11
586.3368339886073
 21
24.35
 31
0.0
  0
LINE
  5
143
330
1F
100
AcDbEntity
  8
1
  6
CENTER
 62
     1
100
AcDbLine
 10
-1195.4
 20
24.35000000000021
 30
0.0
 11
-1028.4
 21
24.35000000000021
 31
0.0
  0
LINE
  5
144
330
1F
100
AcDbEntity
  8
1
  6
CONTINUOUS
 62
     7
100
AcDbLine
 10
-698.2430069142832
 20
-53.49560847134784
 30
0.0
 11
-695.7426263886811
 21
-42.21712077212338
 31
0.0
  0
LINE
  5
145
330
1F
100
AcDbEntity
  8
1
  6
CONTINUOUS
 62
     7
100
AcDbLine
 10
-820.8162976483445
 20
89.3500000000002
 30
0.0
 11
-825.7900343744412
 21
89.3500000000002
 31
0.0
  0
LINE
  5
146
330
1F
100
AcDbEntity
  8
1
  6
CONTINUOUS
 62
     7
100
AcDbLine
 10
480.7360021423506
 20
-49.14788235115483
 30
0.0
 11
465.9376658348638
 21
-49.14788235115483
 31
0.0
  0
LINE
  5
147
330
1F
100
AcDbEntity
  8
1
  6
CONTINUOUS
 62
     7
100
AcDbLine
 10
-627.7900343744412
 20
-40.64999999999987
 30
0.0
 11
-622.8162976483445
 21
-40.64999999999987
 31
0.0
  0
LINE
  5
148
330
1F
100
AcDbEntity
  8
1
  6
CENTER
 62
     1
100
AcDbLine
 10
-1111.9
 20
-59.14999999999978
 30
0.0
 11
-1111.9
 21
107.8500000000002
 31
0.0
  0
LINE
  5
149
330
1F
100
AcDbEntity
  8
1
  6
CONTINUOUS
 62
   253
100
AcDbLine
 10
466.3113710311637
 20
25.89897219593578
 30
0.0
 11
480.3622969460506
 21
25.89897219593578
 31
0.0
  0
LINE
  5
14A
330
1F
100
AcDbEntity
  8
1
  6
CONTINUOUS
 62
   253
100
AcDbLine
 10
-9.10370563410462
 20
-42.21712077212383
 30
0.0
 11
-9.10370563410462
 21
90.91712077212368
 31
0.0
  0
ARC
  5
14B
330
1F
100
AcDbEntity
  8
1
  6
CONTINUOUS
 62
     7
100
AcDbCircle
 10
-195.0431660113929
 20
-22.14999999999999
 30
0.0
 40
34.99999999999999
100
AcDbArc
 50
259.4893346606696
 51
280.5106653393304
  0
LINE
  5
14C
330
1F
100
AcDbEntity
  8
1
  6
CONTINUOUS
 62
     7
100
AcDbLine
 10
-288.9100343744411
 20
-40.65000000000001
 30
0.0
 11
-283.9362976483444
 21
-40.65000000000001
 31
0.0
  0
LINE
  5
14D
330
1F
100
AcDbEntity
  8
1
  6
CONTINUOUS
 62
     7
100
AcDbLine
 10
195.8237023516556
 20
89.35
 30
0.0
 11
190.8499656255588
 21
89.35
 31
0.0
  0
ARC
  5
14E
330
1F
100
AcDbEntity
  8
1
  6
CONTINUOUS
 62
     7
100
AcDbCircle
 10
-533.9231660113929
 20
70.85000000000004
 30
0.0
 40
35.00000000000001
100
AcDbArc
 50
79.48933466066963
 51
100.5106653393304
  0
ARC
  5
14F
330
1F
100
AcDbEntity
  8
1
  6
CONTINUOUS
 62
     7
100
AcDbCircle
 10
-872.8031660113929
 20
-22.14999999999977
 30
0.0
 40
35.0
100
AcDbArc
 50
259.4893346606696
 51
280.5106653393303
  0
LINE
  5
150
330
1F
100
AcDbEntity
  8
1
  6
CONTINUOUS
 62
     7
100
AcDbLine
 10
-72.6033251085027
 20
102.1956084713474
 30
0.0
 11
-75.10370563410467
 21
90.91712077212344
 31
0.0
  0
LINE
  5
151
330
1F
100
AcDbEntity
  8
1
  6
CONTINUOUS
 62
     7
100
AcDbLine
 10
54.94370235165552
 20
89.34999999999997
 30
0.0
 11
49.96996562555878
 21
89.34999999999997
 31
0.0
  0
ARC
  5
152
330
1F
100
AcDbEntity
  8
1
  6
CONTINUOUS
 62
     7
100
AcDbCircle
 10
-533.9231660113929
 20
-22.14999999999993
 30
0.0
 40
34.99999999999999
100
AcDbArc
 50
259.4893346606696
 51
280.5106653393304
  0
LINE
  5
153
330
1F
100
AcDbEntity
  8
1
  6
CONTINUOUS
 62
   253
100
AcDbLine
 10
480.3622969460506
 20
-48.20024711894671
 30
0.0
 11
480.7360021423506
 21
-49.14788235115483
 31
0.0
  0
LINE
  5
154
330
1F
100
AcDbEntity
  8
1
  6
CONTINUOUS
 62
     7
100
AcDbLine
 10
-411.4833251085026
 20
102.1956084713475
 30
0.0
 11
-413.9837056341045
 21
90.91712077212401
 31
0.0
  0
LINE
  5
155
330
1F
100
AcDbEntity
  8
1
  6
CONTINUOUS
 62
     7
100
AcDbLine
 10
-148.0300343744412
 20
-40.65000000000001
 30
0.0
 11
-143.0562976483446
 21
-40.65000000000001
 31
0.0
  0
LINE
  5
156
330
1F
100
AcDbEntity
  8
1
  6
CONTINUOUS
 62
   253
100
AcDbLine
 10
388.5956530337095
 20
101.4267451828248
 30
0.0
 11
388.5956530337096
 21
98.04676749568551
 31
0.0
  0
ARC
  5
157
330
1F
100
AcDbEntity
  8
1
  6
CONTINUOUS
 62
     7
100
AcDbCircle
 10
101.9568339886072
 20
70.84999999999994
 30
0.0
 40
35.0
100
AcDbArc
 50
79.48933466066973
 51
100.5106653393305
  0
LINE
  5
158
330
1F
100
AcDbEntity
  8
1
  6
CONTINUOUS
 62
     7
100
AcDbLine
 10
839.4032253728411
 20
-49.36698419837495
 30
0.0
 11
840.4032253728411
 21
-48.84071321088616
 31
0.0
  0
LINE
  5
159
330
1F
100
AcDbEntity
  8
1
  6
CONTINUOUS
 62
     7
100
AcDbLine
 10
-413.9837056341045
 20
-42.21712077212381
 30
0.0
 11
-411.4833251085026
 21
-53.49560847134726
 31
0.0
  0
ARC
  5
15A
330
1F
100
AcDbEntity
  8
1
  6
CONTINUOUS
 62
   253
100
AcDbCircle
 10
473.3368339886072
 20
-69.18369612450377
 30
0.0
 40
95.96280405698862
100
AcDbArc
 50
85.95962643356027
 51
94.04037356643971
  0
LINE
  5
15B
330
1F
100
AcDbEntity
  8
1
  6
CONTINUOUS
 62
   253
100
AcDbLine
 10
393.1132911239145
 20
-52.06612381785073
 30
0.0
 11
393.1132911239145
 21
-48.65604631198663
 31
0.0
  0
LINE
  5
15C
330
1F
100
AcDbEntity
  8
1
  6
CONTINUOUS
 62
     7
100
AcDbLine
 10
-622.8162976483445
 20
89.35000000000012
 30
0.0
 11
-627.7900343744412
 21
89.35000000000012
 31
0.0
  0
LINE
  5
15D
330
1F
100
AcDbEntity
  8
1
  6
CONTINUOUS
 62
     7
100
AcDbLine
 10
190.8499656255588
 20
-40.65
 30
0.0
 11
195.8237023516556
 21
-40.65
 31
0.0
  0
ARC
  5
15E
330
1F
100
AcDbEntity
  8
1
  6
CONTINUOUS
 62
     7
100
AcDbCircle
 10
-236.9231660113928
 20
-22.15000000000001
 30
0.0
 40
35.0
100
AcDbArc
 50
259.4893346606696
 51
280.5106653393303
  0
ARC
  5
15F
330
1F
100
AcDbEntity
  8
1
  6
CONTINUOUS
 62
     7
100
AcDbCircle
 10
-872.8031660113929
 20
70.8500000000002
 30
0.0
 40
35.0
100
AcDbArc
 50
79.48933466066963
 51
100.5106653393303
  0
LINE
  5
160
330
1F
100
AcDbEntity
  8
1
  6
CONTINUOUS
 62
     7
100
AcDbLine
 10
318.396993085717
 20
-53.49560847134748
 30
0.0
 11
320.897373611319
 21
-42.21712077212378
 31
0.0
  0
LINE
  5
161
330
1F
100
AcDbEntity
  8
1
  6
CONTINUOUS
 62
     7
100
AcDbLine
 10
-752.8637056341047
 20
-42.21712077212412
 30
0.0
 11
-750.3633251085027
 21
-53.49560847134757
 31
0.0
  0
LINE
  5
162
330
1F
100
AcDbEntity
  8
1
  6
CONTINUOUS
 62
     7
100
AcDbLine
 10
320.897373611319
 20
90.91712077212378
 30
0.0
 11
318.396993085717
 21
102.1956084713475
 31
0.0
  0
LINE
  5
163
330
1F
100
AcDbEntity
  8
1
  6
CONTINUOUS
 62
     7
100
AcDbLine
 10
-486.9100343744411
 20
-40.64999999999997
 30
0.0
 11
-481.9362976483445
 21
-40.64999999999997
 31
0.0
  0
ARC
  5
164
330
1F
100
AcDbEntity
  8
1
  6
CONTINUOUS
 62
   253
100
AcDbCircle
 10
473.3368339886072
 20
100.3498211958188
 30
0.0
 40
77.94845048923032
100
AcDbArc
 50
265.3799890329337
 51
274.6200109670663
  0
LINE
  5
165
330
1F
100
AcDbEntity
  8
1
  6
CONTINUOUS
 62
     7
100
AcDbLine
 10
726.8874436182257
 20
-14.45973783035657
 30
0.0
 11
726.883015801625
 21
-14.45322537284127
 31
0.0
  0
LINE
  5
166
330
1F
100
AcDbEntity
  8
1
  6
CONTINUOUS
 62
     7
100
AcDbLine
 10
-356.862626388681
 20
90.91712077212331
 30
0.0
 11
-359.3630069142829
 21
102.1956084713473
 31
0.0
  0
LINE
  5
167
330
1F
100
AcDbEntity
  8
1
  6
CONTINUOUS
 62
     7
100
AcDbLine
 10
-20.48300691428301
 20
-53.49560847134742
 30
0.0
 11
-17.98262638868109
 21
-42.21712077212373
 31
0.0
  0
LINE
  5
168
330
1F
100
AcDbEntity
  8
1
  6
CONTINUOUS
 62
   253
100
AcDbLine
 10
466.3113710311638
 20
-48.20024711894671
 30
0.0
 11
465.9376658348638
 21
-49.14788235115483
 31
0.0
  0
LINE
  5
169
330
1F
100
AcDbEntity
  8
1
  6
CONTINUOUS
 62
   253
100
AcDbLine
 10
553.5603768532999
 20
-52.06612381785073
 30
0.0
 11
553.5603768532999
 21
-48.65604631198663
 31
0.0
  0
LINE
  5
16A
330
1F
100
AcDbEntity
  8
1
  6
CONTINUOUS
 62
     7
100
AcDbLine
 10
726.883015801625
 20
-14.45322537284127
 30
0.0
 11
727.4092867891136
 21
-15.4532253728413
 31
0.0
  0
ARC
  5
16B
330
1F
100
AcDbEntity
  8
1
  6
CONTINUOUS
 62
   253
100
AcDbCircle
 10
473.3368339886072
 20
117.8836961245037
 30
0.0
 40
95.96280405698859
100
AcDbArc
 50
265.9596264335603
 51
274.0403735664397
  0
LINE
  5
16C
330
1F
100
AcDbEntity
  8
1
  6
CONTINUOUS
 62
   253
100
AcDbLine
 10
388.5956530337096
 20
-49.34676749568598
 30
0.0
 11
388.5956530337096
 21
-52.72674518282549
 31
0.0
  0
ARC
  5
16D
330
1F
100
AcDbEntity
  8
1
  6
CONTINUOUS
 62
     7
100
AcDbCircle
 10
143.8368339886072
 20
-22.14999999999998
 30
0.0
 40
35.0
100
AcDbArc
 50
259.4893346606697
 51
280.5106653393304
  0
ARC
  5
16E
330
1F
100
AcDbEntity
  8
1
  6
CONTINUOUS
 62
     7
100
AcDbCircle
 10
-195.0431660113929
 20
70.84999999999998
 30
0.0
 40
35.00000000000001
100
AcDbArc
 50
79.48933466066963
 51
100.5106653393304
  0
ARC
  5
16F
330
1F
100
AcDbEntity
  8
1
  6
CONTINUOUS
 62
     7
100
AcDbCircle
 10
-575.8031660113928
 20
70.8500000000001
 30
0.0
 40
34.99999999999999
100
AcDbArc
 50
79.48933466067
 51
100.5106653393308
  0
LINE
  5
170
330
1F
100
AcDbEntity
  8
1
  6
CONTINUOUS
 62
     7
100
AcDbLine
 10
-53.48300691428304
 20
-53.49560847134754
 30
0.0
 11
-50.98262638868106
 21
-42.21712077212366
 31
0.0
  0
LINE
  5
171
330
1F
100
AcDbEntity
  8
1
  6
CONTINUOUS
 62
     7
100
AcDbLine
 10
-217.9362976483445
 20
89.34999999999995
 30
0.0
 11
-222.9100343744412
 21
89.34999999999995
 31
0.0
  0
LINE
  5
172
330
1F
100
AcDbEntity
  8
1
  6
CONTINUOUS
 62
     7
100
AcDbLine
 10
-214.0300343744412
 20
-40.65
 30
0.0
 11
-209.0562976483445
 21
-40.65
 31
0.0
  0
ARC
  5
173
330
1F
100
AcDbEntity
  8
1
  6
CONTINUOUS
 62
     7
100
AcDbCircle
 10
-773.8031660113929
 20
-22.14999999999981
 30
0.0
 40
35.00000000000001
100
AcDbArc
 50
259.4893346606696
 51
280.5106653393304
  0
ARC
  5
174
330
1F
100
AcDbEntity
  8
1
  6
CONTINUOUS
 62
     7
100
AcDbCircle
 10
-806.8031660113929
 20
-22.1499999999998
 30
0.0
 40
34.99999999999999
100
AcDbArc
 50
259.4893346606696
 51
280.5106653393304
  0
ARC
  5
175
330
1F
100
AcDbEntity
  8
1
  6
CONTINUOUS
 62
     7
100
AcDbCircle
 10
-181.0300343744412
 20
-42.65
 30
0.0
 40
2.00000000000004
100
AcDbArc
 50
90.0
 51
167.5000000000013
  0
ARC
  5
176
330
1F
100
AcDbEntity
  8
1
  6
CONTINUOUS
 62
     7
100
AcDbCircle
 10
-269.9231660113928
 20
-22.15
 30
0.0
 40
35.00000000000001
100
AcDbArc
 50
259.4893346606696
 51
280.5106653393304
  0
ARC
  5
177
330
1F
100
AcDbEntity
  8
1
  6
CONTINUOUS
 62
     7
100
AcDbCircle
 10
308.8368339886072
 20
-22.14999999999998
 30
0.0
 40
34.99999999999999
100
AcDbArc
 50
259.4893346606697
 51
280.5106653393304
  0
ARC
  5
178
330
1F
100
AcDbEntity
  8
1
  6
CONTINUOUS
 62
     7
100
AcDbCircle
 10
-467.9231660113928
 20
70.85000000000001
 30
0.0
 40
35.0
100
AcDbArc
 50
79.48933466066963
 51
100.5106653393303
  0
ARC
  5
179
330
1F
100
AcDbEntity
  8
1
  6
CONTINUOUS
 62
     7
100
AcDbCircle
 10
-773.8031660113929
 20
70.85000000000016
 30
0.0
 40
34.99999999999999
100
AcDbArc
 50
79.48933466066963
 51
100.5106653393304
  0
LINE
  5
17A
330
1F
100
AcDbEntity
  8
1
  6
CONTINUOUS
 62
     7
100
AcDbLine
 10
-50.98262638868106
 20
90.91712077212354
 30
0.0
 11
-53.48300691428304
 21
102.1956084713474
 31
0.0
  0
LINE
  5
17B
330
1F
100
AcDbEntity
  8
1
  6
CONTINUOUS
 62
     7
100
AcDbLine
 10
-378.4833251085026
 20
102.1956084713476
 30
0.0
 11
-380.9837056341046
 21
90.91712077212368
 31
0.0
  0
ARC
  5
17C
330
1F
100
AcDbEntity
  8
1
  6
CONTINUOUS
 62
     7
100
AcDbCircle
 10
-589.8162976483446
 20
91.35000000000011
 30
0.0
 40
1.99999999999994
100
AcDbArc
 50
270.0
 51
347.5000000000002
  0
ARC
  5
17D
330
1F
100
AcDbEntity
  8
1
  6
CONTINUOUS
 62
     7
100
AcDbCircle
 10
2.956833988607133
 20
70.84999999999995
 30
0.0
 40
35.0
100
AcDbArc
 50
79.48933466066963
 51
100.5106653393303
  0
ARC
  5
17E
330
1F
100
AcDbEntity
  8
1
  6
CONTINUOUS
 62
     7
100
AcDbCircle
 10
-608.8031660113929
 20
-22.14999999999987
 30
0.0
 40
35.0
100
AcDbArc
 50
259.4893346606696
 51
280.5106653393303
  0
LINE
  5
17F
330
1F
100
AcDbEntity
  8
1
  6
CONTINUOUS
 62
     7
100
AcDbLine
 10
122.8968339886072
 20
-42.2195548528786
 30
0.0
 11
122.8968339886072
 21
90.91955485287859
 31
0.0
  0
LINE
  5
180
330
1F
100
AcDbEntity
  8
1
  6
CONTINUOUS
 62
     7
100
AcDbLine
 10
-42.10370563410465
 20
-42.21712077212359
 30
0.0
 11
-39.60332510850267
 21
-53.49560847134747
 31
0.0
  0
ARC
  5
181
330
1F
100
AcDbEntity
  8
1
  6
CONTINUOUS
 62
     7
100
AcDbCircle
 10
-608.8031660113929
 20
70.8500000000001
 30
0.0
 40
35.0
100
AcDbArc
 50
79.48933466066963
 51
100.5106653393303
  0
ARC
  5
182
330
1F
100
AcDbEntity
  8
1
  6
CONTINUOUS
 62
     7
100
AcDbCircle
 10
-467.9231660113928
 20
-22.14999999999995
 30
0.0
 40
35.0
100
AcDbArc
 50
259.4893346606696
 51
280.5106653393303
  0
LINE
  5
183
330
1F
100
AcDbEntity
  8
1
  6
CONTINUOUS
 62
     7
100
AcDbLine
 10
-222.9100343744412
 20
-40.65000000000004
 30
0.0
 11
-217.9362976483445
 21
-40.65000000000004
 31
0.0
  0
ARC
  5
184
330
1F
100
AcDbEntity
  8
1
  6
CONTINUOUS
 62
     7
100
AcDbCircle
 10
-335.9231660113929
 20
70.84999999999998
 30
0.0
 40
35.0
100
AcDbArc
 50
79.48933466066963
 51
100.5106653393303
  0
ARC
  5
185
330
1F
100
AcDbEntity
  8
1
  6
CONTINUOUS
 62
     7
100
AcDbCircle
 10
-181.0300343744412
 20
91.35
 30
0.0
 40
2.000000000000002
100
AcDbArc
 50
192.4999999999987
 51
270.0
  0
ARC
  5
186
330
1F
100
AcDbEntity
  8
1
  6
CONTINUOUS
 62
     7
100
AcDbCircle
 10
-589.8162976483446
 20
-42.64999999999989
 30
0.0
 40
2.000000000000002
100
AcDbArc
 50
12.49999999999983
 51
90.0
  0
LINE
  5
187
330
1F
100
AcDbEntity
  8
1
  6
CONTINUOUS
 62
     7
100
AcDbLine
 10
-552.9100343744412
 20
-40.64999999999994
 30
0.0
 11
-547.9362976483445
 21
-40.64999999999994
 31
0.0
  0
LINE
  5
188
330
1F
100
AcDbEntity
  8
1
  6
CONTINUOUS
 62
     7
100
AcDbLine
 10
-182.9826263886811
 20
90.91712077212387
 30
0.0
 11
-185.483006914283
 21
102.1956084713478
 31
0.0
  0
LINE
  5
189
330
1F
100
AcDbEntity
  8
1
  6
CONTINUOUS
 62
     7
100
AcDbLine
 10
-561.7900343744413
 20
-40.6499999999999
 30
0.0
 11
-556.8162976483447
 21
-40.6499999999999
 31
0.0
  0
LINE
  5
18A
330
1F
100
AcDbEntity
  8
1
  6
CONTINUOUS
 62
     7
100
AcDbLine
 10
-524.3630069142829
 20
-53.49560847134741
 30
0.0
 11
-521.8626263886811
 21
-42.21712077212395
 31
0.0
  0
ARC
  5
18B
330
1F
100
AcDbEntity
  8
1
  6
CONTINUOUS
 62
     7
100
AcDbCircle
 10
-434.9231660113928
 20
70.85000000000001
 30
0.0
 40
35.00000000000001
100
AcDbArc
 50
79.48933466066963
 51
100.5106653393304
  0
ARC
  5
18C
330
1F
100
AcDbEntity
  8
1
  6
CONTINUOUS
 62
     7
100
AcDbCircle
 10
-519.9100343744412
 20
-42.64999999999996
 30
0.0
 40
1.999999999999938
100
AcDbArc
 50
90.0
 51
167.5000000000005
  0
ARC
  5
18D
330
1F
100
AcDbEntity
  8
1
  6
CONTINUOUS
 62
     7
100
AcDbCircle
 10
-519.9100343744412
 20
91.35000000000004
 30
0.0
 40
2.000000000000002
100
AcDbArc
 50
192.4999999999995
 51
270.0
  0
ARC
  5
18E
330
1F
100
AcDbEntity
  8
1
  6
CONTINUOUS
 62
     7
100
AcDbCircle
 10
-302.9231660113928
 20
-22.15
 30
0.0
 40
35.0
100
AcDbArc
 50
259.4893346606696
 51
280.5106653393303
  0
ARC
  5
18F
330
1F
100
AcDbEntity
  8
1
  6
CONTINUOUS
 62
     7
100
AcDbCircle
 10
-96.04316601139278
 20
-22.15
 30
0.0
 40
35.0
100
AcDbArc
 50
259.4893346606696
 51
280.5106653393303
  0
LINE
  5
190
330
1F
100
AcDbEntity
  8
1
  6
CONTINUOUS
 62
     7
100
AcDbLine
 10
-717.3633251085029
 20
102.1956084713477
 30
0.0
 11
-719.8637056341047
 21
90.91712077212435
 31
0.0
  0
ARC
  5
191
330
1F
100
AcDbEntity
  8
1
  6
CONTINUOUS
 62
     7
100
AcDbCircle
 10
-674.803166011393
 20
70.85000000000012
 30
0.0
 40
35.0
100
AcDbArc
 50
79.48933466066963
 51
100.5106653393303
  0
ARC
  5
192
330
1F
100
AcDbEntity
  8
1
  6
CONTINUOUS
 62
     7
100
AcDbCircle
 10
-641.803166011393
 20
70.85000000000011
 30
0.0
 40
35.0
100
AcDbArc
 50
79.48933466066926
 51
100.5106653393303
  0
LINE
  5
193
330
1F
100
AcDbEntity
  8
1
  6
CONTINUOUS
 62
     7
100
AcDbLine
 10
-392.363006914283
 20
-53.49560847134754
 30
0.0
 11
-389.862626388681
 21
-42.21712077212366
 31
0.0
  0
LINE
  5
194
330
1F
100
AcDbEntity
  8
1
  6
CONTINUOUS
 62
     7
100
AcDbLine
 10
-209.0562976483445
 20
89.35
 30
0.0
 11
-214.0300343744412
 21
89.35
 31
0.0
  0
LINE
  5
195
330
1F
100
AcDbEntity
  8
1
  6
CONTINUOUS
 62
     7
100
AcDbLine
 10
-185.483006914283
 20
-53.4956084713479
 30
0.0
 11
-182.9826263886811
 21
-42.21712077212395
 31
0.0
  0
LINE
  5
196
330
1F
100
AcDbEntity
  8
1
  6
CONTINUOUS
 62
     7
100
AcDbLine
 10
-248.9837056341046
 20
-42.21712077212386
 30
0.0
 11
-246.4833251085026
 21
-53.4956084713478
 31
0.0
  0
LINE
  5
197
330
1F
100
AcDbEntity
  8
1
  6
CONTINUOUS
 62
     7
100
AcDbLine
 10
-556.8162976483447
 20
89.3500000000001
 30
0.0
 11
-561.7900343744413
 21
89.3500000000001
 31
0.0
  0
ARC
  5
198
330
1F
100
AcDbEntity
  8
1
  6
CONTINUOUS
 62
     7
100
AcDbCircle
 10
-500.9231660113929
 20
-22.14999999999995
 30
0.0
 40
35.00000000000001
100
AcDbArc
 50
259.4893346606696
 51
280.5106653393304
  0
LINE
  5
199
330
1F
100
AcDbEntity
  8
1
  6
CONTINUOUS
 62
     7
100
AcDbLine
 10
-380.9837056341046
 20
-42.21712077212351
 30
0.0
 11
-378.4833251085026
 21
-53.4956084713474
 31
0.0
  0
ARC
  5
19A
330
1F
100
AcDbEntity
  8
1
  6
CONTINUOUS
 62
     7
100
AcDbCircle
 10
-434.9231660113928
 20
-22.14999999999996
 30
0.0
 40
34.99999999999999
100
AcDbArc
 50
259.4893346606696
 51
280.5106653393304
  0
LINE
  5
19B
330
1F
100
AcDbEntity
  8
1
  6
CONTINUOUS
 62
     7
100
AcDbLine
 10
-521.8626263886811
 20
90.91712077212387
 30
0.0
 11
-524.3630069142829
 21
102.1956084713473
 31
0.0
  0
LINE
  5
19C
330
1F
100
AcDbEntity
  8
1
  6
CONTINUOUS
 62
     7
100
AcDbLine
 10
-246.4833251085026
 20
102.1956084713479
 30
0.0
 11
-248.9837056341046
 21
90.91712077212397
 31
0.0
  0
LINE
  5
19D
330
1F
100
AcDbEntity
  8
1
  6
CONTINUOUS
 62
     7
100
AcDbLine
 10
-547.9362976483445
 20
89.35000000000005
 30
0.0
 11
-552.9100343744412
 21
89.35000000000005
 31
0.0
  0
ARC
  5
19E
330
1F
100
AcDbEntity
  8
1
  6
CONTINUOUS
 62
     7
100
AcDbCircle
 10
-162.0431660113929
 20
70.84999999999998
 30
0.0
 40
35.00000000000001
100
AcDbArc
 50
79.48933466066963
 51
100.5106653393304
  0
LINE
  5
19F
330
1F
100
AcDbEntity
  8
1
  6
CONTINUOUS
 62
     7
100
AcDbLine
 10
-731.2430069142831
 20
-53.49560847134742
 30
0.0
 11
-728.7426263886811
 21
-42.21712077212305
 31
0.0
  0
ARC
  5
1A0
330
1F
100
AcDbEntity
  8
1
  6
CONTINUOUS
 62
     7
100
AcDbCircle
 10
2.956833988607133
 20
-22.15000000000001
 30
0.0
 40
35.0
100
AcDbArc
 50
259.4893346606696
 51
280.5106653393303
  0
ARC
  5
1A1
330
1F
100
AcDbEntity
  8
1
  6
CONTINUOUS
 62
     7
100
AcDbCircle
 10
-96.04316601139278
 20
70.84999999999997
 30
0.0
 40
35.0
100
AcDbArc
 50
79.48933466066963
 51
100.5106653393303
  0
ARC
  5
1A2
330
1F
100
AcDbEntity
  8
1
  6
CONTINUOUS
 62
     7
100
AcDbCircle
 10
-641.803166011393
 20
-22.14999999999986
 30
0.0
 40
35.0
100
AcDbArc
 50
259.4893346606696
 51
280.5106653393307
  0
ARC
  5
1A3
330
1F
100
AcDbEntity
  8
1
  6
CONTINUOUS
 62
     7
100
AcDbCircle
 10
-302.9231660113928
 20
70.84999999999997
 30
0.0
 40
35.0
100
AcDbArc
 50
79.48933466066963
 51
100.5106653393303
  0
ARC
  5
1A4
330
1F
100
AcDbEntity
  8
1
  6
CONTINUOUS
 62
     7
100
AcDbCircle
 10
-129.0431660113928
 20
70.84999999999997
 30
0.0
 40
35.0
100
AcDbArc
 50
79.48933466066963
 51
100.5106653393303
  0
ARC
  5
1A5
330
1F
100
AcDbEntity
  8
1
  6
CONTINUOUS
 62
     7
100
AcDbCircle
 10
308.8368339886072
 20
70.84999999999998
 30
0.0
 40
35.00000000000001
100
AcDbArc
 50
79.4893346606696
 51
100.5106653393304
  0
ARC
  5
1A6
330
1F
100
AcDbEntity
  8
1
  6
CONTINUOUS
 62
     7
100
AcDbCircle
 10
-500.9231660113929
 20
70.85000000000002
 30
0.0
 40
34.99999999999999
100
AcDbArc
 50
79.48933466066963
 51
100.5106653393304
  0
LINE
  5
1A7
330
1F
100
AcDbEntity
  8
1
  6
CONTINUOUS
 62
     7
100
AcDbLine
 10
-728.7426263886811
 20
90.91712077212314
 30
0.0
 11
-731.2430069142831
 21
102.1956084713475
 31
0.0
  0
ARC
  5
1A8
330
1F
100
AcDbEntity
  8
1
  6
CONTINUOUS
 62
     7
100
AcDbCircle
 10
-674.803166011393
 20
-22.14999999999984
 30
0.0
 40
35.0
100
AcDbArc
 50
259.4893346606696
 51
280.5106653393303
  0
LINE
  5
1A9
330
1F
100
AcDbEntity
  8
1
  6
CONTINUOUS
 62
     7
100
AcDbLine
 10
-719.8637056341047
 20
-42.21712077212384
 30
0.0
 11
-717.3633251085029
 21
-53.49560847134722
 31
0.0
  0
LINE
  5
1AA
330
1F
100
AcDbEntity
  8
1
  6
CONTINUOUS
 62
     7
100
AcDbLine
 10
-389.862626388681
 20
90.91712077212354
 30
0.0
 11
-392.363006914283
 21
102.1956084713474
 31
0.0
  0
ARC
  5
1AB
330
1F
100
AcDbEntity
  8
1
  6
CONTINUOUS
 62
     7
100
AcDbCircle
 10
-250.9362976483445
 20
-42.65000000000003
 30
0.0
 40
2.000000000000002
100
AcDbArc
 50
12.49999999999875
 51
90.0
  0
ARC
  5
1AC
330
1F
100
AcDbEntity
  8
1
  6
CONTINUOUS
 62
     7
100
AcDbCircle
 10
-129.0431660113928
 20
-22.15
 30
0.0
 40
35.0
100
AcDbArc
 50
259.4893346606696
 51
280.5106653393303
  0
ARC
  5
1AD
330
1F
100
AcDbEntity
  8
1
  6
CONTINUOUS
 62
     7
100
AcDbCircle
 10
-162.0431660113929
 20
-22.14999999999999
 30
0.0
 40
34.99999999999999
100
AcDbArc
 50
259.4893346606696
 51
280.5106653393304
  0
LINE
  5
1AE
330
1F
100
AcDbEntity
  8
1
  6
CONTINUOUS
 62
     7
100
AcDbLine
 10
-39.60332510850267
 20
102.1956084713475
 30
0.0
 11
-42.10370563410465
 21
90.91712077212361
 31
0.0
  0
ARC
  5
1AF
330
1F
100
AcDbEntity
  8
1
  6
CONTINUOUS
 62
     7
100
AcDbCircle
 10
341.8368339886072
 20
-22.14999999999998
 30
0.0
 40
35.0
100
AcDbArc
 50
259.4893346606696
 51
280.5106653393303
  0
ARC
  5
1B0
330
1F
100
AcDbEntity
  8
1
  6
CONTINUOUS
 62
     7
100
AcDbCircle
 10
242.8368339886072
 20
70.84999999999998
 30
0.0
 40
35.0
100
AcDbArc
 50
79.48933466066963
 51
100.5106653393303
  0
ARC
  5
1B1
330
1F
100
AcDbEntity
  8
1
  6
CONTINUOUS
 62
     7
100
AcDbCircle
 10
209.8368339886073
 20
70.84999999999998
 30
0.0
 40
35.0
100
AcDbArc
 50
79.48933466066963
 51
100.5106653393305
  0
ARC
  5
1B2
330
1F
100
AcDbEntity
  8
1
  6
CONTINUOUS
 62
     7
100
AcDbCircle
 10
-702.1481909427628
 20
-52.62985001559493
 30
0.0
 40
3.999999999999995
100
AcDbArc
 50
280.5106653393304
 51
347.5000000000004
  0
ARC
  5
1B3
330
1F
100
AcDbEntity
  8
1
  6
CONTINUOUS
 62
     7
100
AcDbCircle
 10
87.94370235165549
 20
-42.65000000000004
 30
0.0
 40
2.000000000000002
100
AcDbArc
 50
12.49999999999989
 51
90.0
  0
ARC
  5
1B4
330
1F
100
AcDbEntity
  8
1
  6
CONTINUOUS
 62
     7
100
AcDbCircle
 10
176.8368339886072
 20
-22.14999999999998
 30
0.0
 40
35.0
100
AcDbArc
 50
259.4893346606696
 51
280.5106653393303
  0
ARC
  5
1B5
330
1F
100
AcDbEntity
  8
1
  6
CONTINUOUS
 62
     7
100
AcDbCircle
 10
-768.1481909427629
 20
-52.62985001559491
 30
0.0
 40
3.999999999999995
100
AcDbArc
 50
280.5106653393304
 51
347.500000000001
  0
ARC
  5
1B6
330
1F
100
AcDbEntity
  8
1
  6
CONTINUOUS
 62
     7
100
AcDbCircle
 10
68.95683398860713
 20
-22.15000000000002
 30
0.0
 40
34.99999999999999
100
AcDbArc
 50
259.4893346606696
 51
280.5106653393304
  0
ARC
  5
1B7
330
1F
100
AcDbEntity
  8
1
  6
CONTINUOUS
 62
     7
100
AcDbCircle
 10
-878.4581410800231
 20
101.3298500155953
 30
0.0
 40
3.999999999999995
100
AcDbArc
 50
100.5106653393304
 51
167.5000000000005
  0
ARC
  5
1B8
330
1F
100
AcDbEntity
  8
1
  6
CONTINUOUS
 62
     7
100
AcDbCircle
 10
157.8499656255589
 20
91.35
 30
0.0
 40
2.000000000000002
100
AcDbArc
 50
192.4999999999999
 51
270.0
  0
ARC
  5
1B9
330
1F
100
AcDbEntity
  8
1
  6
CONTINUOUS
 62
     7
100
AcDbCircle
 10
-636.1481909427628
 20
101.3298500155952
 30
0.0
 40
4.000000000000092
100
AcDbArc
 50
12.49999999999959
 51
79.48933466066964
  0
ARC
  5
1BA
330
1F
100
AcDbEntity
  8
1
  6
CONTINUOUS
 62
     7
100
AcDbCircle
 10
-680.4581410800231
 20
101.3298500155952
 30
0.0
 40
3.999999999999995
100
AcDbArc
 50
100.5106653393304
 51
167.5000000000005
  0
ARC
  5
1BB
330
1F
100
AcDbEntity
  8
1
  6
CONTINUOUS
 62
     7
100
AcDbCircle
 10
-473.5781410800229
 20
-52.62985001559505
 30
0.0
 40
3.999999999999875
100
AcDbArc
 50
192.4999999999995
 51
259.4893346606696
  0
LINE
  5
1BC
330
1F
100
AcDbEntity
  8
1
  6
CONTINUOUS
 62
   253
100
AcDbLine
 10
480.7360021423506
 20
97.84999999999994
 30
0.0
 11
480.7360021423506
 21
97.84788235115477
 31
0.0
  0
ARC
  5
1BD
330
1F
100
AcDbEntity
  8
1
  6
CONTINUOUS
 62
     7
100
AcDbCircle
 10
-528.2681909427628
 20
-52.62985001559504
 30
0.0
 40
3.999999999999995
100
AcDbArc
 50
280.5106653393304
 51
347.5000000000005
  0
ARC
  5
1BE
330
1F
100
AcDbEntity
  8
1
  6
CONTINUOUS
 62
     7
100
AcDbCircle
 10
-647.4581410800232
 20
101.3298500155952
 30
0.0
 40
3.999999999999995
100
AcDbArc
 50
100.5106653393304
 51
167.5000000000005
  0
ARC
  5
1BF
330
1F
100
AcDbEntity
  8
1
  6
CONTINUOUS
 62
     7
100
AcDbCircle
 10
-845.4581410800229
 20
101.3298500155953
 30
0.0
 40
3.999999999999995
100
AcDbArc
 50
100.5106653393304
 51
167.5000000000009
  0
ARC
  5
1C0
330
1F
100
AcDbEntity
  8
1
  6
CONTINUOUS
 62
     7
100
AcDbCircle
 10
-713.458141080023
 20
101.3298500155952
 30
0.0
 40
3.999999999999995
100
AcDbArc
 50
100.5106653393304
 51
167.500000000001
  0
LINE
  5
1C1
330
1F
100
AcDbEntity
  8
1
  6
CONTINUOUS
 62
   253
100
AcDbLine
 10
465.9376658348638
 20
97.84999999999994
 30
0.0
 11
465.9376658348638
 21
97.84788235115477
 31
0.0
  0
ARC
  5
1C2
330
1F
100
AcDbEntity
  8
1
  6
CONTINUOUS
 62
     7
100
AcDbCircle
 10
-335.9231660113929
 20
-22.14999999999998
 30
0.0
 40
35.0
100
AcDbArc
 50
259.4893346606696
 51
280.5106653393303
  0
LINE
  5
1C3
330
1F
100
AcDbEntity
  8
1
  6
CONTINUOUS
 62
     7
100
AcDbLine
 10
-587.8637056341046
 20
-42.21712077212418
 30
0.0
 11
-585.3633251085027
 21
-53.49560847134762
 31
0.0
  0
ARC
  5
1C4
330
1F
100
AcDbEntity
  8
1
  6
CONTINUOUS
 62
     7
100
AcDbCircle
 10
35.95683398860711
 20
70.84999999999995
 30
0.0
 40
34.99999999999999
100
AcDbArc
 50
79.48933466066954
 51
100.5106653393304
  0
LINE
  5
1C5
330
1F
100
AcDbEntity
  8
1
  6
CONTINUOUS
 62
   253
100
AcDbLine
 10
388.3292534555625
 20
110.6605386946385
 30
0.0
 11
388.3292534555625
 21
101.4461513992955
 31
0.0
  0
ARC
  5
1C6
330
1F
100
AcDbEntity
  8
1
  6
CONTINUOUS
 62
     7
100
AcDbCircle
 10
87.94370235165549
 20
91.34999999999995
 30
0.0
 40
1.999999999999995
100
AcDbArc
 50
270.0
 51
347.5000000000002
  0
ARC
  5
1C7
330
1F
100
AcDbEntity
  8
1
  6
CONTINUOUS
 62
     7
100
AcDbCircle
 10
-570.1481909427629
 20
-52.62985001559498
 30
0.0
 40
3.999999999999995
100
AcDbArc
 50
280.5106653393304
 51
347.500000000001
  0
ARC
  5
1C8
330
1F
100
AcDbEntity
  8
1
  6
CONTINUOUS
 62
     7
100
AcDbCircle
 10
-250.9362976483445
 20
91.34999999999997
 30
0.0
 40
2.00000000000004
100
AcDbArc
 50
270.0
 51
347.5000000000013
  0
LINE
  5
1C9
330
1F
100
AcDbEntity
  8
1
  6
CONTINUOUS
 62
     7
100
AcDbLine
 10
285.3969930857171
 20
-53.49560847134748
 30
0.0
 11
287.897373611319
 21
-42.21712077212373
 31
0.0
  0
ARC
  5
1CA
330
1F
100
AcDbEntity
  8
1
  6
CONTINUOUS
 62
     7
100
AcDbCircle
 10
-269.9231660113928
 20
70.84999999999997
 30
0.0
 40
34.99999999999999
100
AcDbArc
 50
79.48933466066963
 51
100.5106653393304
  0
LINE
  5
1CB
330
1F
100
AcDbEntity
  8
1
  6
CONTINUOUS
 62
     7
100
AcDbLine
 10
115.9699656255588
 20
-40.65000000000004
 30
0.0
 11
120.9437023516555
 21
-40.65000000000004
 31
0.0
  0
ARC
  5
1CC
330
1F
100
AcDbEntity
  8
1
  6
CONTINUOUS
 62
     7
100
AcDbCircle
 10
209.8368339886073
 20
-22.14999999999998
 30
0.0
 40
35.00000000000001
100
AcDbArc
 50
259.4893346606696
 51
280.5106653393304
  0
LINE
  5
1CD
330
1F
100
AcDbEntity
  8
1
  6
CONTINUOUS
 62
     7
100
AcDbLine
 10
92.39667489149727
 20
102.1956084713476
 30
0.0
 11
89.89629436589536
 21
90.91712077212391
 31
0.0
  0
ARC
  5
1CE
330
1F
100
AcDbEntity
  8
1
  6
CONTINUOUS
 62
     7
100
AcDbCircle
 10
-647.4581410800232
 20
-52.62985001559495
 30
0.0
 40
4.000000000000092
100
AcDbArc
 50
192.4999999999996
 51
259.4893346606697
  0
ARC
  5
1CF
330
1F
100
AcDbEntity
  8
1
  6
CONTINUOUS
 62
     7
100
AcDbCircle
 10
-735.1481909427628
 20
101.3298500155952
 30
0.0
 40
4.000000000000092
100
AcDbArc
 50
12.49999999999959
 51
79.48933466066964
  0
ARC
  5
1D0
330
1F
100
AcDbEntity
  8
1
  6
CONTINUOUS
 62
     7
100
AcDbCircle
 10
-581.4581410800231
 20
101.3298500155952
 30
0.0
 40
3.999999999999995
100
AcDbArc
 50
100.5106653393304
 51
167.5000000000003
  0
ARC
  5
1D1
330
1F
100
AcDbEntity
  8
1
  6
CONTINUOUS
 62
     7
100
AcDbCircle
 10
-603.1481909427629
 20
-52.62985001559497
 30
0.0
 40
3.999999999999995
100
AcDbArc
 50
280.5106653393304
 51
347.500000000001
  0
ARC
  5
1D2
330
1F
100
AcDbEntity
  8
1
  6
CONTINUOUS
 62
     7
100
AcDbCircle
 10
-429.2681909427627
 20
101.3298500155951
 30
0.0
 40
3.999999999999984
100
AcDbArc
 50
12.49999999999953
 51
79.48933466066964
  0
LINE
  5
1D3
330
1F
100
AcDbEntity
  8
1
  6
CONTINUOUS
 62
     7
100
AcDbLine
 10
299.2766748914974
 20
102.1956084713475
 30
0.0
 11
296.7762943658954
 21
90.91712077212372
 31
0.0
  0
LINE
  5
1D4
330
1F
100
AcDbEntity
  8
1
  6
CONTINUOUS
 62
   253
100
AcDbLine
 10
388.3292534555636
 20
-52.74615139929553
 30
0.0
 11
388.3292534555637
 21
-61.96053869463852
 31
0.0
  0
LINE
  5
1D5
330
1F
100
AcDbEntity
  8
1
  6
CONTINUOUS
 62
     7
100
AcDbLine
 10
155.897373611319
 20
90.91712077212391
 30
0.0
 11
153.3969930857171
 21
102.1956084713476
 31
0.0
  0
LINE
  5
1D6
330
1F
100
AcDbEntity
  8
1
  6
CONTINUOUS
 62
   253
100
AcDbLine
 10
558.3444145216519
 20
110.6605386946385
 30
0.0
 11
558.3444145216519
 21
101.4461513992955
 31
0.0
  0
LINE
  5
1D7
330
1F
100
AcDbEntity
  8
1
  6
CONTINUOUS
 62
     7
100
AcDbLine
 10
129.8237023516556
 20
89.35
 30
0.0
 11
124.8499656255589
 21
89.35
 31
0.0
  0
LINE
  5
1D8
330
1F
100
AcDbEntity
  8
1
  6
CONTINUOUS
 62
     7
100
AcDbLine
 10
296.7762943658954
 20
-42.21712077212373
 30
0.0
 11
299.2766748914974
 21
-53.49560847134748
 31
0.0
  0
LINE
  5
1D9
330
1F
100
AcDbEntity
  8
1
  6
CONTINUOUS
 62
     7
100
AcDbLine
 10
120.9437023516555
 20
89.34999999999995
 30
0.0
 11
115.9699656255588
 21
89.34999999999995
 31
0.0
  0
LINE
  5
1DA
330
1F
100
AcDbEntity
  8
1
  6
CONTINUOUS
 62
   253
100
AcDbLine
 10
558.3444145216508
 20
-52.74615139929553
 30
0.0
 11
558.3444145216507
 21
-61.96053869463852
 31
0.0
  0
LINE
  5
1DB
330
1F
100
AcDbEntity
  8
1
  6
CONTINUOUS
 62
     7
100
AcDbLine
 10
153.3969930857171
 20
-53.49560847134761
 30
0.0
 11
155.897373611319
 21
-42.21712077212391
 31
0.0
  0
LINE
  5
1DC
330
1F
100
AcDbEntity
  8
1
  6
CONTINUOUS
 62
   253
100
AcDbLine
 10
481.2189650554951
 20
98.21846215131792
 30
0.0
 11
481.2189650554951
 21
98.22059047744875
 31
0.0
  0
LINE
  5
1DD
330
1F
100
AcDbEntity
  8
1
  6
CONTINUOUS
 62
     7
100
AcDbLine
 10
89.89629436589536
 20
-42.21712077212391
 30
0.0
 11
92.39667489149727
 21
-53.49560847134761
 31
0.0
  0
ARC
  5
1DE
330
1F
100
AcDbEntity
  8
1
  6
CONTINUOUS
 62
     7
100
AcDbCircle
 10
-614.4581410800231
 20
101.3298500155952
 30
0.0
 40
3.999999999999995
100
AcDbArc
 50
100.5106653393304
 51
167.500000000001
  0
ARC
  5
1DF
330
1F
100
AcDbEntity
  8
1
  6
CONTINUOUS
 62
     7
100
AcDbCircle
 10
157.8499656255589
 20
-42.65
 30
0.0
 40
1.999999999999995
100
AcDbArc
 50
90.0
 51
167.5000000000001
  0
LINE
  5
1E0
330
1F
100
AcDbEntity
  8
1
  6
CONTINUOUS
 62
     7
100
AcDbLine
 10
287.897373611319
 20
90.91712077212372
 30
0.0
 11
285.396993085717
 21
102.1956084713475
 31
0.0
  0
ARC
  5
1E1
330
1F
100
AcDbEntity
  8
1
  6
CONTINUOUS
 62
     7
100
AcDbCircle
 10
-440.5781410800229
 20
101.3298500155951
 30
0.0
 40
3.999999999999995
100
AcDbArc
 50
100.5106653393304
 51
167.5000000000001
  0
ARC
  5
1E2
330
1F
100
AcDbEntity
  8
1
  6
CONTINUOUS
 62
     7
100
AcDbCircle
 10
-845.4581410800229
 20
-52.62985001559488
 30
0.0
 40
4.000000000000083
100
AcDbArc
 50
192.4999999999987
 51
259.4893346606696
  0
ARC
  5
1E3
330
1F
100
AcDbEntity
  8
1
  6
CONTINUOUS
 62
     7
100
AcDbCircle
 10
176.8368339886072
 20
70.84999999999998
 30
0.0
 40
35.0
100
AcDbArc
 50
79.48933466066963
 51
100.5106653393303
  0
LINE
  5
1E4
330
1F
100
AcDbEntity
  8
1
  6
CONTINUOUS
 62
   253
100
AcDbLine
 10
465.4547029217193
 20
98.21846215131792
 30
0.0
 11
465.4547029217193
 21
98.22059047744875
 31
0.0
  0
ARC
  5
1E5
330
1F
100
AcDbEntity
  8
1
  6
CONTINUOUS
 62
     7
100
AcDbCircle
 10
35.95683398860711
 20
-22.15000000000002
 30
0.0
 40
34.99999999999999
100
AcDbArc
 50
259.4893346606696
 51
280.5106653393304
  0
LINE
  5
1E6
330
1F
100
AcDbEntity
  8
1
  6
CONTINUOUS
 62
     7
100
AcDbLine
 10
124.8499656255589
 20
-40.65
 30
0.0
 11
129.8237023516556
 21
-40.65
 31
0.0
  0
ARC
  5
1E7
330
1F
100
AcDbEntity
  8
1
  6
CONTINUOUS
 62
     7
100
AcDbCircle
 10
68.95683398860713
 20
70.84999999999995
 30
0.0
 40
35.00000000000001
100
AcDbArc
 50
79.48933466066963
 51
100.5106653393304
  0
LINE
  5
1E8
330
1F
100
AcDbEntity
  8
1
  6
CONTINUOUS
 62
   253
100
AcDbLine
 10
481.2189650554951
 20
-49.52059047744876
 30
0.0
 11
481.2189650554951
 21
-49.51846215131792
 31
0.0
  0
ARC
  5
1E9
330
1F
100
AcDbEntity
  8
1
  6
CONTINUOUS
 62
     7
100
AcDbCircle
 10
242.8368339886072
 20
-22.14999999999998
 30
0.0
 40
35.0
100
AcDbArc
 50
259.4893346606696
 51
280.5106653393303
  0
ARC
  5
1EA
330
1F
100
AcDbEntity
  8
1
  6
CONTINUOUS
 62
     7
100
AcDbCircle
 10
341.8368339886072
 20
70.84999999999998
 30
0.0
 40
35.0
100
AcDbArc
 50
79.48933466066963
 51
100.5106653393303
  0
ARC
  5
1EB
330
1F
100
AcDbEntity
  8
1
  6
CONTINUOUS
 62
     7
100
AcDbCircle
 10
-812.458141080023
 20
101.3298500155953
 30
0.0
 40
3.999999999999995
100
AcDbArc
 50
100.5106653393304
 51
167.500000000001
  0
LINE
  5
1EC
330
1F
100
AcDbEntity
  8
1
  6
CONTINUOUS
 62
     7
100
AcDbLine
 10
-585.3633251085027
 20
102.1956084713481
 30
0.0
 11
-587.8637056341046
 21
90.91712077212465
 31
0.0
  0
LINE
  5
1ED
330
1F
100
AcDbEntity
  8
1
  6
CONTINUOUS
 62
   253
100
AcDbLine
 10
465.4547029217193
 20
-49.52059047744876
 30
0.0
 11
465.4547029217193
 21
-49.51846215131792
 31
0.0
  0
ARC
  5
1EE
330
1F
100
AcDbEntity
  8
1
  6
CONTINUOUS
 62
     7
100
AcDbCircle
 10
-779.4581410800231
 20
-52.6298500155949
 30
0.0
 40
4.000000000000092
100
AcDbArc
 50
192.4999999999996
 51
259.4893346606697
  0
ARC
  5
1EF
330
1F
100
AcDbEntity
  8
1
  6
CONTINUOUS
 62
     7
100
AcDbCircle
 10
-200.698141080023
 20
-52.62985001559508
 30
0.0
 40
3.99999999999999
100
AcDbArc
 50
192.4999999999999
 51
259.4893346606697
  0
ARC
  5
1F0
330
1F
100
AcDbEntity
  8
1
  6
CONTINUOUS
 62
     7
100
AcDbCircle
 10
-812.458141080023
 20
-52.62985001559488
 30
0.0
 40
4.000000000000085
100
AcDbArc
 50
192.4999999999989
 51
259.4893346606696
  0
ARC
  5
1F1
330
1F
100
AcDbEntity
  8
1
  6
CONTINUOUS
 62
     7
100
AcDbCircle
 10
-429.2681909427627
 20
-52.62985001559507
 30
0.0
 40
3.999999999999995
100
AcDbArc
 50
280.5106653393304
 51
347.5000000000005
  0
ARC
  5
1F2
330
1F
100
AcDbEntity
  8
1
  6
CONTINUOUS
 62
     7
100
AcDbCircle
 10
-407.5781410800229
 20
-52.62985001559507
 30
0.0
 40
3.99999999999999
100
AcDbArc
 50
192.4999999999999
 51
259.4893346606697
  0
ARC
  5
1F3
330
1F
100
AcDbEntity
  8
1
  6
CONTINUOUS
 62
     7
100
AcDbCircle
 10
-462.2681909427627
 20
101.3298500155951
 30
0.0
 40
4.000000000000098
100
AcDbArc
 50
12.49999999999991
 51
79.48933466066964
  0
ARC
  5
1F4
330
1F
100
AcDbEntity
  8
1
  6
CONTINUOUS
 62
     7
100
AcDbCircle
 10
-867.1481909427629
 20
-52.62985001559487
 30
0.0
 40
3.999999999999995
100
AcDbArc
 50
280.5106653393304
 51
347.500000000001
  0
ARC
  5
1F5
330
1F
100
AcDbEntity
  8
1
  6
CONTINUOUS
 62
     7
100
AcDbCircle
 10
-669.1481909427629
 20
-52.62985001559494
 30
0.0
 40
3.999999999999995
100
AcDbArc
 50
280.5106653393304
 51
347.500000000001
  0
ARC
  5
1F6
330
1F
100
AcDbEntity
  8
1
  6
CONTINUOUS
 62
     7
100
AcDbCircle
 10
-867.1481909427629
 20
101.3298500155953
 30
0.0
 40
4.000000000000085
100
AcDbArc
 50
12.49999999999897
 51
79.48933466066963
  0
ARC
  5
1F7
330
1F
100
AcDbEntity
  8
1
  6
CONTINUOUS
 62
     7
100
AcDbCircle
 10
-779.4581410800231
 20
101.3298500155953
 30
0.0
 40
3.999999999999995
100
AcDbArc
 50
100.5106653393304
 51
167.5000000000005
  0
ARC
  5
1F8
330
1F
100
AcDbEntity
  8
1
  6
CONTINUOUS
 62
     7
100
AcDbCircle
 10
-407.5781410800229
 20
101.3298500155951
 30
0.0
 40
3.999999999999995
100
AcDbArc
 50
100.5106653393304
 51
167.5000000000001
  0
LINE
  5
1F9
330
1F
100
AcDbEntity
  8
1
  6
CONTINUOUS
 62
   253
100
AcDbLine
 10
465.9376658348638
 20
-49.14788235115468
 30
0.0
 11
465.9376658348638
 21
-49.14999999999985
 31
0.0
  0
ARC
  5
1FA
330
1F
100
AcDbEntity
  8
1
  6
CONTINUOUS
 62
     7
100
AcDbCircle
 10
-834.1481909427627
 20
101.3298500155953
 30
0.0
 40
4.000000000000092
100
AcDbArc
 50
12.49999999999959
 51
79.48933466066964
  0
ARC
  5
1FB
330
1F
100
AcDbEntity
  8
1
  6
CONTINUOUS
 62
     7
100
AcDbCircle
 10
-123.3881909427627
 20
-52.62985001559509
 30
0.0
 40
3.999999999999995
100
AcDbArc
 50
280.5106653393304
 51
347.5000000000002
  0
ARC
  5
1FC
330
1F
100
AcDbEntity
  8
1
  6
CONTINUOUS
 62
     7
100
AcDbCircle
 10
-2.698141080022975
 20
-52.6298500155951
 30
0.0
 40
3.99999999999999
100
AcDbArc
 50
192.4999999999999
 51
259.4893346606697
  0
ARC
  5
1FD
330
1F
100
AcDbEntity
  8
1
  6
CONTINUOUS
 62
     7
100
AcDbCircle
 10
63.30185891997703
 20
-52.62985001559512
 30
0.0
 40
3.99999999999999
100
AcDbArc
 50
192.4999999999999
 51
259.4893346606697
  0
ARC
  5
1FE
330
1F
100
AcDbEntity
  8
1
  6
CONTINUOUS
 62
     7
100
AcDbCircle
 10
-200.698141080023
 20
101.3298500155951
 30
0.0
 40
3.999999999999995
100
AcDbArc
 50
100.5106653393304
 51
167.5000000000001
  0
ARC
  5
1FF
330
1F
100
AcDbEntity
  8
1
  6
CONTINUOUS
 62
     7
100
AcDbCircle
 10
-242.5781410800229
 20
101.3298500155951
 30
0.0
 40
3.999999999999995
100
AcDbArc
 50
100.5106653393304
 51
167.5000000000001
  0
ARC
  5
200
330
1F
100
AcDbEntity
  8
1
  6
CONTINUOUS
 62
     7
100
AcDbCircle
 10
-242.5781410800229
 20
-52.6298500155951
 30
0.0
 40
3.99999999999999
100
AcDbArc
 50
192.4999999999999
 51
259.4893346606697
  0
ARC
  5
201
330
1F
100
AcDbEntity
  8
1
  6
CONTINUOUS
 62
     7
100
AcDbCircle
 10
-702.1481909427628
 20
101.3298500155952
 30
0.0
 40
4.000000000000092
100
AcDbArc
 50
12.49999999999959
 51
79.48933466066964
  0
ARC
  5
202
330
1F
100
AcDbEntity
  8
1
  6
CONTINUOUS
 62
     7
100
AcDbCircle
 10
-231.2681909427627
 20
-52.6298500155951
 30
0.0
 40
3.999999999999995
100
AcDbArc
 50
280.5106653393304
 51
347.5000000000002
  0
ARC
  5
203
330
1F
100
AcDbEntity
  8
1
  6
CONTINUOUS
 62
     7
100
AcDbCircle
 10
-506.5781410800229
 20
101.3298500155951
 30
0.0
 40
3.999999999999995
100
AcDbArc
 50
100.5106653393304
 51
167.5000000000001
  0
ARC
  5
204
330
1F
100
AcDbEntity
  8
1
  6
CONTINUOUS
 62
     7
100
AcDbCircle
 10
-539.578141080023
 20
-52.62985001559504
 30
0.0
 40
4.000000000000092
100
AcDbArc
 50
192.4999999999996
 51
259.4893346606697
  0
ARC
  5
205
330
1F
100
AcDbEntity
  8
1
  6
CONTINUOUS
 62
     7
100
AcDbCircle
 10
-746.458141080023
 20
-52.62985001559491
 30
0.0
 40
4.000000000000085
100
AcDbArc
 50
192.4999999999989
 51
259.4893346606696
  0
ARC
  5
206
330
1F
100
AcDbEntity
  8
1
  6
CONTINUOUS
 62
     7
100
AcDbCircle
 10
-462.2681909427627
 20
-52.62985001559505
 30
0.0
 40
3.999999999999995
100
AcDbArc
 50
280.5106653393304
 51
347.5000000000002
  0
ARC
  5
207
330
1F
100
AcDbEntity
  8
1
  6
CONTINUOUS
 62
     7
100
AcDbCircle
 10
-528.2681909427628
 20
101.3298500155951
 30
0.0
 40
4.000000000000092
100
AcDbArc
 50
12.49999999999953
 51
79.48933466066964
  0
ARC
  5
208
330
1F
100
AcDbEntity
  8
1
  6
CONTINUOUS
 62
     7
100
AcDbCircle
 10
-581.4581410800231
 20
-52.62985001559498
 30
0.0
 40
4.000000000000092
100
AcDbArc
 50
192.4999999999993
 51
259.4893346606696
  0
ARC
  5
209
330
1F
100
AcDbEntity
  8
1
  6
CONTINUOUS
 62
     7
100
AcDbCircle
 10
-90.38819094276268
 20
-52.62985001559509
 30
0.0
 40
3.999999999999995
100
AcDbArc
 50
280.5106653393304
 51
347.4999999999997
  0
ARC
  5
20A
330
1F
100
AcDbEntity
  8
1
  6
CONTINUOUS
 62
     7
100
AcDbCircle
 10
-297.2681909427627
 20
101.3298500155951
 30
0.0
 40
3.99999999999999
100
AcDbArc
 50
12.49999999999991
 51
79.48933466066964
  0
ARC
  5
20B
330
1F
100
AcDbEntity
  8
1
  6
CONTINUOUS
 62
     7
100
AcDbCircle
 10
-90.38819094276268
 20
101.3298500155951
 30
0.0
 40
3.999999999999995
100
AcDbArc
 50
12.50000000000027
 51
79.4893346606696
  0
ARC
  5
20C
330
1F
100
AcDbEntity
  8
1
  6
CONTINUOUS
 62
     7
100
AcDbCircle
 10
-396.2681909427627
 20
101.3298500155951
 30
0.0
 40
3.99999999999999
100
AcDbArc
 50
12.49999999999991
 51
79.48933466066964
  0
ARC
  5
20D
330
1F
100
AcDbEntity
  8
1
  6
CONTINUOUS
 62
     7
100
AcDbCircle
 10
-603.1481909427629
 20
101.3298500155952
 30
0.0
 40
4.000000000000085
100
AcDbArc
 50
12.49999999999897
 51
79.48933466066963
  0
ARC
  5
20E
330
1F
100
AcDbEntity
  8
1
  6
CONTINUOUS
 62
     7
100
AcDbCircle
 10
-495.2681909427627
 20
101.3298500155951
 30
0.0
 40
3.999999999999881
100
AcDbArc
 50
12.49999999999991
 51
79.48933466066964
  0
ARC
  5
20F
330
1F
100
AcDbEntity
  8
1
  6
CONTINUOUS
 62
     7
100
AcDbCircle
 10
-801.1481909427628
 20
101.3298500155953
 30
0.0
 40
4.000000000000092
100
AcDbArc
 50
12.49999999999959
 51
79.48933466066964
  0
ARC
  5
210
330
1F
100
AcDbEntity
  8
1
  6
CONTINUOUS
 62
     7
100
AcDbCircle
 10
-680.4581410800231
 20
-52.62985001559494
 30
0.0
 40
4.000000000000092
100
AcDbArc
 50
192.4999999999996
 51
259.4893346606697
  0
ARC
  5
211
330
1F
100
AcDbEntity
  8
1
  6
CONTINUOUS
 62
     7
100
AcDbCircle
 10
-669.1481909427629
 20
101.3298500155952
 30
0.0
 40
4.000000000000085
100
AcDbArc
 50
12.49999999999897
 51
79.48933466066963
  0
ARC
  5
212
330
1F
100
AcDbEntity
  8
1
  6
CONTINUOUS
 62
     7
100
AcDbCircle
 10
-834.1481909427627
 20
-52.62985001559488
 30
0.0
 40
3.999999999999995
100
AcDbArc
 50
280.5106653393304
 51
347.5000000000004
  0
ARC
  5
213
330
1F
100
AcDbEntity
  8
1
  6
CONTINUOUS
 62
     7
100
AcDbCircle
 10
-495.2681909427627
 20
-52.62985001559504
 30
0.0
 40
3.999999999999995
100
AcDbArc
 50
280.5106653393304
 51
347.5000000000002
  0
ARC
  5
214
330
1F
100
AcDbEntity
  8
1
  6
CONTINUOUS
 62
     7
100
AcDbCircle
 10
-614.4581410800231
 20
-52.62985001559497
 30
0.0
 40
4.000000000000085
100
AcDbArc
 50
192.4999999999989
 51
259.4893346606696
  0
ARC
  5
215
330
1F
100
AcDbEntity
  8
1
  6
CONTINUOUS
 62
     7
100
AcDbCircle
 10
-713.458141080023
 20
-52.62985001559493
 30
0.0
 40
4.000000000000085
100
AcDbArc
 50
192.4999999999989
 51
259.4893346606696
  0
ARC
  5
216
330
1F
100
AcDbEntity
  8
1
  6
CONTINUOUS
 62
     7
100
AcDbCircle
 10
-440.5781410800229
 20
-52.62985001559505
 30
0.0
 40
3.99999999999999
100
AcDbArc
 50
192.4999999999999
 51
259.4893346606697
  0
ARC
  5
217
330
1F
100
AcDbEntity
  8
1
  6
CONTINUOUS
 62
     7
100
AcDbCircle
 10
-768.1481909427629
 20
101.3298500155952
 30
0.0
 40
4.000000000000085
100
AcDbArc
 50
12.49999999999897
 51
79.48933466066963
  0
ARC
  5
218
330
1F
100
AcDbEntity
  8
1
  6
CONTINUOUS
 62
     7
100
AcDbCircle
 10
-539.578141080023
 20
101.3298500155951
 30
0.0
 40
3.999999999999995
100
AcDbArc
 50
100.5106653393304
 51
167.5000000000005
  0
ARC
  5
219
330
1F
100
AcDbEntity
  8
1
  6
CONTINUOUS
 62
     7
100
AcDbCircle
 10
-506.5781410800229
 20
-52.62985001559504
 30
0.0
 40
4.000000000000098
100
AcDbArc
 50
192.4999999999999
 51
259.4893346606697
  0
ARC
  5
21A
330
1F
100
AcDbEntity
  8
1
  6
CONTINUOUS
 62
     7
100
AcDbCircle
 10
-167.698141080023
 20
-52.62985001559509
 30
0.0
 40
3.999999999999986
100
AcDbArc
 50
192.4999999999997
 51
259.4893346606696
  0
ARC
  5
21B
330
1F
100
AcDbEntity
  8
1
  6
CONTINUOUS
 62
     7
100
AcDbCircle
 10
-473.5781410800229
 20
101.3298500155951
 30
0.0
 40
3.999999999999995
100
AcDbArc
 50
100.5106653393304
 51
167.5000000000005
  0
ARC
  5
21C
330
1F
100
AcDbEntity
  8
1
  6
CONTINUOUS
 62
     7
100
AcDbCircle
 10
-878.4581410800231
 20
-52.62985001559487
 30
0.0
 40
4.000000000000092
100
AcDbArc
 50
192.4999999999996
 51
259.4893346606697
  0
LINE
  5
21D
330
1F
100
AcDbEntity
  8
1
  6
CONTINUOUS
 62
   253
100
AcDbLine
 10
480.7360021423506
 20
-49.14788235115468
 30
0.0
 11
480.7360021423506
 21
-49.14999999999985
 31
0.0
  0
ARC
  5
21E
330
1F
100
AcDbEntity
  8
1
  6
CONTINUOUS
 62
     7
100
AcDbCircle
 10
-275.5781410800229
 20
101.3298500155951
 30
0.0
 40
3.999999999999995
100
AcDbArc
 50
100.5106653393304
 51
167.5000000000001
  0
ARC
  5
21F
330
1F
100
AcDbEntity
  8
1
  6
CONTINUOUS
 62
     7
100
AcDbCircle
 10
-297.2681909427627
 20
-52.62985001559509
 30
0.0
 40
3.999999999999995
100
AcDbArc
 50
280.5106653393304
 51
347.5000000000002
  0
ARC
  5
220
330
1F
100
AcDbEntity
  8
1
  6
CONTINUOUS
 62
     7
100
AcDbCircle
 10
-801.1481909427628
 20
-52.6298500155949
 30
0.0
 40
3.999999999999995
100
AcDbArc
 50
280.5106653393304
 51
347.5000000000004
  0
ARC
  5
221
330
1F
100
AcDbEntity
  8
1
  6
CONTINUOUS
 62
     7
100
AcDbCircle
 10
-396.2681909427627
 20
-52.62985001559507
 30
0.0
 40
3.999999999999995
100
AcDbArc
 50
280.5106653393304
 51
347.5000000000002
  0
ARC
  5
222
330
1F
100
AcDbEntity
  8
1
  6
CONTINUOUS
 62
     7
100
AcDbCircle
 10
-330.2681909427628
 20
-52.62985001559508
 30
0.0
 40
3.999999999999995
100
AcDbArc
 50
280.5106653393304
 51
347.5000000000005
  0
ARC
  5
223
330
1F
100
AcDbEntity
  8
1
  6
CONTINUOUS
 62
     7
100
AcDbCircle
 10
-570.1481909427629
 20
101.3298500155952
 30
0.0
 40
4.000000000000085
100
AcDbArc
 50
12.49999999999897
 51
79.48933466066963
  0
ARC
  5
224
330
1F
100
AcDbEntity
  8
1
  6
CONTINUOUS
 62
     7
100
AcDbCircle
 10
-735.1481909427628
 20
-52.62985001559493
 30
0.0
 40
3.999999999999995
100
AcDbArc
 50
280.5106653393304
 51
347.5000000000004
  0
ARC
  5
225
330
1F
100
AcDbEntity
  8
1
  6
CONTINUOUS
 62
     7
100
AcDbCircle
 10
-330.2681909427628
 20
101.3298500155951
 30
0.0
 40
3.999999999999984
100
AcDbArc
 50
12.49999999999953
 51
79.48933466066964
  0
ARC
  5
226
330
1F
100
AcDbEntity
  8
1
  6
CONTINUOUS
 62
     7
100
AcDbCircle
 10
-746.458141080023
 20
101.3298500155952
 30
0.0
 40
3.999999999999995
100
AcDbArc
 50
100.5106653393304
 51
167.500000000001
  0
ARC
  5
227
330
1F
100
AcDbEntity
  8
1
  6
CONTINUOUS
 62
     7
100
AcDbCircle
 10
-636.1481909427628
 20
-52.62985001559495
 30
0.0
 40
3.999999999999995
100
AcDbArc
 50
280.5106653393304
 51
347.5000000000004
  0
ARC
  5
228
330
1F
100
AcDbEntity
  8
1
  6
CONTINUOUS
 62
     7
100
AcDbCircle
 10
-341.578141080023
 20
-52.62985001559508
 30
0.0
 40
3.999999999999995
100
AcDbArc
 50
192.5000000000003
 51
259.4893346606696
  0
ARC
  5
229
330
1F
100
AcDbEntity
  8
1
  6
CONTINUOUS
 62
     7
100
AcDbCircle
 10
8.61180905723724
 20
-52.6298500155951
 30
0.0
 40
3.999999999999995
100
AcDbArc
 50
280.5106653393304
 51
347.5000000000003
  0
ARC
  5
22A
330
1F
100
AcDbEntity
  8
1
  6
CONTINUOUS
 62
     7
100
AcDbCircle
 10
74.61180905723724
 20
101.329850015595
 30
0.0
 40
3.99999999999999
100
AcDbArc
 50
12.49999999999991
 51
79.48933466066964
  0
ARC
  5
22B
330
1F
100
AcDbEntity
  8
1
  6
CONTINUOUS
 62
     7
100
AcDbCircle
 10
-35.69814108002295
 20
-52.6298500155951
 30
0.0
 40
3.99999999999999
100
AcDbArc
 50
192.4999999999999
 51
259.4893346606697
  0
ARC
  5
22C
330
1F
100
AcDbEntity
  8
1
  6
CONTINUOUS
 62
     7
100
AcDbCircle
 10
30.301858919977
 20
-52.6298500155951
 30
0.0
 40
3.99999999999999
100
AcDbArc
 50
192.4999999999999
 51
259.4893346606697
  0
ARC
  5
22D
330
1F
100
AcDbEntity
  8
1
  6
CONTINUOUS
 62
     7
100
AcDbCircle
 10
-35.69814108002295
 20
101.3298500155951
 30
0.0
 40
3.999999999999995
100
AcDbArc
 50
100.5106653393304
 51
167.5000000000001
  0
ARC
  5
22E
330
1F
100
AcDbEntity
  8
1
  6
CONTINUOUS
 62
     7
100
AcDbCircle
 10
-134.6981410800229
 20
101.3298500155951
 30
0.0
 40
3.999999999999995
100
AcDbArc
 50
100.5106653393304
 51
167.5000000000001
  0
ARC
  5
22F
330
1F
100
AcDbEntity
  8
1
  6
CONTINUOUS
 62
     7
100
AcDbCircle
 10
8.61180905723724
 20
101.3298500155951
 30
0.0
 40
3.999999999999986
100
AcDbArc
 50
12.49999999999971
 51
79.48933466066963
  0
ARC
  5
230
330
1F
100
AcDbEntity
  8
1
  6
CONTINUOUS
 62
     7
100
AcDbCircle
 10
-264.2681909427627
 20
-52.62985001559509
 30
0.0
 40
3.999999999999995
100
AcDbArc
 50
280.5106653393304
 51
347.4999999999998
  0
LINE
  5
231
330
1F
100
AcDbEntity
  8
1
  6
CONTINUOUS
 62
     7
100
AcDbLine
 10
-444.4833251085027
 20
102.1956084713475
 30
0.0
 11
-446.9837056341047
 21
90.91712077212352
 31
0.0
  0
LINE
  5
232
330
1F
100
AcDbEntity
  8
1
  6
CONTINUOUS
 62
     7
100
AcDbLine
 10
-620.8637056341047
 20
-42.21712077212316
 30
0.0
 11
-618.3633251085029
 21
-53.49560847134662
 31
0.0
  0
ARC
  5
233
330
1F
100
AcDbEntity
  8
1
  6
CONTINUOUS
 62
     7
100
AcDbCircle
 10
-858.7900343744413
 20
91.35000000000021
 30
0.0
 40
2.000000000000002
100
AcDbArc
 50
192.500000000001
 51
270.0
  0
LINE
  5
234
330
1F
100
AcDbEntity
  8
1
  6
CONTINUOUS
 62
     7
100
AcDbLine
 10
-860.7426263886812
 20
90.91712077212348
 30
0.0
 11
-863.243006914283
 21
102.1956084713469
 31
0.0
  0
LINE
  5
235
330
1F
100
AcDbEntity
  8
1
  6
CONTINUOUS
 62
     7
100
AcDbLine
 10
351.396993085717
 20
-53.49560847134748
 30
0.0
 11
353.897373611319
 21
-42.21712077212371
 31
0.0
  0
LINE
  5
236
330
1F
100
AcDbEntity
  8
1
  6
CONTINUOUS
 62
     7
100
AcDbLine
 10
15.01737361131894
 20
90.9171207721236
 30
0.0
 11
12.51699308571702
 21
102.1956084713473
 31
0.0
  0
LINE
  5
237
330
1F
100
AcDbEntity
  8
1
  6
CONTINUOUS
 62
     7
100
AcDbLine
 10
-149.982626388681
 20
90.91712077212335
 30
0.0
 11
-152.483006914283
 21
102.1956084713473
 31
0.0
  0
LINE
  5
238
330
1F
100
AcDbEntity
  8
1
  6
CONTINUOUS
 62
     7
100
AcDbLine
 10
114.0173736113189
 20
90.91712077212377
 30
0.0
 11
111.516993085717
 21
102.1956084713474
 31
0.0
  0
LINE
  5
239
330
1F
100
AcDbEntity
  8
1
  6
CONTINUOUS
 62
     7
100
AcDbLine
 10
-545.9837056341047
 20
-42.21712077212298
 30
0.0
 11
-543.4833251085026
 21
-53.49560847134737
 31
0.0
  0
ARC
  5
23A
330
1F
100
AcDbEntity
  8
1
  6
CONTINUOUS
 62
     7
100
AcDbCircle
 10
-401.9231660113928
 20
-22.14999999999997
 30
0.0
 40
35.0
100
AcDbArc
 50
259.4893346606696
 51
280.5106653393303
  0
LINE
  5
23B
330
1F
100
AcDbEntity
  8
1
  6
CONTINUOUS
 62
     7
100
AcDbLine
 10
-479.9837056341046
 20
-42.2171207721238
 30
0.0
 11
-477.4833251085028
 21
-53.49560847134725
 31
0.0
  0
LINE
  5
23C
330
1F
100
AcDbEntity
  8
1
  6
CONTINUOUS
 62
     7
100
AcDbLine
 10
59.39667489149731
 20
102.1956084713476
 30
0.0
 11
56.89629436589533
 21
90.91712077212365
 31
0.0
  0
LINE
  5
23D
330
1F
100
AcDbEntity
  8
1
  6
CONTINUOUS
 62
     7
100
AcDbLine
 10
111.516993085717
 20
-53.49560847134755
 30
0.0
 11
114.0173736113189
 21
-42.21712077212392
 31
0.0
  0
LINE
  5
23E
330
1F
100
AcDbEntity
  8
1
  6
CONTINUOUS
 62
     7
100
AcDbLine
 10
134.2766748914974
 20
102.1956084713475
 30
0.0
 11
131.7762943658954
 21
90.91712077212385
 31
0.0
  0
LINE
  5
23F
330
1F
100
AcDbEntity
  8
1
  6
CONTINUOUS
 62
     7
100
AcDbLine
 10
200.2766748914974
 20
102.1956084713476
 30
0.0
 11
197.7762943658954
 21
90.91712077212391
 31
0.0
  0
LINE
  5
240
330
1F
100
AcDbEntity
  8
1
  6
CONTINUOUS
 62
     7
100
AcDbLine
 10
-566.2430069142831
 20
-53.49560847134748
 30
0.0
 11
-563.7426263886812
 21
-42.2171207721241
 31
0.0
  0
LINE
  5
241
330
1F
100
AcDbEntity
  8
1
  6
CONTINUOUS
 62
     7
100
AcDbLine
 10
-563.7426263886812
 20
90.9171207721241
 30
0.0
 11
-566.2430069142831
 21
102.1956084713475
 31
0.0
  0
LINE
  5
242
330
1F
100
AcDbEntity
  8
1
  6
CONTINUOUS
 62
     7
100
AcDbLine
 10
-105.6033251085027
 20
102.1956084713474
 30
0.0
 11
-108.1037056341046
 21
90.91712077212394
 31
0.0
  0
ARC
  5
243
330
1F
100
AcDbEntity
  8
1
  6
CONTINUOUS
 62
     7
100
AcDbCircle
 10
-839.803166011393
 20
-22.14999999999978
 30
0.0
 40
34.99999999999999
100
AcDbArc
 50
259.48933466067
 51
280.5106653393308
  0
ARC
  5
244
330
1F
100
AcDbEntity
  8
1
  6
CONTINUOUS
 62
     7
100
AcDbCircle
 10
-30.04316601139284
 20
-22.15
 30
0.0
 40
35.00000000000001
100
AcDbArc
 50
259.4893346606696
 51
280.5106653393304
  0
LINE
  5
245
330
1F
100
AcDbEntity
  8
1
  6
CONTINUOUS
 62
     7
100
AcDbLine
 10
-279.4833251085026
 20
102.1956084713474
 30
0.0
 11
-281.9837056341046
 21
90.91712077212348
 31
0.0
  0
LINE
  5
246
330
1F
100
AcDbEntity
  8
1
  6
CONTINUOUS
 62
     7
100
AcDbLine
 10
233.2766748914974
 20
102.1956084713475
 30
0.0
 11
230.7762943658954
 21
90.91712077212365
 31
0.0
  0
LINE
  5
247
330
1F
100
AcDbEntity
  8
1
  6
CONTINUOUS
 62
     7
100
AcDbLine
 10
-108.1037056341046
 20
-42.21712077212388
 30
0.0
 11
-105.6033251085027
 21
-53.49560847134733
 31
0.0
  0
LINE
  5
248
330
1F
100
AcDbEntity
  8
1
  6
CONTINUOUS
 62
     7
100
AcDbLine
 10
-665.243006914283
 20
-53.49560847134686
 30
0.0
 11
-662.7426263886812
 21
-42.21712077212339
 31
0.0
  0
ARC
  5
249
330
1F
100
AcDbEntity
  8
1
  6
CONTINUOUS
 62
     7
100
AcDbCircle
 10
-63.04316601139287
 20
-22.15
 30
0.0
 40
35.00000000000001
100
AcDbArc
 50
259.4893346606696
 51
280.5106653393304
  0
LINE
  5
24A
330
1F
100
AcDbEntity
  8
1
  6
CONTINUOUS
 62
     7
100
AcDbLine
 10
-543.4833251085026
 20
102.1956084713476
 30
0.0
 11
-545.9837056341047
 21
90.91712077212321
 31
0.0
  0
ARC
  5
24B
330
1F
100
AcDbEntity
  8
1
  6
CONTINUOUS
 62
     7
100
AcDbCircle
 10
-30.04316601139284
 20
70.84999999999997
 30
0.0
 40
34.99999999999999
100
AcDbArc
 50
79.48933466066963
 51
100.5106653393304
  0
LINE
  5
24C
330
1F
100
AcDbEntity
  8
1
  6
CONTINUOUS
 62
     7
100
AcDbLine
 10
45.51699308571699
 20
-53.49560847134767
 30
0.0
 11
48.01737361131892
 21
-42.21712077212398
 31
0.0
  0
LINE
  5
24D
330
1F
100
AcDbEntity
  8
1
  6
CONTINUOUS
 62
     7
100
AcDbLine
 10
-224.8626263886811
 20
90.917120772124
 30
0.0
 11
-227.3630069142829
 21
102.1956084713474
 31
0.0
  0
ARC
  5
24E
330
1F
100
AcDbEntity
  8
1
  6
CONTINUOUS
 62
     7
100
AcDbCircle
 10
-839.803166011393
 20
70.8500000000002
 30
0.0
 40
35.00000000000001
100
AcDbArc
 50
79.48933466066926
 51
100.51066533933
  0
LINE
  5
24F
330
1F
100
AcDbEntity
  8
1
  6
CONTINUOUS
 62
     7
100
AcDbLine
 10
-290.8626263886811
 20
90.91712077212381
 30
0.0
 11
-293.363006914283
 21
102.1956084713478
 31
0.0
  0
ARC
  5
250
330
1F
100
AcDbEntity
  8
1
  6
CONTINUOUS
 62
     7
100
AcDbCircle
 10
-401.9231660113928
 20
70.85
 30
0.0
 40
35.0
100
AcDbArc
 50
79.48933466066963
 51
100.5106653393303
  0
LINE
  5
251
330
1F
100
AcDbEntity
  8
1
  6
CONTINUOUS
 62
     7
100
AcDbLine
 10
48.01737361131892
 20
90.91712077212384
 30
0.0
 11
45.51699308571699
 21
102.1956084713475
 31
0.0
  0
ARC
  5
252
330
1F
100
AcDbEntity
  8
1
  6
CONTINUOUS
 62
     7
100
AcDbCircle
 10
275.8368339886072
 20
70.84999999999998
 30
0.0
 40
34.99999999999999
100
AcDbArc
 50
79.48933466066968
 51
100.5106653393305
  0
LINE
  5
253
330
1F
100
AcDbEntity
  8
1
  6
CONTINUOUS
 62
     7
100
AcDbLine
 10
230.7762943658954
 20
-42.21712077212366
 30
0.0
 11
233.2766748914974
 21
-53.49560847134748
 31
0.0
  0
LINE
  5
254
330
1F
100
AcDbEntity
  8
1
  6
CONTINUOUS
 62
     7
100
AcDbLine
 10
197.7762943658954
 20
-42.21712077212391
 30
0.0
 11
200.2766748914974
 21
-53.49560847134761
 31
0.0
  0
LINE
  5
255
330
1F
100
AcDbEntity
  8
1
  6
CONTINUOUS
 62
     7
100
AcDbLine
 10
12.51699308571702
 20
-53.49560847134742
 30
0.0
 11
15.01737361131894
 21
-42.21712077212373
 31
0.0
  0
LINE
  5
256
330
1F
100
AcDbEntity
  8
1
  6
CONTINUOUS
 62
     7
100
AcDbLine
 10
-554.8631660113929
 20
-42.21955485287852
 30
0.0
 11
-554.8631660113929
 21
90.91955485287866
 31
0.0
  0
ARC
  5
257
330
1F
100
AcDbEntity
  8
1
  6
CONTINUOUS
 62
     7
100
AcDbCircle
 10
-368.9231660113928
 20
-22.14999999999997
 30
0.0
 40
35.00000000000001
100
AcDbArc
 50
259.4893346606696
 51
280.5106653393304
  0
LINE
  5
258
330
1F
100
AcDbEntity
  8
1
  6
CONTINUOUS
 62
     7
100
AcDbLine
 10
-141.1037056341046
 20
-42.21712077212388
 30
0.0
 11
-138.6033251085026
 21
-53.49560847134783
 31
0.0
  0
LINE
  5
259
330
1F
100
AcDbEntity
  8
1
  6
CONTINUOUS
 62
     7
100
AcDbLine
 10
-863.243006914283
 20
-53.49560847134678
 30
0.0
 11
-860.7426263886812
 21
-42.21712077212332
 31
0.0
  0
LINE
  5
25A
330
1F
100
AcDbEntity
  8
1
  6
CONTINUOUS
 62
     7
100
AcDbLine
 10
-215.9831660113928
 20
-42.2195548528786
 30
0.0
 11
-215.9831660113928
 21
90.91955485287859
 31
0.0
  0
LINE
  5
25B
330
1F
100
AcDbEntity
  8
1
  6
CONTINUOUS
 62
     7
100
AcDbLine
 10
56.89629436589533
 20
-42.21712077212366
 30
0.0
 11
59.39667489149731
 21
-53.49560847134761
 31
0.0
  0
LINE
  5
25C
330
1F
100
AcDbEntity
  8
1
  6
CONTINUOUS
 62
     7
100
AcDbLine
 10
-293.363006914283
 20
-53.49560847134796
 30
0.0
 11
-290.8626263886811
 21
-42.21712077212401
 31
0.0
  0
LINE
  5
25D
330
1F
100
AcDbEntity
  8
1
  6
CONTINUOUS
 62
     7
100
AcDbLine
 10
-491.363006914283
 20
-53.49560847134791
 30
0.0
 11
-488.862626388681
 21
-42.21712077212395
 31
0.0
  0
LINE
  5
25E
330
1F
100
AcDbEntity
  8
1
  6
CONTINUOUS
 62
     7
100
AcDbLine
 10
-477.4833251085028
 20
102.1956084713475
 30
0.0
 11
-479.9837056341046
 21
90.91712077212402
 31
0.0
  0
LINE
  5
25F
330
1F
100
AcDbEntity
  8
1
  6
CONTINUOUS
 62
     7
100
AcDbLine
 10
-138.6033251085026
 20
102.1956084713479
 30
0.0
 11
-141.1037056341046
 21
90.91712077212394
 31
0.0
  0
LINE
  5
260
330
1F
100
AcDbEntity
  8
1
  6
CONTINUOUS
 62
     7
100
AcDbLine
 10
-281.9837056341046
 20
-42.21712077212332
 30
0.0
 11
-279.4833251085026
 21
-53.49560847134729
 31
0.0
  0
LINE
  5
261
330
1F
100
AcDbEntity
  8
1
  6
CONTINUOUS
 62
     7
100
AcDbLine
 10
-152.483006914283
 20
-53.49560847134741
 30
0.0
 11
-149.982626388681
 21
-42.21712077212347
 31
0.0
  0
ARC
  5
262
330
1F
100
AcDbEntity
  8
1
  6
CONTINUOUS
 62
     7
100
AcDbCircle
 10
-806.8031660113929
 20
70.85000000000018
 30
0.0
 40
35.00000000000001
100
AcDbArc
 50
79.48933466066963
 51
100.5106653393304
  0
ARC
  5
263
330
1F
100
AcDbEntity
  8
1
  6
CONTINUOUS
 62
     7
100
AcDbCircle
 10
-858.7900343744413
 20
-42.64999999999979
 30
0.0
 40
1.999999999999949
100
AcDbArc
 50
90.0
 51
167.499999999999
  0
LINE
  5
264
330
1F
100
AcDbEntity
  8
1
  6
CONTINUOUS
 62
     7
100
AcDbLine
 10
-632.2430069142831
 20
-53.49560847134787
 30
0.0
 11
-629.7426263886813
 21
-42.21712077212441
 31
0.0
  0
LINE
  5
265
330
1F
100
AcDbEntity
  8
1
  6
CONTINUOUS
 62
     7
100
AcDbLine
 10
-204.6033251085027
 20
102.1956084713475
 30
0.0
 11
-207.1037056341046
 21
90.91712077212414
 31
0.0
  0
LINE
  5
266
330
1F
100
AcDbEntity
  8
1
  6
CONTINUOUS
 62
     7
100
AcDbLine
 10
353.897373611319
 20
90.91712077212371
 30
0.0
 11
351.396993085717
 21
102.1956084713475
 31
0.0
  0
LINE
  5
267
330
1F
100
AcDbEntity
  8
1
  6
CONTINUOUS
 62
     7
100
AcDbLine
 10
-326.3630069142829
 20
-53.49560847134745
 30
0.0
 11
-323.8626263886811
 21
-42.21712077212399
 31
0.0
  0
LINE
  5
268
330
1F
100
AcDbEntity
  8
1
  6
CONTINUOUS
 62
     7
100
AcDbLine
 10
-488.862626388681
 20
90.91712077212387
 30
0.0
 11
-491.363006914283
 21
102.1956084713478
 31
0.0
  0
LINE
  5
269
330
1F
100
AcDbEntity
  8
1
  6
CONTINUOUS
 62
     7
100
AcDbLine
 10
-323.8626263886811
 20
90.91712077212382
 30
0.0
 11
-326.3630069142829
 21
102.1956084713473
 31
0.0
  0
ARC
  5
26A
330
1F
100
AcDbEntity
  8
1
  6
CONTINUOUS
 62
     7
100
AcDbCircle
 10
-707.8031660113929
 20
-22.14999999999983
 30
0.0
 40
35.0
100
AcDbArc
 50
259.4893346606696
 51
280.5106653393303
  0
ARC
  5
26B
330
1F
100
AcDbEntity
  8
1
  6
CONTINUOUS
 62
     7
100
AcDbCircle
 10
275.8368339886072
 20
-22.14999999999998
 30
0.0
 40
35.00000000000001
100
AcDbArc
 50
259.4893346606696
 51
280.5106653393303
  0
LINE
  5
26C
330
1F
100
AcDbEntity
  8
1
  6
CONTINUOUS
 62
     7
100
AcDbLine
 10
-207.1037056341046
 20
-42.21712077212406
 30
0.0
 11
-204.6033251085027
 21
-53.49560847134744
 31
0.0
  0
LINE
  5
26D
330
1F
100
AcDbEntity
  8
1
  6
CONTINUOUS
 62
     7
100
AcDbLine
 10
131.7762943658954
 20
-42.21712077212386
 30
0.0
 11
134.2766748914974
 21
-53.49560847134748
 31
0.0
  0
LINE
  5
26E
330
1F
100
AcDbEntity
  8
1
  6
CONTINUOUS
 62
     7
100
AcDbLine
 10
188.897373611319
 20
90.91712077212365
 30
0.0
 11
186.396993085717
 21
102.1956084713476
 31
0.0
  0
LINE
  5
26F
330
1F
100
AcDbEntity
  8
1
  6
CONTINUOUS
 62
     7
100
AcDbLine
 10
186.396993085717
 20
-53.49560847134761
 30
0.0
 11
188.897373611319
 21
-42.21712077212366
 31
0.0
  0
LINE
  5
270
330
1F
100
AcDbEntity
  8
1
  6
CONTINUOUS
 62
     7
100
AcDbLine
 10
-446.9837056341047
 20
-42.21712077212329
 30
0.0
 11
-444.4833251085027
 21
-53.49560847134725
 31
0.0
  0
ARC
  5
271
330
1F
100
AcDbEntity
  8
1
  6
CONTINUOUS
 62
     7
100
AcDbCircle
 10
-552.9100343744412
 20
-42.64999999999994
 30
0.0
 40
1.999999999999949
100
AcDbArc
 50
90.0
 51
167.499999999999
  0
ARC
  5
272
330
1F
100
AcDbEntity
  8
1
  6
CONTINUOUS
 62
     7
100
AcDbCircle
 10
-688.8162976483446
 20
91.35000000000014
 30
0.0
 40
1.999999999999952
100
AcDbArc
 50
270.0
 51
347.4999999999985
  0
ARC
  5
273
330
1F
100
AcDbEntity
  8
1
  6
CONTINUOUS
 62
     7
100
AcDbCircle
 10
-655.8162976483445
 20
91.35000000000012
 30
0.0
 40
1.999999999999952
100
AcDbArc
 50
270.0
 51
347.4999999999985
  0
ARC
  5
274
330
1F
100
AcDbEntity
  8
1
  6
CONTINUOUS
 62
     7
100
AcDbCircle
 10
-556.8162976483447
 20
-42.6499999999999
 30
0.0
 40
2.000000000000002
100
AcDbArc
 50
12.49999999999983
 51
90.0
  0
ARC
  5
275
330
1F
100
AcDbEntity
  8
1
  6
CONTINUOUS
 62
     7
100
AcDbCircle
 10
-453.9100343744412
 20
-42.64999999999997
 30
0.0
 40
1.999999999999952
100
AcDbArc
 50
90.0
 51
167.4999999999987
  0
ARC
  5
276
330
1F
100
AcDbEntity
  8
1
  6
CONTINUOUS
 62
     7
100
AcDbCircle
 10
-415.9362976483444
 20
91.35000000000001
 30
0.0
 40
2.00000000000004
100
AcDbArc
 50
270.0
 51
347.5000000000013
  0
ARC
  5
277
330
1F
100
AcDbEntity
  8
1
  6
CONTINUOUS
 62
     7
100
AcDbCircle
 10
-387.9100343744411
 20
91.35000000000001
 30
0.0
 40
2.000000000000002
100
AcDbArc
 50
192.4999999999991
 51
270.0
  0
ARC
  5
278
330
1F
100
AcDbEntity
  8
1
  6
CONTINUOUS
 62
     7
100
AcDbCircle
 10
-420.9100343744412
 20
91.35000000000001
 30
0.0
 40
2.000000000000002
100
AcDbArc
 50
192.5000000000014
 51
270.0
  0
ARC
  5
279
330
1F
100
AcDbEntity
  8
1
  6
CONTINUOUS
 62
     7
100
AcDbCircle
 10
-627.7900343744412
 20
-42.64999999999988
 30
0.0
 40
1.99999999999994
100
AcDbArc
 50
89.99999999999994
 51
167.5000000000001
  0
ARC
  5
27A
330
1F
100
AcDbEntity
  8
1
  6
CONTINUOUS
 62
     7
100
AcDbCircle
 10
-420.9100343744412
 20
-42.64999999999998
 30
0.0
 40
1.999999999999952
100
AcDbArc
 50
90.0
 51
167.4999999999987
  0
ARC
  5
27B
330
1F
100
AcDbEntity
  8
1
  6
CONTINUOUS
 62
     7
100
AcDbCircle
 10
-354.9100343744412
 20
-42.65
 30
0.0
 40
2.000000000000046
100
AcDbArc
 50
90.0
 51
167.5000000000005
  0
ARC
  5
27C
330
1F
100
AcDbEntity
  8
1
  6
CONTINUOUS
 62
     7
100
AcDbCircle
 10
-209.0562976483445
 20
-42.65
 30
0.0
 40
2.000000000000002
100
AcDbArc
 50
12.49999999999915
 51
90.0
  0
ARC
  5
27D
330
1F
100
AcDbEntity
  8
1
  6
CONTINUOUS
 62
     7
100
AcDbCircle
 10
-448.9362976483445
 20
91.35000000000002
 30
0.0
 40
2.000000000000155
100
AcDbArc
 50
270.0
 51
347.5000000000004
  0
ARC
  5
27E
330
1F
100
AcDbEntity
  8
1
  6
CONTINUOUS
 62
     7
100
AcDbCircle
 10
-214.0300343744412
 20
-42.65
 30
0.0
 40
2.00000000000004
100
AcDbArc
 50
90.0
 51
167.5000000000013
  0
ARC
  5
27F
330
1F
100
AcDbEntity
  8
1
  6
CONTINUOUS
 62
     7
100
AcDbCircle
 10
-726.7900343744412
 20
91.35000000000015
 30
0.0
 40
2.000000000000002
100
AcDbArc
 50
192.5000000000014
 51
270.0
  0
ARC
  5
280
330
1F
100
AcDbEntity
  8
1
  6
CONTINUOUS
 62
     7
100
AcDbCircle
 10
-556.8162976483447
 20
91.3500000000001
 30
0.0
 40
1.99999999999994
100
AcDbArc
 50
270.0
 51
347.5000000000002
  0
ARC
  5
281
330
1F
100
AcDbEntity
  8
1
  6
CONTINUOUS
 62
     7
100
AcDbCircle
 10
-415.9362976483444
 20
-42.64999999999998
 30
0.0
 40
2.000000000000002
100
AcDbArc
 50
12.49999999999875
 51
90.0
  0
LINE
  5
282
330
1F
100
AcDbEntity
  8
1
  6
CONTINUOUS
 62
     7
100
AcDbLine
 10
-889.3031660113929
 20
-40.64999999999978
 30
0.0
 11
-886.8162976483445
 21
-40.64999999999978
 31
0.0
  0
ARC
  5
283
330
1F
100
AcDbEntity
  8
1
  6
CONTINUOUS
 62
     7
100
AcDbCircle
 10
-547.9362976483445
 20
91.35000000000005
 30
0.0
 40
1.999999999999955
100
AcDbArc
 50
270.0
 51
347.4999999999982
  0
ARC
  5
284
330
1F
100
AcDbEntity
  8
1
  6
CONTINUOUS
 62
     7
100
AcDbCircle
 10
-514.9362976483444
 20
91.35000000000004
 30
0.0
 40
1.999999999999934
100
AcDbArc
 50
270.0
 51
347.5000000000006
  0
ARC
  5
285
330
1F
100
AcDbEntity
  8
1
  6
CONTINUOUS
 62
     7
100
AcDbCircle
 10
-561.7900343744413
 20
-42.6499999999999
 30
0.0
 40
1.999999999999952
100
AcDbArc
 50
90.0
 51
167.4999999999987
  0
ARC
  5
286
330
1F
100
AcDbEntity
  8
1
  6
CONTINUOUS
 62
     7
100
AcDbCircle
 10
-288.9100343744411
 20
-42.65000000000001
 30
0.0
 40
2.00000000000004
100
AcDbArc
 50
90.0
 51
167.5000000000013
  0
ARC
  5
287
330
1F
100
AcDbEntity
  8
1
  6
CONTINUOUS
 62
     7
100
AcDbCircle
 10
-514.9362976483444
 20
-42.64999999999996
 30
0.0
 40
2.000000000000002
100
AcDbArc
 50
12.49999999999915
 51
90.0
  0
ARC
  5
288
330
1F
100
AcDbEntity
  8
1
  6
CONTINUOUS
 62
     7
100
AcDbCircle
 10
-283.9362976483444
 20
-42.65000000000001
 30
0.0
 40
2.000000000000002
100
AcDbArc
 50
12.49999999999955
 51
90.0
  0
ARC
  5
289
330
1F
100
AcDbEntity
  8
1
  6
CONTINUOUS
 62
     7
100
AcDbCircle
 10
-382.9362976483444
 20
-42.64999999999998
 30
0.0
 40
2.000000000000002
100
AcDbArc
 50
12.50000000000142
 51
90.0
  0
ARC
  5
28A
330
1F
100
AcDbEntity
  8
1
  6
CONTINUOUS
 62
     7
100
AcDbCircle
 10
-721.8162976483445
 20
-42.64999999999985
 30
0.0
 40
2.000000000000002
100
AcDbArc
 50
12.50000000000142
 51
90.0
  0
ARC
  5
28B
330
1F
100
AcDbEntity
  8
1
  6
CONTINUOUS
 62
     7
100
AcDbCircle
 10
-321.9100343744411
 20
-42.65
 30
0.0
 40
2.00000000000004
100
AcDbArc
 50
90.0
 51
167.5000000000013
  0
ARC
  5
28C
330
1F
100
AcDbEntity
  8
1
  6
CONTINUOUS
 62
     7
100
AcDbCircle
 10
-209.0562976483445
 20
91.35
 30
0.0
 40
2.000000000000043
100
AcDbArc
 50
270.0
 51
347.5000000000006
  0
LINE
  5
28D
330
1F
100
AcDbEntity
  8
1
  6
CONTINUOUS
 62
     7
100
AcDbLine
 10
-886.8162976483445
 20
89.35000000000022
 30
0.0
 11
-889.3031660113929
 21
89.35000000000022
 31
0.0
  0
ARC
  5
28E
330
1F
100
AcDbEntity
  8
1
  6
CONTINUOUS
 62
     7
100
AcDbCircle
 10
-547.9362976483445
 20
-42.64999999999994
 30
0.0
 40
2.000000000000002
100
AcDbArc
 50
12.50000000000102
 51
90.0
  0
ARC
  5
28F
330
1F
100
AcDbEntity
  8
1
  6
CONTINUOUS
 62
     7
100
AcDbCircle
 10
-726.7900343744412
 20
-42.64999999999985
 30
0.0
 40
1.999999999999952
100
AcDbArc
 50
90.0
 51
167.4999999999987
  0
ARC
  5
290
330
1F
100
AcDbEntity
  8
1
  6
CONTINUOUS
 62
     7
100
AcDbCircle
 10
-283.9362976483444
 20
91.34999999999998
 30
0.0
 40
2.000000000000046
100
AcDbArc
 50
270.0
 51
347.5000000000004
  0
ARC
  5
291
330
1F
100
AcDbEntity
  8
1
  6
CONTINUOUS
 62
     7
100
AcDbCircle
 10
-143.0562976483446
 20
91.34999999999998
 30
0.0
 40
2.00000000000004
100
AcDbArc
 50
270.0
 51
347.5000000000013
  0
ARC
  5
292
330
1F
100
AcDbEntity
  8
1
  6
CONTINUOUS
 62
     7
100
AcDbCircle
 10
-448.9362976483445
 20
-42.64999999999997
 30
0.0
 40
2.000000000000002
100
AcDbArc
 50
12.49999999999955
 51
90.0
  0
ARC
  5
293
330
1F
100
AcDbEntity
  8
1
  6
CONTINUOUS
 62
     7
100
AcDbCircle
 10
-486.9100343744411
 20
91.35000000000002
 30
0.0
 40
2.000000000000002
100
AcDbArc
 50
192.4999999999995
 51
270.0
  0
ARC
  5
294
330
1F
100
AcDbEntity
  8
1
  6
CONTINUOUS
 62
     7
100
AcDbCircle
 10
-552.9100343744412
 20
91.35000000000005
 30
0.0
 40
2.000000000000002
100
AcDbArc
 50
192.500000000001
 51
270.0
  0
ARC
  5
295
330
1F
100
AcDbEntity
  8
1
  6
CONTINUOUS
 62
     7
100
AcDbCircle
 10
-217.9362976483445
 20
91.34999999999997
 30
0.0
 40
2.00000000000004
100
AcDbArc
 50
270.0
 51
347.5000000000013
  0
ARC
  5
296
330
1F
100
AcDbEntity
  8
1
  6
CONTINUOUS
 62
     7
100
AcDbCircle
 10
-688.8162976483446
 20
-42.64999999999986
 30
0.0
 40
2.000000000000002
100
AcDbArc
 50
12.50000000000142
 51
90.0
  0
ARC
  5
297
330
1F
100
AcDbEntity
  8
1
  6
CONTINUOUS
 62
     7
100
AcDbCircle
 10
-627.7900343744412
 20
91.35000000000012
 30
0.0
 40
2.000000000000002
100
AcDbArc
 50
192.4999999999997
 51
270.0
  0
ARC
  5
298
330
1F
100
AcDbEntity
  8
1
  6
CONTINUOUS
 62
     7
100
AcDbCircle
 10
-349.9362976483445
 20
-42.65
 30
0.0
 40
2.000000000000002
100
AcDbArc
 50
12.49999999999915
 51
90.0
  0
ARC
  5
299
330
1F
100
AcDbEntity
  8
1
  6
CONTINUOUS
 62
     7
100
AcDbCircle
 10
-759.7900343744413
 20
-42.64999999999984
 30
0.0
 40
1.999999999999952
100
AcDbArc
 50
90.0
 51
167.4999999999987
  0
ARC
  5
29A
330
1F
100
AcDbEntity
  8
1
  6
CONTINUOUS
 62
     7
100
AcDbCircle
 10
-382.9362976483444
 20
91.35000000000001
 30
0.0
 40
1.999999999999952
100
AcDbArc
 50
270.0
 51
347.4999999999985
  0
ARC
  5
29B
330
1F
100
AcDbEntity
  8
1
  6
CONTINUOUS
 62
     7
100
AcDbCircle
 10
-288.9100343744411
 20
91.34999999999998
 30
0.0
 40
2.000000000000002
100
AcDbArc
 50
192.4999999999987
 51
270.0
  0
ARC
  5
29C
330
1F
100
AcDbEntity
  8
1
  6
CONTINUOUS
 62
     7
100
AcDbCircle
 10
-453.9100343744412
 20
91.35000000000002
 30
0.0
 40
2.000000000000002
100
AcDbArc
 50
192.5000000000014
 51
270.0
  0
LINE
  5
29D
330
1F
100
AcDbEntity
  8
1
  6
CONTINUOUS
 62
   253
100
AcDbLine
 10
269.4521847175732
 20
124.35
 30
0.0
 11
269.4521847175732
 21
-75.65
 31
0.0
  0
ARC
  5
29E
330
1F
100
AcDbEntity
  8
1
  6
CONTINUOUS
 62
     7
100
AcDbCircle
 10
-321.9100343744411
 20
91.35
 30
0.0
 40
2.000000000000002
100
AcDbArc
 50
192.4999999999987
 51
270.0
  0
ARC
  5
29F
330
1F
100
AcDbEntity
  8
1
  6
CONTINUOUS
 62
     7
100
AcDbCircle
 10
-693.7900343744413
 20
91.35000000000014
 30
0.0
 40
2.000000000000002
100
AcDbArc
 50
192.500000000001
 51
270.0
  0
ARC
  5
2A0
330
1F
100
AcDbEntity
  8
1
  6
CONTINUOUS
 62
     7
100
AcDbCircle
 10
-214.0300343744412
 20
91.35
 30
0.0
 40
2.000000000000002
100
AcDbArc
 50
192.4999999999987
 51
270.0
  0
ARC
  5
2A1
330
1F
100
AcDbEntity
  8
1
  6
CONTINUOUS
 62
     7
100
AcDbCircle
 10
-481.9362976483445
 20
91.35000000000002
 30
0.0
 40
2.000000000000155
100
AcDbArc
 50
270.0
 51
347.5000000000004
  0
ARC
  5
2A2
330
1F
100
AcDbEntity
  8
1
  6
CONTINUOUS
 62
     7
100
AcDbCircle
 10
-655.8162976483445
 20
-42.64999999999988
 30
0.0
 40
2.000000000000002
100
AcDbArc
 50
12.50000000000142
 51
90.0
  0
ARC
  5
2A3
330
1F
100
AcDbEntity
  8
1
  6
CONTINUOUS
 62
     7
100
AcDbCircle
 10
-622.8162976483445
 20
91.35000000000012
 30
0.0
 40
1.999999999999952
100
AcDbArc
 50
270.0
 51
347.4999999999985
  0
ARC
  5
2A4
330
1F
100
AcDbEntity
  8
1
  6
CONTINUOUS
 62
     7
100
AcDbCircle
 10
-754.8162976483446
 20
91.35000000000016
 30
0.0
 40
1.99999999999994
100
AcDbArc
 50
270.0
 51
347.5000000000002
  0
ARC
  5
2A5
330
1F
100
AcDbEntity
  8
1
  6
CONTINUOUS
 62
     7
100
AcDbCircle
 10
-316.9362976483445
 20
-42.65000000000001
 30
0.0
 40
2.000000000000002
100
AcDbArc
 50
12.49999999999915
 51
90.0
  0
ARC
  5
2A6
330
1F
100
AcDbEntity
  8
1
  6
CONTINUOUS
 62
     7
100
AcDbCircle
 10
-349.9362976483445
 20
91.35
 30
0.0
 40
2.000000000000043
100
AcDbArc
 50
270.0
 51
347.5000000000006
  0
ARC
  5
2A7
330
1F
100
AcDbEntity
  8
1
  6
CONTINUOUS
 62
     7
100
AcDbCircle
 10
-316.9362976483445
 20
91.34999999999998
 30
0.0
 40
2.000000000000043
100
AcDbArc
 50
270.0
 51
347.5000000000006
  0
ARC
  5
2A8
330
1F
100
AcDbEntity
  8
1
  6
CONTINUOUS
 62
     7
100
AcDbCircle
 10
-387.9100343744411
 20
-42.64999999999998
 30
0.0
 40
2.000000000000043
100
AcDbArc
 50
90.0
 51
167.5000000000008
  0
ARC
  5
2A9
330
1F
100
AcDbEntity
  8
1
  6
CONTINUOUS
 62
     7
100
AcDbCircle
 10
-481.9362976483445
 20
-42.64999999999997
 30
0.0
 40
2.000000000000002
100
AcDbArc
 50
12.49999999999955
 51
90.0
  0
ARC
  5
2AA
330
1F
100
AcDbEntity
  8
1
  6
CONTINUOUS
 62
     7
100
AcDbCircle
 10
-721.8162976483445
 20
91.35000000000015
 30
0.0
 40
1.999999999999952
100
AcDbArc
 50
270.0
 51
347.4999999999985
  0
ARC
  5
2AB
330
1F
100
AcDbEntity
  8
1
  6
CONTINUOUS
 62
     7
100
AcDbCircle
 10
-49.03003437444126
 20
91.34999999999997
 30
0.0
 40
2.000000000000002
100
AcDbArc
 50
192.5000000000014
 51
270.0
  0
ARC
  5
2AC
330
1F
100
AcDbEntity
  8
1
  6
CONTINUOUS
 62
     7
100
AcDbCircle
 10
-561.7900343744413
 20
91.3500000000001
 30
0.0
 40
2.000000000000002
100
AcDbArc
 50
192.5000000000014
 51
270.0
  0
ARC
  5
2AD
330
1F
100
AcDbEntity
  8
1
  6
CONTINUOUS
 62
     7
100
AcDbCircle
 10
289.8499656255589
 20
91.35
 30
0.0
 40
2.000000000000002
100
AcDbArc
 50
192.5000000000002
 51
270.0
  0
ARC
  5
2AE
330
1F
100
AcDbEntity
  8
1
  6
CONTINUOUS
 62
     7
100
AcDbCircle
 10
-44.05629764834457
 20
-42.65000000000003
 30
0.0
 40
2.000000000000002
100
AcDbArc
 50
12.49999999999915
 51
90.0
  0
ARC
  5
2AF
330
1F
100
AcDbEntity
  8
1
  6
CONTINUOUS
 62
     7
100
AcDbCircle
 10
-222.9100343744412
 20
-42.65000000000003
 30
0.0
 40
2.000000000000043
100
AcDbArc
 50
90.0
 51
167.5000000000008
  0
ARC
  5
2B0
330
1F
100
AcDbEntity
  8
1
  6
CONTINUOUS
 62
     7
100
AcDbCircle
 10
120.9437023516555
 20
91.34999999999995
 30
0.0
 40
1.999999999999995
100
AcDbArc
 50
270.0
 51
347.5000000000002
  0
ARC
  5
2B1
330
1F
100
AcDbEntity
  8
1
  6
CONTINUOUS
 62
     7
100
AcDbCircle
 10
-255.9100343744412
 20
-42.65000000000003
 30
0.0
 40
1.999999999999952
100
AcDbArc
 50
90.0
 51
167.4999999999987
  0
ARC
  5
2B2
330
1F
100
AcDbEntity
  8
1
  6
CONTINUOUS
 62
     7
100
AcDbCircle
 10
-759.7900343744413
 20
91.35000000000016
 30
0.0
 40
2.000000000000002
100
AcDbArc
 50
192.5000000000014
 51
270.0
  0
ARC
  5
2B3
330
1F
100
AcDbEntity
  8
1
  6
CONTINUOUS
 62
     7
100
AcDbCircle
 10
54.94370235165552
 20
-42.65000000000003
 30
0.0
 40
2.000000000000002
100
AcDbArc
 50
12.49999999999989
 51
90.0
  0
ARC
  5
2B4
330
1F
100
AcDbEntity
  8
1
  6
CONTINUOUS
 62
     7
100
AcDbCircle
 10
-594.7900343744413
 20
-42.64999999999989
 30
0.0
 40
1.999999999999952
100
AcDbArc
 50
90.0
 51
167.4999999999987
  0
ARC
  5
2B5
330
1F
100
AcDbEntity
  8
1
  6
CONTINUOUS
 62
     7
100
AcDbCircle
 10
322.8499656255588
 20
91.35
 30
0.0
 40
2.000000000000002
100
AcDbArc
 50
192.4999999999999
 51
270.0
  0
ARC
  5
2B6
330
1F
100
AcDbEntity
  8
1
  6
CONTINUOUS
 62
     7
100
AcDbCircle
 10
16.9699656255588
 20
-42.65000000000003
 30
0.0
 40
1.999999999999995
100
AcDbArc
 50
90.0
 51
167.5000000000001
  0
ARC
  5
2B7
330
1F
100
AcDbEntity
  8
1
  6
CONTINUOUS
 62
     7
100
AcDbCircle
 10
-143.0562976483446
 20
-42.65000000000001
 30
0.0
 40
2.000000000000002
100
AcDbArc
 50
12.49999999999875
 51
90.0
  0
ARC
  5
2B8
330
1F
100
AcDbEntity
  8
1
  6
CONTINUOUS
 62
     7
100
AcDbCircle
 10
162.8237023516556
 20
-42.65
 30
0.0
 40
2.000000000000002
100
AcDbArc
 50
12.50000000000028
 51
90.0
  0
ARC
  5
2B9
330
1F
100
AcDbEntity
  8
1
  6
CONTINUOUS
 62
     7
100
AcDbCircle
 10
-82.03003437444117
 20
-42.65000000000001
 30
0.0
 40
2.000000000000043
100
AcDbArc
 50
90.0
 51
167.5000000000008
  0
ARC
  5
2BA
330
1F
100
AcDbEntity
  8
1
  6
CONTINUOUS
 62
     7
100
AcDbCircle
 10
82.96996562555874
 20
91.34999999999995
 30
0.0
 40
2.000000000000002
100
AcDbArc
 50
192.5000000000002
 51
270.0
  0
ARC
  5
2BB
330
1F
100
AcDbEntity
  8
1
  6
CONTINUOUS
 62
     7
100
AcDbCircle
 10
115.9699656255588
 20
-42.65000000000004
 30
0.0
 40
1.999999999999997
100
AcDbArc
 50
90.0
 51
167.4999999999998
  0
ARC
  5
2BC
330
1F
100
AcDbEntity
  8
1
  6
CONTINUOUS
 62
     7
100
AcDbCircle
 10
-115.0300343744412
 20
-42.65000000000001
 30
0.0
 40
2.000000000000043
100
AcDbArc
 50
90.0
 51
167.5000000000008
  0
ARC
  5
2BD
330
1F
100
AcDbEntity
  8
1
  6
CONTINUOUS
 62
     7
100
AcDbCircle
 10
-486.9100343744411
 20
-42.64999999999997
 30
0.0
 40
2.000000000000155
100
AcDbArc
 50
90.0
 51
167.5000000000005
  0
ARC
  5
2BE
330
1F
100
AcDbEntity
  8
1
  6
CONTINUOUS
 62
     7
100
AcDbCircle
 10
-754.8162976483446
 20
-42.64999999999984
 30
0.0
 40
2.000000000000002
100
AcDbArc
 50
12.49999999999983
 51
90.0
  0
ARC
  5
2BF
330
1F
100
AcDbEntity
  8
1
  6
CONTINUOUS
 62
     7
100
AcDbCircle
 10
-110.0562976483445
 20
-42.65000000000001
 30
0.0
 40
2.000000000000002
100
AcDbArc
 50
12.49999999999875
 51
90.0
  0
ARC
  5
2C0
330
1F
100
AcDbEntity
  8
1
  6
CONTINUOUS
 62
     7
100
AcDbCircle
 10
-44.05629764834457
 20
91.34999999999997
 30
0.0
 40
2.000000000000043
100
AcDbArc
 50
270.0
 51
347.5000000000006
  0
ARC
  5
2C1
330
1F
100
AcDbEntity
  8
1
  6
CONTINUOUS
 62
     7
100
AcDbCircle
 10
223.8499656255589
 20
-42.65
 30
0.0
 40
1.999999999999997
100
AcDbArc
 50
90.0
 51
167.4999999999998
  0
ARC
  5
2C2
330
1F
100
AcDbEntity
  8
1
  6
CONTINUOUS
 62
     7
100
AcDbCircle
 10
-16.03003437444123
 20
-42.65000000000003
 30
0.0
 40
1.999999999999995
100
AcDbArc
 50
90.0
 51
167.5000000000001
  0
ARC
  5
2C3
330
1F
100
AcDbEntity
  8
1
  6
CONTINUOUS
 62
     7
100
AcDbCircle
 10
129.8237023516556
 20
-42.65
 30
0.0
 40
2.000000000000002
100
AcDbArc
 50
12.50000000000028
 51
90.0
  0
ARC
  5
2C4
330
1F
100
AcDbEntity
  8
1
  6
CONTINUOUS
 62
     7
100
AcDbCircle
 10
-354.9100343744412
 20
91.35
 30
0.0
 40
2.000000000000002
100
AcDbArc
 50
192.4999999999995
 51
270.0
  0
ARC
  5
2C5
330
1F
100
AcDbEntity
  8
1
  6
CONTINUOUS
 62
     7
100
AcDbCircle
 10
120.9437023516555
 20
-42.65000000000004
 30
0.0
 40
2.000000000000002
100
AcDbArc
 50
12.49999999999989
 51
90.0
  0
ARC
  5
2C6
330
1F
100
AcDbEntity
  8
1
  6
CONTINUOUS
 62
     7
100
AcDbCircle
 10
49.96996562555878
 20
-42.65000000000003
 30
0.0
 40
1.999999999999995
100
AcDbArc
 50
90.0
 51
167.5000000000001
  0
ARC
  5
2C7
330
1F
100
AcDbEntity
  8
1
  6
CONTINUOUS
 62
     7
100
AcDbCircle
 10
129.8237023516556
 20
91.35
 30
0.0
 40
1.999999999999997
100
AcDbArc
 50
270.0
 51
347.4999999999998
  0
ARC
  5
2C8
330
1F
100
AcDbEntity
  8
1
  6
CONTINUOUS
 62
     7
100
AcDbCircle
 10
322.8499656255588
 20
-42.65
 30
0.0
 40
1.999999999999995
100
AcDbArc
 50
90.0
 51
167.5000000000001
  0
ARC
  5
2C9
330
1F
100
AcDbEntity
  8
1
  6
CONTINUOUS
 62
     7
100
AcDbCircle
 10
294.8237023516555
 20
-42.65
 30
0.0
 40
2.000000000000002
100
AcDbArc
 50
12.50000000000028
 51
90.0
  0
ARC
  5
2CA
330
1F
100
AcDbEntity
  8
1
  6
CONTINUOUS
 62
     7
100
AcDbCircle
 10
360.8237023516555
 20
91.35
 30
0.0
 40
1.999999999999997
100
AcDbArc
 50
270.0
 51
347.4999999999998
  0
ARC
  5
2CB
330
1F
100
AcDbEntity
  8
1
  6
CONTINUOUS
 62
     7
100
AcDbCircle
 10
-255.9100343744412
 20
91.34999999999997
 30
0.0
 40
2.000000000000002
100
AcDbArc
 50
192.5000000000014
 51
270.0
  0
ARC
  5
2CC
330
1F
100
AcDbEntity
  8
1
  6
CONTINUOUS
 62
     7
100
AcDbCircle
 10
360.8237023516555
 20
-42.65
 30
0.0
 40
2.000000000000002
100
AcDbArc
 50
12.50000000000028
 51
90.0
  0
ARC
  5
2CD
330
1F
100
AcDbEntity
  8
1
  6
CONTINUOUS
 62
     7
100
AcDbCircle
 10
-115.0300343744412
 20
91.34999999999998
 30
0.0
 40
2.000000000000002
100
AcDbArc
 50
192.4999999999991
 51
270.0
  0
ARC
  5
2CE
330
1F
100
AcDbEntity
  8
1
  6
CONTINUOUS
 62
     7
100
AcDbCircle
 10
-49.03003437444126
 20
-42.65000000000003
 30
0.0
 40
1.999999999999952
100
AcDbArc
 50
90.0
 51
167.4999999999987
  0
ARC
  5
2CF
330
1F
100
AcDbEntity
  8
1
  6
CONTINUOUS
 62
     7
100
AcDbCircle
 10
162.8237023516556
 20
91.35
 30
0.0
 40
1.999999999999997
100
AcDbArc
 50
270.0
 51
347.4999999999998
  0
ARC
  5
2D0
330
1F
100
AcDbEntity
  8
1
  6
CONTINUOUS
 62
     7
100
AcDbCircle
 10
223.8499656255589
 20
91.35
 30
0.0
 40
2.000000000000002
100
AcDbArc
 50
192.5000000000002
 51
270.0
  0
ARC
  5
2D1
330
1F
100
AcDbEntity
  8
1
  6
CONTINUOUS
 62
     7
100
AcDbCircle
 10
-16.03003437444123
 20
91.34999999999997
 30
0.0
 40
2.000000000000002
100
AcDbArc
 50
192.4999999999999
 51
270.0
  0
ARC
  5
2D2
330
1F
100
AcDbEntity
  8
1
  6
CONTINUOUS
 62
     7
100
AcDbCircle
 10
-148.0300343744412
 20
-42.65000000000001
 30
0.0
 40
2.000000000000046
100
AcDbArc
 50
90.0
 51
167.5000000000005
  0
ARC
  5
2D3
330
1F
100
AcDbEntity
  8
1
  6
CONTINUOUS
 62
     7
100
AcDbCircle
 10
190.8499656255588
 20
91.35
 30
0.0
 40
2.000000000000002
100
AcDbArc
 50
192.5000000000002
 51
270.0
  0
ARC
  5
2D4
330
1F
100
AcDbEntity
  8
1
  6
CONTINUOUS
 62
     7
100
AcDbCircle
 10
-622.8162976483445
 20
-42.64999999999988
 30
0.0
 40
2.000000000000002
100
AcDbArc
 50
12.50000000000063
 51
90.0
  0
ARC
  5
2D5
330
1F
100
AcDbEntity
  8
1
  6
CONTINUOUS
 62
     7
100
AcDbCircle
 10
-11.05629764834448
 20
-42.65000000000003
 30
0.0
 40
2.000000000000002
100
AcDbArc
 50
12.50000000000028
 51
90.0
  0
ARC
  5
2D6
330
1F
100
AcDbEntity
  8
1
  6
CONTINUOUS
 62
     7
100
AcDbCircle
 10
-77.05629764834448
 20
-42.65000000000001
 30
0.0
 40
2.000000000000002
100
AcDbArc
 50
12.49999999999955
 51
90.0
  0
ARC
  5
2D7
330
1F
100
AcDbEntity
  8
1
  6
CONTINUOUS
 62
     7
100
AcDbCircle
 10
190.8499656255588
 20
-42.65
 30
0.0
 40
1.999999999999997
100
AcDbArc
 50
90.0
 51
167.4999999999998
  0
ARC
  5
2D8
330
1F
100
AcDbEntity
  8
1
  6
CONTINUOUS
 62
     7
100
AcDbCircle
 10
228.8237023516556
 20
-42.65
 30
0.0
 40
2.000000000000002
100
AcDbArc
 50
12.50000000000028
 51
90.0
  0
ARC
  5
2D9
330
1F
100
AcDbEntity
  8
1
  6
CONTINUOUS
 62
     7
100
AcDbCircle
 10
-148.0300343744412
 20
91.34999999999998
 30
0.0
 40
2.000000000000002
100
AcDbArc
 50
192.4999999999995
 51
270.0
  0
ARC
  5
2DA
330
1F
100
AcDbEntity
  8
1
  6
CONTINUOUS
 62
     7
100
AcDbCircle
 10
195.8237023516556
 20
91.35
 30
0.0
 40
1.999999999999995
100
AcDbArc
 50
270.0
 51
347.5000000000002
  0
ARC
  5
2DB
330
1F
100
AcDbEntity
  8
1
  6
CONTINUOUS
 62
     7
100
AcDbCircle
 10
21.94370235165549
 20
91.34999999999997
 30
0.0
 40
1.999999999999997
100
AcDbArc
 50
270.0
 51
347.4999999999998
  0
ARC
  5
2DC
330
1F
100
AcDbEntity
  8
1
  6
CONTINUOUS
 62
     7
100
AcDbCircle
 10
-110.0562976483445
 20
91.34999999999998
 30
0.0
 40
2.00000000000004
100
AcDbArc
 50
270.0
 51
347.5000000000013
  0
ARC
  5
2DD
330
1F
100
AcDbEntity
  8
1
  6
CONTINUOUS
 62
     7
100
AcDbCircle
 10
49.96996562555878
 20
91.34999999999997
 30
0.0
 40
2.000000000000002
100
AcDbArc
 50
192.4999999999999
 51
270.0
  0
ARC
  5
2DE
330
1F
100
AcDbEntity
  8
1
  6
CONTINUOUS
 62
     7
100
AcDbCircle
 10
124.8499656255589
 20
-42.65
 30
0.0
 40
1.999999999999995
100
AcDbArc
 50
90.0
 51
167.5000000000001
  0
ARC
  5
2DF
330
1F
100
AcDbEntity
  8
1
  6
CONTINUOUS
 62
     7
100
AcDbCircle
 10
-176.0562976483445
 20
-42.65
 30
0.0
 40
2.000000000000002
100
AcDbArc
 50
12.50000000000142
 51
90.0
  0
ARC
  5
2E0
330
1F
100
AcDbEntity
  8
1
  6
CONTINUOUS
 62
     7
100
AcDbCircle
 10
16.9699656255588
 20
91.34999999999997
 30
0.0
 40
2.000000000000002
100
AcDbArc
 50
192.4999999999999
 51
270.0
  0
ARC
  5
2E1
330
1F
100
AcDbEntity
  8
1
  6
CONTINUOUS
 62
     7
100
AcDbCircle
 10
115.9699656255588
 20
91.34999999999995
 30
0.0
 40
2.000000000000002
100
AcDbArc
 50
192.5000000000002
 51
270.0
  0
ARC
  5
2E2
330
1F
100
AcDbEntity
  8
1
  6
CONTINUOUS
 62
     7
100
AcDbCircle
 10
21.94370235165549
 20
-42.65000000000003
 30
0.0
 40
2.000000000000002
100
AcDbArc
 50
12.50000000000028
 51
90.0
  0
ARC
  5
2E3
330
1F
100
AcDbEntity
  8
1
  6
CONTINUOUS
 62
     7
100
AcDbCircle
 10
195.8237023516556
 20
-42.65
 30
0.0
 40
2.000000000000002
100
AcDbArc
 50
12.49999999999989
 51
90.0
  0
ARC
  5
2E4
330
1F
100
AcDbEntity
  8
1
  6
CONTINUOUS
 62
     7
100
AcDbCircle
 10
82.96996562555874
 20
-42.65000000000004
 30
0.0
 40
1.999999999999997
100
AcDbArc
 50
90.0
 51
167.4999999999998
  0
ARC
  5
2E5
330
1F
100
AcDbEntity
  8
1
  6
CONTINUOUS
 62
     7
100
AcDbCircle
 10
-594.7900343744413
 20
91.35000000000011
 30
0.0
 40
2.000000000000002
100
AcDbArc
 50
192.5000000000014
 51
270.0
  0
ARC
  5
2E6
330
1F
100
AcDbEntity
  8
1
  6
CONTINUOUS
 62
     7
100
AcDbCircle
 10
294.8237023516555
 20
91.35
 30
0.0
 40
1.999999999999997
100
AcDbArc
 50
270.0
 51
347.4999999999998
  0
ARC
  5
2E7
330
1F
100
AcDbEntity
  8
1
  6
CONTINUOUS
 62
     7
100
AcDbCircle
 10
124.8499656255589
 20
91.35
 30
0.0
 40
2.000000000000002
100
AcDbArc
 50
192.4999999999999
 51
270.0
  0
ARC
  5
2E8
330
1F
100
AcDbEntity
  8
1
  6
CONTINUOUS
 62
     7
100
AcDbCircle
 10
-82.03003437444117
 20
91.34999999999998
 30
0.0
 40
2.000000000000002
100
AcDbArc
 50
192.4999999999991
 51
270.0
  0
ARC
  5
2E9
330
1F
100
AcDbEntity
  8
1
  6
CONTINUOUS
 62
     7
100
AcDbCircle
 10
-222.9100343744412
 20
91.34999999999997
 30
0.0
 40
2.000000000000002
100
AcDbArc
 50
192.4999999999991
 51
270.0
  0
ARC
  5
2EA
330
1F
100
AcDbEntity
  8
1
  6
CONTINUOUS
 62
     7
100
AcDbCircle
 10
-217.9362976483445
 20
-42.65000000000003
 30
0.0
 40
2.000000000000002
100
AcDbArc
 50
12.49999999999875
 51
90.0
  0
LINE
  5
2EB
330
1F
100
AcDbEntity
  8
1
  6
CONTINUOUS
 62
     7
100
AcDbLine
 10
-858.7900343744413
 20
-40.64999999999979
 30
0.0
 11
-853.8162976483446
 21
-40.64999999999979
 31
0.0
  0
ARC
  5
2EC
330
1F
100
AcDbEntity
  8
1
  6
CONTINUOUS
 62
     7
100
AcDbCircle
 10
-176.0562976483445
 20
91.35
 30
0.0
 40
1.999999999999952
100
AcDbArc
 50
270.0
 51
347.4999999999985
  0
ARC
  5
2ED
330
1F
100
AcDbEntity
  8
1
  6
CONTINUOUS
 62
     7
100
AcDbCircle
 10
-11.05629764834448
 20
91.34999999999997
 30
0.0
 40
1.999999999999997
100
AcDbArc
 50
270.0
 51
347.4999999999998
  0
ARC
  5
2EE
330
1F
100
AcDbEntity
  8
1
  6
CONTINUOUS
 62
     7
100
AcDbCircle
 10
327.8237023516556
 20
-42.65
 30
0.0
 40
2.000000000000002
100
AcDbArc
 50
12.50000000000028
 51
90.0
  0
LINE
  5
2EF
330
1F
100
AcDbEntity
  8
1
  6
CONTINUOUS
 62
     7
100
AcDbLine
 10
-853.8162976483446
 20
89.35000000000021
 30
0.0
 11
-858.7900343744413
 21
89.35000000000021
 31
0.0
  0
LINE
  5
2F0
330
1F
100
AcDbEntity
  8
1
  6
CONTINUOUS
 62
     7
100
AcDbLine
 10
289.8499656255589
 20
-40.65
 30
0.0
 11
294.8237023516555
 21
-40.65
 31
0.0
  0
LINE
  5
2F1
330
1F
100
AcDbEntity
  8
1
  6
CONTINUOUS
 62
     7
100
AcDbLine
 10
-321.9100343744411
 20
-40.65
 30
0.0
 11
-316.9362976483445
 21
-40.65
 31
0.0
  0
LINE
  5
2F2
330
1F
100
AcDbEntity
  8
1
  6
CONTINUOUS
 62
     7
100
AcDbLine
 10
-16.03003437444123
 20
-40.65000000000003
 30
0.0
 11
-11.05629764834448
 21
-40.65000000000003
 31
0.0
  0
LINE
  5
2F3
330
1F
100
AcDbEntity
  8
1
  6
CONTINUOUS
 62
     7
100
AcDbLine
 10
-721.8162976483445
 20
89.35000000000015
 30
0.0
 11
-726.7900343744412
 21
89.35000000000015
 31
0.0
  0
LINE
  5
2F4
330
1F
100
AcDbEntity
  8
1
  6
CONTINUOUS
 62
     7
100
AcDbLine
 10
157.8499656255589
 20
-40.65
 30
0.0
 11
162.8237023516556
 21
-40.65
 31
0.0
  0
LINE
  5
2F5
330
1F
100
AcDbEntity
  8
1
  6
CONTINUOUS
 62
     7
100
AcDbLine
 10
-354.9100343744412
 20
-40.65
 30
0.0
 11
-349.9362976483445
 21
-40.65
 31
0.0
  0
LINE
  5
2F6
330
1F
100
AcDbEntity
  8
1
  6
CONTINUOUS
 62
     7
100
AcDbLine
 10
360.8237023516555
 20
89.35
 30
0.0
 11
355.8499656255588
 21
89.35
 31
0.0
  0
LINE
  5
2F7
330
1F
100
AcDbEntity
  8
1
  6
CONTINUOUS
 62
     7
100
AcDbLine
 10
-589.8162976483446
 20
89.35000000000011
 30
0.0
 11
-594.7900343744413
 21
89.35000000000011
 31
0.0
  0
ARC
  5
2F8
330
1F
100
AcDbEntity
  8
1
  6
CONTINUOUS
 62
     7
100
AcDbCircle
 10
54.94370235165552
 20
91.34999999999997
 30
0.0
 40
2.0
100
AcDbArc
 50
270.0
 51
347.4999999999994
  0
LINE
  5
2F9
330
1F
100
AcDbEntity
  8
1
  6
CONTINUOUS
 62
     7
100
AcDbLine
 10
-759.7900343744413
 20
-40.64999999999983
 30
0.0
 11
-754.8162976483446
 21
-40.64999999999983
 31
0.0
  0
LINE
  5
2FA
330
1F
100
AcDbEntity
  8
1
  6
CONTINUOUS
 62
     7
100
AcDbLine
 10
16.9699656255588
 20
-40.65000000000003
 30
0.0
 11
21.94370235165549
 21
-40.65000000000003
 31
0.0
  0
LINE
  5
2FB
330
1F
100
AcDbEntity
  8
1
  6
CONTINUOUS
 62
     7
100
AcDbLine
 10
-176.0562976483445
 20
89.34999999999998
 30
0.0
 11
-181.0300343744412
 21
89.34999999999998
 31
0.0
  0
ARC
  5
2FC
330
1F
100
AcDbEntity
  8
1
  6
CONTINUOUS
 62
     7
100
AcDbCircle
 10
289.8499656255589
 20
-42.65
 30
0.0
 40
1.999999999999997
100
AcDbArc
 50
90.0
 51
167.4999999999998
  0
LINE
  5
2FD
330
1F
100
AcDbEntity
  8
1
  6
CONTINUOUS
 62
     7
100
AcDbLine
 10
-255.9100343744412
 20
-40.65000000000003
 30
0.0
 11
-250.9362976483445
 21
-40.65000000000003
 31
0.0
  0
LINE
  5
2FE
330
1F
100
AcDbEntity
  8
1
  6
CONTINUOUS
 62
     7
100
AcDbLine
 10
-660.7900343744413
 20
-40.64999999999986
 30
0.0
 11
-655.8162976483445
 21
-40.64999999999986
 31
0.0
  0
LINE
  5
2FF
330
1F
100
AcDbEntity
  8
1
  6
CONTINUOUS
 62
     7
100
AcDbLine
 10
-250.9362976483445
 20
89.34999999999997
 30
0.0
 11
-255.9100343744412
 21
89.34999999999997
 31
0.0
  0
LINE
  5
300
330
1F
100
AcDbEntity
  8
1
  6
CONTINUOUS
 62
     7
100
AcDbLine
 10
-11.05629764834448
 20
89.34999999999997
 30
0.0
 11
-16.03003437444123
 21
89.34999999999997
 31
0.0
  0
LINE
  5
301
330
1F
100
AcDbEntity
  8
1
  6
CONTINUOUS
 62
     7
100
AcDbLine
 10
-349.9362976483445
 20
89.35
 30
0.0
 11
-354.9100343744412
 21
89.35
 31
0.0
  0
ARC
  5
302
330
1F
100
AcDbEntity
  8
1
  6
CONTINUOUS
 62
     7
100
AcDbCircle
 10
480.7360021423506
 20
98.35000000000001
 30
0.0
 40
0.4999999999999986
100
AcDbArc
 50
270.0
 51
345.0000000000014
  0
ARC
  5
303
330
1F
100
AcDbEntity
  8
1
  6
CONTINUOUS
 62
     7
100
AcDbCircle
 10
228.8237023516556
 20
91.35
 30
0.0
 40
1.999999999999997
100
AcDbArc
 50
270.0
 51
347.4999999999998
  0
LINE
  5
304
330
1F
100
AcDbEntity
  8
1
  6
CONTINUOUS
 62
     7
100
AcDbLine
 10
322.8499656255588
 20
-40.65
 30
0.0
 11
327.8237023516556
 21
-40.65
 31
0.0
  0
LINE
  5
305
330
1F
100
AcDbEntity
  8
1
  6
CONTINUOUS
 62
     7
100
AcDbLine
 10
-382.9362976483444
 20
89.35000000000001
 30
0.0
 11
-387.9100343744411
 21
89.35000000000001
 31
0.0
  0
LINE
  5
306
330
1F
100
AcDbEntity
  8
1
  6
CONTINUOUS
 62
     7
100
AcDbLine
 10
-181.0300343744412
 20
-40.65000000000001
 30
0.0
 11
-176.0562976483445
 21
-40.65000000000001
 31
0.0
  0
LINE
  5
307
330
1F
100
AcDbEntity
  8
1
  6
CONTINUOUS
 62
     7
100
AcDbLine
 10
-754.8162976483446
 20
89.35000000000016
 30
0.0
 11
-759.7900343744413
 21
89.35000000000016
 31
0.0
  0
LINE
  5
308
330
1F
100
AcDbEntity
  8
1
  6
CONTINUOUS
 62
     7
100
AcDbLine
 10
-792.7900343744412
 20
-40.64999999999981
 30
0.0
 11
-787.8162976483446
 21
-40.64999999999981
 31
0.0
  0
LINE
  5
309
330
1F
100
AcDbEntity
  8
1
  6
CONTINUOUS
 62
     7
100
AcDbLine
 10
-453.9100343744412
 20
-40.64999999999998
 30
0.0
 11
-448.9362976483445
 21
-40.64999999999998
 31
0.0
  0
LINE
  5
30A
330
1F
100
AcDbEntity
  8
1
  6
CONTINUOUS
 62
     7
100
AcDbLine
 10
-110.0562976483445
 20
89.34999999999998
 30
0.0
 11
-115.0300343744412
 21
89.34999999999998
 31
0.0
  0
LINE
  5
30B
330
1F
100
AcDbEntity
  8
1
  6
CONTINUOUS
 62
     7
100
AcDbLine
 10
-787.8162976483446
 20
89.35000000000018
 30
0.0
 11
-792.7900343744412
 21
89.35000000000018
 31
0.0
  0
LINE
  5
30C
330
1F
100
AcDbEntity
  8
1
  6
CONTINUOUS
 62
     7
100
AcDbLine
 10
-77.05629764834448
 20
89.34999999999998
 30
0.0
 11
-82.03003437444117
 21
89.34999999999998
 31
0.0
  0
LINE
  5
30D
330
1F
100
AcDbEntity
  8
1
  6
CONTINUOUS
 62
     7
100
AcDbLine
 10
-726.7900343744412
 20
-40.64999999999984
 30
0.0
 11
-721.8162976483445
 21
-40.64999999999984
 31
0.0
  0
ARC
  5
30E
330
1F
100
AcDbEntity
  8
1
  6
CONTINUOUS
 62
     7
100
AcDbCircle
 10
355.8499656255588
 20
-42.65
 30
0.0
 40
1.99999999999994
100
AcDbArc
 50
90.0
 51
167.5000000000001
  0
LINE
  5
30F
330
1F
100
AcDbEntity
  8
1
  6
CONTINUOUS
 62
     7
100
AcDbLine
 10
228.8237023516556
 20
89.35
 30
0.0
 11
223.8499656255589
 21
89.35
 31
0.0
  0
LINE
  5
310
330
1F
100
AcDbEntity
  8
1
  6
CONTINUOUS
 62
     7
100
AcDbLine
 10
-655.8162976483445
 20
89.35000000000014
 30
0.0
 11
-660.7900343744413
 21
89.35000000000014
 31
0.0
  0
LINE
  5
311
330
1F
100
AcDbEntity
  8
1
  6
CONTINUOUS
 62
     7
100
AcDbLine
 10
-448.9362976483445
 20
89.35000000000001
 30
0.0
 11
-453.9100343744412
 21
89.35000000000001
 31
0.0
  0
LINE
  5
312
330
1F
100
AcDbEntity
  8
1
  6
CONTINUOUS
 62
     7
100
AcDbLine
 10
-82.03003437444117
 20
-40.65000000000001
 30
0.0
 11
-77.05629764834448
 21
-40.65000000000001
 31
0.0
  0
LINE
  5
313
330
1F
100
AcDbEntity
  8
1
  6
CONTINUOUS
 62
     7
100
AcDbLine
 10
87.94370235165549
 20
89.34999999999997
 30
0.0
 11
82.96996562555874
 21
89.34999999999997
 31
0.0
  0
LINE
  5
314
330
1F
100
AcDbEntity
  8
1
  6
CONTINUOUS
 62
     7
100
AcDbLine
 10
82.96996562555874
 20
-40.65000000000003
 30
0.0
 11
87.94370235165549
 21
-40.65000000000003
 31
0.0
  0
LINE
  5
315
330
1F
100
AcDbEntity
  8
1
  6
CONTINUOUS
 62
     7
100
AcDbLine
 10
-519.9100343744412
 20
-40.64999999999996
 30
0.0
 11
-514.9362976483444
 21
-40.64999999999996
 31
0.0
  0
LINE
  5
316
330
1F
100
AcDbEntity
  8
1
  6
CONTINUOUS
 62
     7
100
AcDbLine
 10
-415.9362976483444
 20
89.35000000000001
 30
0.0
 11
-420.9100343744412
 21
89.35000000000001
 31
0.0
  0
LINE
  5
317
330
1F
100
AcDbEntity
  8
1
  6
CONTINUOUS
 62
     7
100
AcDbLine
 10
355.8499656255588
 20
-40.65
 30
0.0
 11
360.8237023516555
 21
-40.65
 31
0.0
  0
LINE
  5
318
330
1F
100
AcDbEntity
  8
1
  6
CONTINUOUS
 62
     7
100
AcDbLine
 10
-115.0300343744412
 20
-40.65000000000001
 30
0.0
 11
-110.0562976483445
 21
-40.65000000000001
 31
0.0
  0
LINE
  5
319
330
1F
100
AcDbEntity
  8
1
  6
CONTINUOUS
 62
     7
100
AcDbLine
 10
-693.7900343744413
 20
-40.64999999999986
 30
0.0
 11
-688.8162976483446
 21
-40.64999999999986
 31
0.0
  0
LINE
  5
31A
330
1F
100
AcDbEntity
  8
1
  6
CONTINUOUS
 62
     7
100
AcDbLine
 10
-420.9100343744412
 20
-40.64999999999998
 30
0.0
 11
-415.9362976483444
 21
-40.64999999999998
 31
0.0
  0
LINE
  5
31B
330
1F
100
AcDbEntity
  8
1
  6
CONTINUOUS
 62
     7
100
AcDbLine
 10
-316.9362976483445
 20
89.35
 30
0.0
 11
-321.9100343744411
 21
89.35
 31
0.0
  0
LINE
  5
31C
330
1F
100
AcDbEntity
  8
1
  6
CONTINUOUS
 62
     7
100
AcDbLine
 10
294.8237023516555
 20
89.35
 30
0.0
 11
289.8499656255589
 21
89.35
 31
0.0
  0
LINE
  5
31D
330
1F
100
AcDbEntity
  8
1
  6
CONTINUOUS
 62
     7
100
AcDbLine
 10
-49.03003437444126
 20
-40.65000000000001
 30
0.0
 11
-44.05629764834457
 21
-40.65000000000001
 31
0.0
  0
ARC
  5
31E
330
1F
100
AcDbEntity
  8
1
  6
CONTINUOUS
 62
     7
100
AcDbCircle
 10
327.8237023516556
 20
91.35
 30
0.0
 40
1.999999999999997
100
AcDbArc
 50
270.0
 51
347.4999999999998
  0
LINE
  5
31F
330
1F
100
AcDbEntity
  8
1
  6
CONTINUOUS
 62
     7
100
AcDbLine
 10
-387.9100343744411
 20
-40.64999999999998
 30
0.0
 11
-382.9362976483444
 21
-40.64999999999998
 31
0.0
  0
LINE
  5
320
330
1F
100
AcDbEntity
  8
1
  6
CONTINUOUS
 62
     7
100
AcDbLine
 10
223.8499656255589
 20
-40.65
 30
0.0
 11
228.8237023516556
 21
-40.65
 31
0.0
  0
LINE
  5
321
330
1F
100
AcDbEntity
  8
1
  6
CONTINUOUS
 62
     7
100
AcDbLine
 10
-594.7900343744413
 20
-40.64999999999988
 30
0.0
 11
-589.8162976483446
 21
-40.64999999999988
 31
0.0
  0
LINE
  5
322
330
1F
100
AcDbEntity
  8
1
  6
CONTINUOUS
 62
     7
100
AcDbLine
 10
-514.9362976483444
 20
89.35000000000004
 30
0.0
 11
-519.9100343744412
 21
89.35000000000004
 31
0.0
  0
LINE
  5
323
330
1F
100
AcDbEntity
  8
1
  6
CONTINUOUS
 62
     7
100
AcDbLine
 10
-44.05629764834457
 20
89.34999999999998
 30
0.0
 11
-49.03003437444126
 21
89.34999999999998
 31
0.0
  0
ARC
  5
324
330
1F
100
AcDbEntity
  8
1
  6
CONTINUOUS
 62
     7
100
AcDbCircle
 10
386.3368339886072
 20
-63.15
 30
0.0
 40
1.000000000000001
100
AcDbArc
 50
270.0
 51
0.0
  0
LINE
  5
325
330
1F
100
AcDbEntity
  8
1
  6
CONTINUOUS
 62
     7
100
AcDbLine
 10
162.8237023516556
 20
89.35
 30
0.0
 11
157.8499656255589
 21
89.35
 31
0.0
  0
ARC
  5
326
330
1F
100
AcDbEntity
  8
1
  6
CONTINUOUS
 62
     7
100
AcDbCircle
 10
355.8499656255588
 20
91.35
 30
0.0
 40
2.000000000000002
100
AcDbArc
 50
192.4999999999999
 51
270.0
  0
LINE
  5
327
330
1F
100
AcDbEntity
  8
1
  6
CONTINUOUS
 62
     7
100
AcDbLine
 10
327.8237023516556
 20
89.35
 30
0.0
 11
322.8499656255588
 21
89.35
 31
0.0
  0
ARC
  5
328
330
1F
100
AcDbEntity
  8
1
  6
CONTINUOUS
 62
     7
100
AcDbCircle
 10
-77.05629764834448
 20
91.34999999999998
 30
0.0
 40
2.000000000000046
100
AcDbArc
 50
270.0
 51
347.5000000000004
  0
LINE
  5
329
330
1F
100
AcDbEntity
  8
1
  6
CONTINUOUS
 62
     7
100
AcDbLine
 10
21.94370235165549
 20
89.34999999999997
 30
0.0
 11
16.9699656255588
 21
89.34999999999997
 31
0.0
  0
LINE
  5
32A
330
1F
100
AcDbEntity
  8
1
  6
CONTINUOUS
 62
     7
100
AcDbLine
 10
-688.8162976483446
 20
89.35000000000014
 30
0.0
 11
-693.7900343744413
 21
89.35000000000014
 31
0.0
  0
ARC
  5
32B
330
1F
100
AcDbEntity
  8
1
  6
CONTINUOUS
 62
     7
100
AcDbCircle
 10
560.3368339886072
 20
111.85
 30
0.0
 40
1.000000000000001
100
AcDbArc
 50
90.0
 51
180.0
  0
ARC
  5
32C
330
1F
100
AcDbEntity
  8
1
  6
CONTINUOUS
 62
   253
100
AcDbCircle
 10
800.5999999999998
 20
24.35
 30
0.0
 40
83.48844834628036
100
AcDbArc
 50
147.8339717021057
 51
212.1660282978942
  0
ARC
  5
32D
330
1F
100
AcDbEntity
  8
1
  6
CONTINUOUS
 62
     7
100
AcDbCircle
 10
825.3470906303106
 20
-0.3970906303107317
 30
0.0
 40
49.81593514401802
100
AcDbArc
 50
293.1901687496381
 51
336.8098312503616
  0
LINE
  5
32E
330
1F
100
AcDbEntity
  8
1
  6
CONTINUOUS
 62
     7
100
AcDbLine
 10
845.0471175401136
 20
95.02372036085858
 30
0.0
 11
844.9638183740296
 21
94.88804374227172
 31
0.0
  0
LINE
  5
32F
330
1F
100
AcDbEntity
  8
1
  6
CONTINUOUS
 62
     7
100
AcDbLine
 10
871.9197919150046
 20
67.29557450338591
 30
0.0
 11
873.6060463119861
 21
64.39779702451861
 31
0.0
  0
LINE
  5
330
330
1F
100
AcDbEntity
  8
1
  6
CONTINUOUS
 62
     7
100
AcDbLine
 10
465.9376658348638
 20
-49.15000000000001
 30
0.0
 11
480.7360021423506
 21
-49.15000000000001
 31
0.0
  0
LINE
  5
331
330
1F
100
AcDbEntity
  8
1
  6
CONTINUOUS
 62
     7
100
AcDbLine
 10
873.790713210886
 20
-15.4532253728413
 30
0.0
 11
874.3169841891719
 21
-14.45322537283698
 31
0.0
  0
ARC
  5
332
330
1F
100
AcDbEntity
  8
1
  6
CONTINUOUS
 62
     7
100
AcDbCircle
 10
465.9376658348638
 20
-49.65000000000001
 30
0.0
 40
0.4999999999999986
100
AcDbArc
 50
90.0
 51
165.0000000000014
  0
CIRCLE
  5
333
330
1F
100
AcDbEntity
  8
1
  6
CONTINUOUS
 62
     7
100
AcDbCircle
 10
800.5999999999998
 20
24.35
 30
0.0
 40
88.5
  0
ARC
  5
334
330
1F
100
AcDbEntity
  8
1
  6
CONTINUOUS
 62
     7
100
AcDbCircle
 10
465.9376658348638
 20
98.35000000000001
 30
0.0
 40
0.5000000000000004
100
AcDbArc
 50
194.9999999999987
 51
270.0
  0
LINE
  5
335
330
1F
100
AcDbEntity
  8
1
  6
CONTINUOUS
 62
     7
100
AcDbLine
 10
844.9638183740295
 20
-46.1880437422718
 30
0.0
 11
845.0471175401136
 21
-46.32372036085864
 31
0.0
  0
ARC
  5
336
330
1F
100
AcDbEntity
  8
1
  6
CONTINUOUS
 62
     7
100
AcDbCircle
 10
558.3368339886072
 20
-62.96050996198506
 30
0.0
 40
0.9999999999999946
100
AcDbArc
 50
0.0
 51
89.56566329019165
  0
LINE
  5
337
330
1F
100
AcDbEntity
  8
1
  6
CONTINUOUS
 62
     7
100
AcDbLine
 10
386.3368339886072
 20
112.85
 30
0.0
 11
363.3368339886072
 21
112.85
 31
0.0
  0
LINE
  5
338
330
1F
100
AcDbEntity
  8
1
  6
CONTINUOUS
 62
     7
100
AcDbLine
 10
480.7360021423506
 20
97.85000000000001
 30
0.0
 11
465.9376658348638
 21
97.85000000000001
 31
0.0
  0
LINE
  5
339
330
1F
100
AcDbEntity
  8
1
  6
CONTINUOUS
 62
     7
100
AcDbLine
 10
839.437299546552
 20
-49.34676749568533
 30
0.0
 11
840.6477970245185
 21
-48.65604631198599
 31
0.0
  0
ARC
  5
33A
330
1F
100
AcDbEntity
  8
1
  6
CONTINUOUS
 62
     7
100
AcDbCircle
 10
458.4272193174202
 20
105.1289998122689
 30
0.0
 40
5.000000000000019
100
AcDbArc
 50
15.00000000000017
 51
89.56566329020308
  0
LINE
  5
33B
330
1F
100
AcDbEntity
  8
1
  6
CONTINUOUS
 62
     7
100
AcDbLine
 10
840.4032253728411
 20
97.54071321088615
 30
0.0
 11
839.4032253728368
 21
98.06698418917209
 31
0.0
  0
ARC
  5
33C
330
1F
100
AcDbEntity
  8
1
  6
CONTINUOUS
 62
     7
100
AcDbCircle
 10
480.7360021423506
 20
-49.65000000000001
 30
0.0
 40
0.5000000000000004
100
AcDbArc
 50
14.99999999999869
 51
90.0
  0
LINE
  5
33D
330
1F
100
AcDbEntity
  8
1
  6
CONTINUOUS
 62
   253
100
AcDbLine
 10
727.5939536880137
 20
-15.6977970245186
 30
0.0
 11
727.5428223657501
 21
-15.69779702451869
 31
0.0
  0
ARC
  5
33E
330
1F
100
AcDbEntity
  8
1
  6
CONTINUOUS
 62
     7
100
AcDbCircle
 10
825.4615649306561
 20
-0.5115649306562821
 30
0.0
 40
49.8231618444559
100
AcDbArc
 50
293.1476131578922
 51
336.8523868421079
  0
ARC
  5
33F
330
1F
100
AcDbEntity
  8
1
  6
CONTINUOUS
 62
     7
100
AcDbCircle
 10
560.3368339886072
 20
-63.15
 30
0.0
 40
1.000000000000001
100
AcDbArc
 50
180.0
 51
270.0
  0
ARC
  5
340
330
1F
100
AcDbEntity
  8
1
  6
CONTINUOUS
 62
     7
100
AcDbCircle
 10
388.3368339886072
 20
-62.96050996198506
 30
0.0
 40
1.000000000000001
100
AcDbArc
 50
90.43433670980836
 51
180.0
  0
LINE
  5
341
330
1F
100
AcDbEntity
  8
1
  6
CONTINUOUS
 62
     7
100
AcDbLine
 10
840.6477970245186
 20
97.35604631198655
 30
0.0
 11
839.4372995465521
 21
98.0467674956859
 31
0.0
  0
ARC
  5
342
330
1F
100
AcDbEntity
  8
1
  6
CONTINUOUS
 62
     7
100
AcDbCircle
 10
800.5999999999998
 20
24.34999999999998
 30
0.0
 40
83.25163715042143
100
AcDbArc
 50
31.05446182290826
 51
58.94553817709174
  0
LINE
  5
343
330
1F
100
AcDbEntity
  8
1
  6
CONTINUOUS
 62
     7
100
AcDbLine
 10
874.2967674956851
 20
63.18729954655217
 30
0.0
 11
873.6060463119858
 21
64.39779702451867
 31
0.0
  0
ARC
  5
344
330
1F
100
AcDbEntity
  8
1
  6
CONTINUOUS
 62
     7
100
AcDbCircle
 10
458.4272193174202
 20
-56.42899981226895
 30
0.0
 40
4.999999999999994
100
AcDbArc
 50
270.434336709797
 51
344.9999999999998
  0
ARC
  5
345
330
1F
100
AcDbEntity
  8
1
  6
CONTINUOUS
 62
     7
100
AcDbCircle
 10
488.2464486597942
 20
-56.42899981226895
 30
0.0
 40
5.000000000000019
100
AcDbArc
 50
195.0000000000001
 51
269.5656632902031
  0
ARC
  5
346
330
1F
100
AcDbEntity
  8
1
  6
CONTINUOUS
 62
     7
100
AcDbCircle
 10
388.3368339886072
 20
111.6605099619851
 30
0.0
 40
0.9999999999999946
100
AcDbArc
 50
180.0
 51
269.5656632901917
  0
ARC
  5
347
330
1F
100
AcDbEntity
  8
1
  6
CONTINUOUS
 62
     7
100
AcDbCircle
 10
775.7384350693437
 20
49.2115649306562
 30
0.0
 40
49.82316184445604
100
AcDbArc
 50
113.1476131578922
 51
156.8523868421076
  0
ARC
  5
348
330
1F
100
AcDbEntity
  8
1
  6
CONTINUOUS
 62
     7
100
AcDbCircle
 10
825.4615649306561
 20
49.21156493065623
 30
0.0
 40
49.82316184445589
100
AcDbArc
 50
23.14761315789224
 51
66.85238684210776
  0
LINE
  5
349
330
1F
100
AcDbEntity
  8
1
  6
CONTINUOUS
 62
     7
100
AcDbLine
 10
558.3444145216519
 20
110.6605386946385
 30
0.0
 11
488.2085459945719
 21
110.1288561490019
 31
0.0
  0
LINE
  5
34A
330
1F
100
AcDbEntity
  8
1
  6
CONTINUOUS
 62
     7
100
AcDbLine
 10
871.2737203608584
 20
-20.0971175401138
 30
0.0
 11
871.1380437422716
 21
-20.01381837402978
 31
0.0
  0
CIRCLE
  5
34B
330
1F
100
AcDbEntity
  8
1
  6
CONTINUOUS
 62
   253
100
AcDbCircle
 10
800.5999999999998
 20
24.35
 30
0.0
 40
84.98840316953354
  0
LINE
  5
34C
330
1F
100
AcDbEntity
  8
1
  6
CONTINUOUS
 62
     7
100
AcDbLine
 10
840.6477970245185
 20
97.35604631198663
 30
0.0
 11
843.5455745033858
 21
95.66979191500462
 31
0.0
  0
LINE
  5
34D
330
1F
100
AcDbEntity
  8
1
  6
CONTINUOUS
 62
     7
100
AcDbLine
 10
729.9262796391413
 20
68.7971175401138
 30
0.0
 11
730.0619562577281
 21
68.71381837402978
 31
0.0
  0
ARC
  5
34E
330
1F
100
AcDbEntity
  8
1
  6
CONTINUOUS
 62
     7
100
AcDbCircle
 10
488.2464486597942
 20
105.1289998122689
 30
0.0
 40
4.999999999999994
100
AcDbArc
 50
90.43433670979695
 51
164.9999999999998
  0
ARC
  5
34F
330
1F
100
AcDbEntity
  8
1
  6
CONTINUOUS
 62
     7
100
AcDbCircle
 10
800.5999999999998
 20
24.35
 30
0.0
 40
83.48844834628044
100
AcDbArc
 50
57.83397170210571
 51
122.1660282978942
  0
LINE
  5
350
330
1F
100
AcDbEntity
  8
1
  6
CONTINUOUS
 62
     7
100
AcDbLine
 10
560.3368339886072
 20
-64.14999999999999
 30
0.0
 11
583.3368339886073
 21
-64.14999999999999
 31
0.0
  0
ARC
  5
351
330
1F
100
AcDbEntity
  8
1
  6
CONTINUOUS
 62
     7
100
AcDbCircle
 10
800.5999999999998
 20
24.35
 30
0.0
 40
83.48844834628042
100
AcDbArc
 50
237.8339717021057
 51
302.1660282978942
  0
LINE
  5
352
330
1F
100
AcDbEntity
  8
1
  6
CONTINUOUS
 62
     7
100
AcDbLine
 10
483.4168195283489
 20
106.4230950377816
 30
0.0
 11
481.2189650554951
 21
98.22059047744875
 31
0.0
  0
LINE
  5
353
330
1F
100
AcDbEntity
  8
1
  6
CONTINUOUS
 62
     7
100
AcDbLine
 10
481.2189650554951
 20
-49.52059047744876
 30
0.0
 11
483.4168195283489
 21
-57.72309503778158
 31
0.0
  0
ARC
  5
354
330
1F
100
AcDbEntity
  8
1
  6
CONTINUOUS
 62
     7
100
AcDbCircle
 10
775.7384350693437
 20
-0.511564930656171
 30
0.0
 40
49.82316184445599
100
AcDbArc
 50
203.1476131578922
 51
246.8523868421078
  0
LINE
  5
355
330
1F
100
AcDbEntity
  8
1
  6
CONTINUOUS
 62
     7
100
AcDbLine
 10
873.6060463119863
 20
-15.69779702451868
 30
0.0
 11
874.2967674956857
 21
-14.48729954655219
 31
0.0
  0
LINE
  5
356
330
1F
100
AcDbEntity
  8
1
  6
CONTINUOUS
 62
     7
100
AcDbLine
 10
730.0619562577281
 20
-20.01381837402966
 30
0.0
 11
729.9262796391413
 21
-20.09711754011371
 31
0.0
  0
LINE
  5
357
330
1F
100
AcDbEntity
  8
1
  6
CONTINUOUS
 62
     7
100
AcDbLine
 10
873.6060463119866
 20
-15.69779702451864
 30
0.0
 11
871.9197919150046
 21
-18.5955745033859
 31
0.0
  0
ARC
  5
358
330
1F
100
AcDbEntity
  8
1
  6
CONTINUOUS
 62
     7
100
AcDbCircle
 10
800.5999999999998
 20
24.35
 30
0.0
 40
83.31372786281607
100
AcDbArc
 50
298.5386257250054
 51
331.4613742749946
  0
ARC
  5
359
330
1F
100
AcDbEntity
  8
1
  6
CONTINUOUS
 62
     7
100
AcDbCircle
 10
800.5999999999998
 20
24.35
 30
0.0
 40
83.25163715042139
100
AcDbArc
 50
301.0544618229083
 51
328.9455381770917
  0
LINE
  5
35A
330
1F
100
AcDbEntity
  8
1
  6
CONTINUOUS
 62
     7
100
AcDbLine
 10
583.3368339886073
 20
112.85
 30
0.0
 11
560.3368339886072
 21
112.85
 31
0.0
  0
ARC
  5
35B
330
1F
100
AcDbEntity
  8
1
  6
CONTINUOUS
 62
     7
100
AcDbCircle
 10
775.8529093696891
 20
49.0970906303107
 30
0.0
 40
49.81593514401806
100
AcDbArc
 50
113.1901687496381
 51
156.8098312503616
  0
ARC
  5
35C
330
1F
100
AcDbEntity
  8
1
  6
CONTINUOUS
 62
     7
100
AcDbCircle
 10
386.3368339886072
 20
111.85
 30
0.0
 40
1.000000000000001
100
AcDbArc
 50
0.0
 51
90.0
  0
LINE
  5
35D
330
1F
100
AcDbEntity
  8
1
  6
CONTINUOUS
 62
     7
100
AcDbLine
 10
463.2568484488655
 20
-57.72309503778158
 30
0.0
 11
465.4547029217193
 21
-49.52059047744876
 31
0.0
  0
LINE
  5
35E
330
1F
100
AcDbEntity
  8
1
  6
CONTINUOUS
 62
     7
100
AcDbLine
 10
756.2361816259702
 20
94.88804374227182
 30
0.0
 11
756.1528824598861
 21
95.02372036085865
 31
0.0
  0
ARC
  5
35F
330
1F
100
AcDbEntity
  8
1
  6
CONTINUOUS
 62
     7
100
AcDbCircle
 10
775.8529093696886
 20
-0.3970906303111896
 30
0.0
 40
49.81593514401738
100
AcDbArc
 50
203.1901687496379
 51
246.8098312503619
  0
LINE
  5
360
330
1F
100
AcDbEntity
  8
1
  6
CONTINUOUS
 62
     7
100
AcDbLine
 10
388.3292534555625
 20
-61.96053869463846
 30
0.0
 11
458.4651219826425
 21
-61.42885614900194
 31
0.0
  0
LINE
  5
361
330
1F
100
AcDbEntity
  8
1
  6
CONTINUOUS
 62
     7
100
AcDbLine
 10
458.4651219826425
 20
110.1288561490019
 30
0.0
 11
388.3292534555625
 21
110.6605386946385
 31
0.0
  0
LINE
  5
362
330
1F
100
AcDbEntity
  8
1
  6
CONTINUOUS
 62
     7
100
AcDbLine
 10
871.1380437422715
 20
68.71381837402967
 30
0.0
 11
871.2737203608583
 21
68.79711754011373
 31
0.0
  0
ARC
  5
363
330
1F
100
AcDbEntity
  8
1
  6
CONTINUOUS
 62
     7
100
AcDbCircle
 10
558.3368339886072
 20
111.6605099619851
 30
0.0
 40
1.000000000000001
100
AcDbArc
 50
270.4343367098083
 51
0.0
  0
ARC
  5
364
330
1F
100
AcDbEntity
  8
1
  6
CONTINUOUS
 62
     7
100
AcDbCircle
 10
800.5999999999998
 20
24.35
 30
0.0
 40
83.48844834628036
100
AcDbArc
 50
327.8339717021057
 51
32.16602829789417
  0
ARC
  5
365
330
1F
100
AcDbEntity
  8
1
  6
CONTINUOUS
 62
     7
100
AcDbCircle
 10
825.347090630311
 20
49.09709063031116
 30
0.0
 40
49.81593514401749
100
AcDbArc
 50
23.19016874963789
 51
66.8098312503618
  0
LINE
  5
366
330
1F
100
AcDbEntity
  8
1
  6
CONTINUOUS
 62
     7
100
AcDbLine
 10
843.5455745033858
 20
-46.96979191500463
 30
0.0
 11
840.6477970245185
 21
-48.65604631198612
 31
0.0
  0
LINE
  5
367
330
1F
100
AcDbEntity
  8
1
  6
CONTINUOUS
 62
     7
100
AcDbLine
 10
488.2085459945719
 20
-61.42885614900194
 30
0.0
 11
558.3444145216519
 21
-61.96053869463846
 31
0.0
  0
LINE
  5
368
330
1F
100
AcDbEntity
  8
1
  6
CONTINUOUS
 62
     7
100
AcDbLine
 10
363.3368339886072
 20
-64.14999999999999
 30
0.0
 11
386.3368339886072
 21
-64.14999999999999
 31
0.0
  0
LINE
  5
369
330
1F
100
AcDbEntity
  8
1
  6
CONTINUOUS
 62
     7
100
AcDbLine
 10
756.1528824598861
 20
-46.32372036085857
 30
0.0
 11
756.2361816259701
 21
-46.18804374227172
 31
0.0
  0
LINE
  5
36A
330
1F
100
AcDbEntity
  8
1
  6
CONTINUOUS
 62
     7
100
AcDbLine
 10
465.4547029217193
 20
98.22059047744875
 30
0.0
 11
463.2568484488655
 21
106.4230950377816
 31
0.0
  0
LINE
  5
36B
330
1F
100
AcDbEntity
  8
1
  6
CONTINUOUS
 62
     7
100
AcDbLine
 10
-816.3633251085029
 20
102.1956084713472
 30
0.0
 11
-818.8637056341047
 21
90.91712077212372
 31
0.0
  0
LINE
  5
36C
330
1F
100
AcDbEntity
  8
1
  6
CONTINUOUS
 62
     7
100
AcDbLine
 10
726.9032325043145
 20
-14.48729954655212
 30
0.0
 11
727.5939536880138
 21
-15.69779702451866
 31
0.0
  0
ARC
  5
36D
330
1F
100
AcDbEntity
  8
1
  6
CONTINUOUS
 62
     7
100
AcDbCircle
 10
800.9311305130258
 20
24.01886948697397
 30
0.0
 40
83.78590761962471
100
AcDbArc
 50
122.2383348942067
 51
147.7616651057931
  0
LINE
  5
36E
330
1F
100
AcDbEntity
  8
1
  6
CONTINUOUS
 62
     7
100
AcDbLine
 10
-830.2430069142831
 20
-53.4956084713478
 30
0.0
 11
-827.7426263886812
 21
-42.21712077212434
 31
0.0
  0
LINE
  5
36F
330
1F
100
AcDbEntity
  8
1
  6
CONTINUOUS
 62
   253
100
AcDbLine
 10
843.5455745033858
 20
-47.04226065179265
 30
0.0
 11
843.5455745033858
 21
-46.96979191500463
 31
0.0
  0
LINE
  5
370
330
1F
100
AcDbEntity
  8
1
  6
CONTINUOUS
 62
   253
100
AcDbLine
 10
871.9197919150046
 20
-18.5955745033859
 30
0.0
 11
871.9922606517927
 21
-18.5955745033859
 31
0.0
  0
LINE
  5
371
330
1F
100
AcDbEntity
  8
1
  6
CONTINUOUS
 62
   253
100
AcDbLine
 10
757.654425496614
 20
-46.96979191500463
 30
0.0
 11
757.654425496614
 21
-47.04226065179265
 31
0.0
  0
CIRCLE
  5
372
330
1F
100
AcDbEntity
  8
1
  6
CONTINUOUS
 62
   253
100
AcDbCircle
 10
800.5999999999998
 20
24.35
 30
0.0
 40
81.27951351923016
  0
LINE
  5
373
330
1F
100
AcDbEntity
  8
1
  6
CONTINUOUS
 62
     7
100
AcDbLine
 10
727.4092867891136
 20
64.15322537284132
 30
0.0
 11
726.8830158108278
 21
63.15322537283699
 31
0.0
  0
LINE
  5
374
330
1F
100
AcDbEntity
  8
1
  6
CONTINUOUS
 62
     7
100
AcDbLine
 10
757.654425496614
 20
95.66979191500464
 30
0.0
 11
760.5522029754812
 21
97.35604631198613
 31
0.0
  0
LINE
  5
375
330
1F
100
AcDbEntity
  8
1
  6
CONTINUOUS
 62
     7
100
AcDbLine
 10
760.5522029754811
 20
-48.65604631198654
 30
0.0
 11
761.7627004534477
 21
-49.3467674956859
 31
0.0
  0
CIRCLE
  5
376
330
1F
100
AcDbEntity
  8
1
  6
CONTINUOUS
 62
     7
100
AcDbCircle
 10
800.5999999999998
 20
24.35
 30
0.0
 40
61.49999999999999
  0
CIRCLE
  5
377
330
1F
100
AcDbEntity
  8
1
  6
CONTINUOUS
 62
     7
100
AcDbCircle
 10
-1111.9
 20
24.3500000000002
 30
0.0
 40
66.56955485287858
  0
LINE
  5
378
330
1F
100
AcDbEntity
  8
1
  6
CONTINUOUS
 62
     7
100
AcDbLine
 10
761.7967746271586
 20
98.06698419837497
 30
0.0
 11
760.7967746271586
 21
97.54071321088615
 31
0.0
  0
LINE
  5
379
330
1F
100
AcDbEntity
  8
1
  6
CONTINUOUS
 62
     7
100
AcDbLine
 10
760.7967746271586
 20
-48.84071321088614
 30
0.0
 11
761.7967746271629
 21
-49.36698418917209
 31
0.0
  0
LINE
  5
37A
330
1F
100
AcDbEntity
  8
1
  6
CONTINUOUS
 62
   253
100
AcDbLine
 10
871.9922606517924
 20
67.2955745033859
 30
0.0
 11
871.9197919150045
 21
67.29557450338591
 31
0.0
  0
LINE
  5
37B
330
1F
100
AcDbEntity
  8
1
  6
CONTINUOUS
 62
     7
100
AcDbLine
 10
874.3169841983748
 20
63.15322537284128
 30
0.0
 11
873.7907132108861
 21
64.15322537284129
 31
0.0
  0
CIRCLE
  5
37C
330
1F
100
AcDbEntity
  8
1
  6
CONTINUOUS
 62
   253
100
AcDbCircle
 10
800.5999999999998
 20
24.35
 30
0.0
 40
68.91180954897479
  0
ARC
  5
37D
330
1F
100
AcDbEntity
  8
1
  6
CONTINUOUS
 62
     7
100
AcDbCircle
 10
800.5999999999998
 20
24.35000000000002
 30
0.0
 40
83.25163715042143
100
AcDbArc
 50
211.0544618229083
 51
238.9455381770917
  0
LINE
  5
37E
330
1F
100
AcDbEntity
  8
1
  6
CONTINUOUS
 62
     7
100
AcDbLine
 10
727.5939536880132
 20
64.39779702451864
 30
0.0
 11
729.2802080849953
 21
67.29557450338591
 31
0.0
  0
LINE
  5
37F
330
1F
100
AcDbEntity
  8
1
  6
CONTINUOUS
 62
     7
100
AcDbLine
 10
761.7967746271629
 20
-49.36698418917209
 30
0.0
 11
761.7627004534476
 21
-49.34676749568614
 31
0.0
  0
LINE
  5
380
330
1F
100
AcDbEntity
  8
1
  6
CONTINUOUS
 62
     7
100
AcDbLine
 10
761.7627004534476
 20
98.04676749568615
 30
0.0
 11
761.7967746271586
 21
98.06698419837497
 31
0.0
  0
LINE
  5
381
330
1F
100
AcDbEntity
  8
1
  6
CONTINUOUS
 62
     7
100
AcDbLine
 10
760.5522029754812
 20
-48.65604631198663
 30
0.0
 11
757.654425496614
 21
-46.96979191500463
 31
0.0
  0
LINE
  5
382
330
1F
100
AcDbEntity
  8
1
  6
CONTINUOUS
 62
     7
100
AcDbLine
 10
874.296767495686
 20
63.18729954655218
 30
0.0
 11
874.3169841983748
 21
63.15322537284129
 31
0.0
  0
CIRCLE
  5
383
330
1F
100
AcDbEntity
  8
1
  6
CONTINUOUS
 62
     7
100
AcDbCircle
 10
-1111.9
 20
24.35
 30
0.0
 40
61.49999999999999
  0
ARC
  5
384
330
1F
100
AcDbEntity
  8
1
  6
CONTINUOUS
 62
     7
100
AcDbCircle
 10
800.5999999999998
 20
24.35000000000002
 30
0.0
 40
83.31372786281607
100
AcDbArc
 50
208.5386257250054
 51
241.4613742749946
  0
LINE
  5
385
330
1F
100
AcDbEntity
  8
1
  6
CONTINUOUS
 62
   253
100
AcDbLine
 10
873.6060463119861
 20
64.39779702451861
 30
0.0
 11
873.6571776342496
 21
64.3977970245187
 31
0.0
  0
LINE
  5
386
330
1F
100
AcDbEntity
  8
1
  6
CONTINUOUS
 62
     7
100
AcDbLine
 10
-889.3031660113929
 20
89.35000000000022
 30
0.0
 11
-889.3031660113929
 21
-40.64999999999979
 31
0.0
  0
ARC
  5
387
330
1F
100
AcDbEntity
  8
1
  6
CONTINUOUS
 62
     7
100
AcDbCircle
 10
-740.8031660113928
 20
70.85000000000015
 30
0.0
 40
35.00000000000001
100
AcDbArc
 50
79.48933466066963
 51
100.5106653393304
  0
LINE
  5
388
330
1F
100
AcDbEntity
  8
1
  6
CONTINUOUS
 62
   253
100
AcDbLine
 10
843.5455745033858
 20
95.66979191500462
 30
0.0
 11
843.5455745033858
 21
95.74226065179265
 31
0.0
  0
LINE
  5
389
330
1F
100
AcDbEntity
  8
1
  6
CONTINUOUS
 62
     7
100
AcDbLine
 10
839.4032253728368
 20
98.06698418917209
 30
0.0
 11
839.437299546552
 21
98.04676749568614
 31
0.0
  0
LINE
  5
38A
330
1F
100
AcDbEntity
  8
1
  6
CONTINUOUS
 62
   253
100
AcDbLine
 10
729.2077393482072
 20
-18.59557450338589
 30
0.0
 11
729.2802080849953
 21
-18.5955745033859
 31
0.0
  0
LINE
  5
38B
330
1F
100
AcDbEntity
  8
1
  6
CONTINUOUS
 62
   253
100
AcDbLine
 10
840.6477970245185
 20
-48.65604631198612
 30
0.0
 11
840.6477970245185
 21
-48.70717763424975
 31
0.0
  0
LINE
  5
38C
330
1F
100
AcDbEntity
  8
1
  6
CONTINUOUS
 62
   253
100
AcDbLine
 10
727.5428223657501
 20
64.3977970245187
 30
0.0
 11
727.5939536880132
 21
64.39779702451864
 31
0.0
  0
LINE
  5
38D
330
1F
100
AcDbEntity
  8
1
  6
CONTINUOUS
 62
     7
100
AcDbLine
 10
874.316984189172
 20
-14.45322537283698
 30
0.0
 11
874.296767495686
 21
-14.48729954655217
 31
0.0
  0
LINE
  5
38E
330
1F
100
AcDbEntity
  8
1
  6
CONTINUOUS
 62
   253
100
AcDbLine
 10
873.6571776342496
 20
-15.69779702451869
 30
0.0
 11
873.6060463119865
 21
-15.69779702451864
 31
0.0
  0
ARC
  5
38F
330
1F
100
AcDbEntity
  8
1
  6
CONTINUOUS
 62
     7
100
AcDbCircle
 10
800.5999999999998
 20
24.35
 30
0.0
 40
83.31372786281607
100
AcDbArc
 50
118.5386257250054
 51
151.4613742749946
  0
CIRCLE
  5
390
330
1F
100
AcDbEntity
  8
1
  6
CONTINUOUS
 62
   253
100
AcDbCircle
 10
-1111.9
 20
24.35000000000021
 30
0.0
 40
77.84560847134749
  0
LINE
  5
391
330
1F
100
AcDbEntity
  8
1
  6
CONTINUOUS
 62
     7
100
AcDbLine
 10
729.2802080849953
 20
-18.5955745033859
 30
0.0
 11
727.5939536880137
 21
-15.6977970245186
 31
0.0
  0
LINE
  5
392
330
1F
100
AcDbEntity
  8
1
  6
CONTINUOUS
 62
   253
100
AcDbLine
 10
760.5522029754812
 20
97.35604631198613
 30
0.0
 11
760.5522029754812
 21
97.40717763424975
 31
0.0
  0
LINE
  5
393
330
1F
100
AcDbEntity
  8
1
  6
CONTINUOUS
 62
   253
100
AcDbLine
 10
757.654425496614
 20
95.74226065179265
 30
0.0
 11
757.654425496614
 21
95.66979191500464
 31
0.0
  0
LINE
  5
394
330
1F
100
AcDbEntity
  8
1
  6
CONTINUOUS
 62
     7
100
AcDbLine
 10
761.7627004534478
 20
98.04676749568536
 30
0.0
 11
760.5522029754812
 21
97.35604631198598
 31
0.0
  0
CIRCLE
  5
395
330
1F
100
AcDbEntity
  8
1
  6
CONTINUOUS
 62
     7
100
AcDbCircle
 10
-1111.9
 20
24.35000000000021
 30
0.0
 40
81.49999999999999
  0
ARC
  5
396
330
1F
100
AcDbEntity
  8
1
  6
CONTINUOUS
 62
     7
100
AcDbCircle
 10
800.9311305130252
 20
24.68113051302533
 30
0.0
 40
83.78590761962379
100
AcDbArc
 50
212.2383348942066
 51
237.7616651057933
  0
LINE
  5
397
330
1F
100
AcDbEntity
  8
1
  6
CONTINUOUS
 62
     7
100
AcDbLine
 10
-785.8637056341048
 20
-42.21712077212309
 30
0.0
 11
-783.3633251085026
 21
-53.49560847134755
 31
0.0
  0
LINE
  5
398
330
1F
100
AcDbEntity
  8
1
  6
CONTINUOUS
 62
     7
100
AcDbLine
 10
-818.8637056341047
 20
-42.21712077212307
 30
0.0
 11
-816.3633251085029
 21
-53.49560847134654
 31
0.0
  0
LINE
  5
399
330
1F
100
AcDbEntity
  8
1
  6
CONTINUOUS
 62
     7
100
AcDbLine
 10
-827.7426263886812
 20
90.91712077212448
 30
0.0
 11
-830.2430069142831
 21
102.1956084713479
 31
0.0
  0
LINE
  5
39A
330
1F
100
AcDbEntity
  8
1
  6
CONTINUOUS
 62
     7
100
AcDbLine
 10
-783.3633251085026
 20
102.1956084713482
 30
0.0
 11
-785.8637056341048
 21
90.91712077212371
 31
0.0
  0
LINE
  5
39B
330
1F
100
AcDbEntity
  8
1
  6
CONTINUOUS
 62
     7
100
AcDbLine
 10
-884.8637056341048
 20
-42.21712077212278
 30
0.0
 11
-882.3633251085026
 21
-53.49560847134716
 31
0.0
  0
LINE
  5
39C
330
1F
100
AcDbEntity
  8
1
  6
CONTINUOUS
 62
     7
100
AcDbLine
 10
-882.3633251085026
 20
102.1956084713478
 30
0.0
 11
-884.8637056341048
 21
90.91712077212341
 31
0.0
  0
ARC
  5
39D
330
1F
100
AcDbEntity
  8
1
  6
CONTINUOUS
 62
     7
100
AcDbCircle
 10
800.2627696299496
 20
24.01276962994984
 30
0.0
 40
83.79432104455158
100
AcDbArc
 50
32.2396378526384
 51
57.76036214736147
  0
CIRCLE
  5
39E
330
1F
100
AcDbEntity
  8
1
  6
CONTINUOUS
 62
     7
100
AcDbCircle
 10
-1111.9
 20
24.35000000000022
 30
0.0
 40
63.07363300002376
  0
LINE
  5
39F
330
1F
100
AcDbEntity
  8
1
  6
CONTINUOUS
 62
     7
100
AcDbLine
 10
-662.7426263886812
 20
90.91712077212341
 30
0.0
 11
-665.243006914283
 21
102.1956084713469
 31
0.0
  0
LINE
  5
3A0
330
1F
100
AcDbEntity
  8
1
  6
CONTINUOUS
 62
     7
100
AcDbLine
 10
727.5939536880132
 20
64.39779702451875
 30
0.0
 11
726.9032325043139
 21
63.18729954655214
 31
0.0
  0
LINE
  5
3A1
330
1F
100
AcDbEntity
  8
1
  6
CONTINUOUS
 62
   253
100
AcDbLine
 10
760.5522029754812
 20
-48.70717763424975
 30
0.0
 11
760.5522029754812
 21
-48.65604631198663
 31
0.0
  0
ARC
  5
3A2
330
1F
100
AcDbEntity
  8
1
  6
CONTINUOUS
 62
     7
100
AcDbCircle
 10
800.5999999999998
 20
24.35
 30
0.0
 40
83.2516371504214
100
AcDbArc
 50
121.0544618229083
 51
148.9455381770917
  0
ARC
  5
3A3
330
1F
100
AcDbEntity
  8
1
  6
CONTINUOUS
 62
     7
100
AcDbCircle
 10
800.5999999999998
 20
24.34999999999998
 30
0.0
 40
83.3137278628161
100
AcDbArc
 50
28.53862572500543
 51
61.46137427499458
  0
ARC
  5
3A4
330
1F
100
AcDbEntity
  8
1
  6
CONTINUOUS
 62
     7
100
AcDbCircle
 10
800.268869486974
 20
24.68113051302596
 30
0.0
 40
83.78590761962457
100
AcDbArc
 50
302.2383348942067
 51
327.7616651057932
  0
LINE
  5
3A5
330
1F
100
AcDbEntity
  8
1
  6
CONTINUOUS
 62
     7
100
AcDbLine
 10
839.4097378303564
 20
-49.36255638177422
 30
0.0
 11
839.4032253728411
 21
-49.36698419837495
 31
0.0
  0
LINE
  5
3A6
330
1F
100
AcDbEntity
  8
1
  6
CONTINUOUS
 62
     7
100
AcDbLine
 10
726.8830158108278
 20
63.15322537283699
 30
0.0
 11
726.9032325043138
 21
63.1872995465522
 31
0.0
  0
LINE
  5
3A7
330
1F
100
AcDbEntity
  8
1
  6
CONTINUOUS
 62
   253
100
AcDbLine
 10
729.2802080849953
 20
67.29557450338591
 30
0.0
 11
729.2077393482072
 21
67.29557450338591
 31
0.0
  0
LINE
  5
3A8
330
1F
100
AcDbEntity
  8
1
  6
CONTINUOUS
 62
   253
100
AcDbLine
 10
840.6477970245185
 20
97.40717763424975
 30
0.0
 11
840.6477970245185
 21
97.35604631198663
 31
0.0
  0
CIRCLE
  5
3A9
330
1F
100
AcDbEntity
  8
1
  6
CONTINUOUS
 62
   253
100
AcDbCircle
 10
800.5999999999998
 20
24.35
 30
0.0
 40
82.76181519336266
  0
ARC
  5
3AA
330
1F
100
AcDbEntity
  8
1
  6
CONTINUOUS
 62
     7
100
AcDbCircle
 10
-740.8031660113928
 20
-22.14999999999982
 30
0.0
 40
34.99999999999999
100
AcDbArc
 50
259.4893346606696
 51
280.5106653393304
  0
LINE
  5
3AB
330
1F
100
AcDbEntity
  8
1
  6
CONTINUOUS
 62
     7
100
AcDbLine
 10
-618.3633251085029
 20
102.1956084713471
 30
0.0
 11
-620.8637056341047
 21
90.91712077212364
 31
0.0
  0
ARC
  5
3AC
330
1F
100
AcDbEntity
  8
1
  6
CONTINUOUS
 62
     7
100
AcDbCircle
 10
-707.8031660113929
 20
70.85000000000014
 30
0.0
 40
35.0
100
AcDbArc
 50
79.48933466066963
 51
100.5106653393303
  0
LINE
  5
3AD
330
1F
100
AcDbEntity
  8
1
  6
CONTINUOUS
 62
     7
100
AcDbLine
 10
-629.7426263886813
 20
90.9171207721244
 30
0.0
 11
-632.2430069142831
 21
102.1956084713479
 31
0.0
  0
LINE
  5
3AE
330
1F
100
AcDbEntity
  8
1
  6
CONTINUOUS
 62
     7
100
AcDbLine
 10
-227.3630069142829
 20
-53.49560847134758
 30
0.0
 11
-224.8626263886811
 21
-42.2171207721242
 31
0.0
  0
ARC
  5
3AF
330
1F
100
AcDbEntity
  8
1
  6
CONTINUOUS
 62
     7
100
AcDbCircle
 10
-63.04316601139287
 20
70.84999999999997
 30
0.0
 40
34.99999999999999
100
AcDbArc
 50
79.48933466066963
 51
100.5106653393304
  0
ARC
  5
3B0
330
1F
100
AcDbEntity
  8
1
  6
CONTINUOUS
 62
     7
100
AcDbCircle
 10
-368.9231660113928
 20
70.85
 30
0.0
 40
34.99999999999999
100
AcDbArc
 50
79.48933466066963
 51
100.5106653393304
  0
LINE
  5
3B1
330
1F
100
AcDbEntity
  8
1
  6
CONTINUOUS
 62
   253
100
AcDbLine
 10
-16.03003437444123
 20
-40.65000000000003
 30
0.0
 11
-16.03003437444123
 21
89.34999999999998
 31
0.0
  0
LINE
  5
3B2
330
1F
100
AcDbEntity
  8
1
  6
CONTINUOUS
 62
   253
100
AcDbLine
 10
322.8499656255588
 20
-40.65
 30
0.0
 11
322.8499656255588
 21
89.35000000000001
 31
0.0
  0
LINE
  5
3B3
330
1F
100
AcDbEntity
  8
1
  6
CONTINUOUS
 62
   253
100
AcDbLine
 10
-217.9362976483445
 20
-40.65000000000003
 30
0.0
 11
-217.9362976483445
 21
89.34999999999998
 31
0.0
  0
LINE
  5
3B4
330
1F
100
AcDbEntity
  8
1
  6
CONTINUOUS
 62
   253
100
AcDbLine
 10
82.96996562555874
 20
89.34999999999995
 30
0.0
 11
82.96996562555874
 21
-40.65000000000005
 31
0.0
  0
LINE
  5
3B5
330
1F
100
AcDbEntity
  8
1
  6
CONTINUOUS
 62
   253
100
AcDbLine
 10
-554.862626388681
 20
90.91712077212385
 30
0.0
 11
-554.862626388681
 21
-42.21712077212375
 31
0.0
  0
LINE
  5
3B6
330
1F
100
AcDbEntity
  8
1
  6
CONTINUOUS
 62
   253
100
AcDbLine
 10
-110.0562976483445
 20
-40.65000000000001
 30
0.0
 11
-110.0562976483445
 21
89.34999999999998
 31
0.0
  0
LINE
  5
3B7
330
1F
100
AcDbEntity
  8
1
  6
CONTINUOUS
 62
   253
100
AcDbLine
 10
-255.9100343744412
 20
89.34999999999997
 30
0.0
 11
-255.9100343744412
 21
-40.65000000000003
 31
0.0
  0
LINE
  5
3B8
330
1F
100
AcDbEntity
  8
1
  6
CONTINUOUS
 62
   253
100
AcDbLine
 10
-349.9362976483445
 20
89.35
 30
0.0
 11
-349.9362976483445
 21
-40.65000000000001
 31
0.0
  0
LINE
  5
3B9
330
1F
100
AcDbEntity
  8
1
  6
CONTINUOUS
 62
   253
100
AcDbLine
 10
-250.9362976483445
 20
-40.65000000000003
 30
0.0
 11
-250.9362976483445
 21
89.34999999999998
 31
0.0
  0
LINE
  5
3BA
330
1F
100
AcDbEntity
  8
1
  6
CONTINUOUS
 62
   253
100
AcDbLine
 10
-622.8162976483445
 20
-40.64999999999987
 30
0.0
 11
-622.8162976483445
 21
89.35000000000012
 31
0.0
  0
LINE
  5
3BB
330
1F
100
AcDbEntity
  8
1
  6
CONTINUOUS
 62
   253
100
AcDbLine
 10
-209.0562976483445
 20
89.35
 30
0.0
 11
-209.0562976483445
 21
-40.65000000000001
 31
0.0
  0
LINE
  5
3BC
330
1F
100
AcDbEntity
  8
1
  6
CONTINUOUS
 62
   253
100
AcDbLine
 10
-415.9362976483444
 20
-40.64999999999998
 30
0.0
 11
-415.9362976483444
 21
89.35000000000002
 31
0.0
  0
LINE
  5
3BD
330
1F
100
AcDbEntity
  8
1
  6
CONTINUOUS
 62
   253
100
AcDbLine
 10
558.3444145216516
 20
63.15325410549469
 30
0.0
 11
558.3444145216522
 21
-14.45325410549467
 31
0.0
  0
LINE
  5
3BE
330
1F
100
AcDbEntity
  8
1
  6
CONTINUOUS
 62
     7
100
AcDbLine
 10
558.0780149435059
 20
-14.48729954655186
 30
0.0
 11
553.5603768533008
 21
-15.69779702451835
 31
0.0
  0
LINE
  5
3BF
330
1F
100
AcDbEntity
  8
1
  6
CONTINUOUS
 62
   253
100
AcDbLine
 10
-453.9100343744412
 20
89.35000000000002
 30
0.0
 11
-453.9100343744412
 21
-40.64999999999998
 31
0.0
  0
LINE
  5
3C0
330
1F
100
AcDbEntity
  8
1
  6
CONTINUOUS
 62
   253
100
AcDbLine
 10
195.8237023516556
 20
-40.65
 30
0.0
 11
195.8237023516556
 21
89.35000000000001
 31
0.0
  0
LINE
  5
3C1
330
1F
100
AcDbEntity
  8
1
  6
CONTINUOUS
 62
   253
100
AcDbLine
 10
-787.8162976483446
 20
-40.64999999999981
 30
0.0
 11
-787.8162976483446
 21
89.35000000000018
 31
0.0
  0
LINE
  5
3C2
330
1F
100
AcDbEntity
  8
1
  6
CONTINUOUS
 62
     7
100
AcDbLine
 10
553.5603768532994
 20
-52.06612381785064
 30
0.0
 11
558.0780149435045
 21
-52.72674518282543
 31
0.0
  0
LINE
  5
3C3
330
1F
100
AcDbEntity
  8
1
  6
CONTINUOUS
 62
   253
100
AcDbLine
 10
-627.7900343744412
 20
-40.64999999999987
 30
0.0
 11
-627.7900343744412
 21
89.35000000000012
 31
0.0
  0
LINE
  5
3C4
330
1F
100
AcDbEntity
  8
1
  6
CONTINUOUS
 62
   253
100
AcDbLine
 10
-589.8162976483446
 20
-40.64999999999988
 30
0.0
 11
-589.8162976483446
 21
89.35000000000012
 31
0.0
  0
LINE
  5
3C5
330
1F
100
AcDbEntity
  8
1
  6
CONTINUOUS
 62
   253
100
AcDbLine
 10
-283.9362976483444
 20
-40.65000000000001
 30
0.0
 11
-283.9362976483444
 21
89.34999999999998
 31
0.0
  0
LINE
  5
3C6
330
1F
100
AcDbEntity
  8
1
  6
CONTINUOUS
 62
   253
100
AcDbLine
 10
-825.7900343744412
 20
-40.64999999999981
 30
0.0
 11
-825.7900343744412
 21
89.35000000000021
 31
0.0
  0
LINE
  5
3C7
330
1F
100
AcDbEntity
  8
1
  6
CONTINUOUS
 62
     7
100
AcDbLine
 10
388.5956530337096
 20
-52.72674518282549
 30
0.0
 11
388.3292534555638
 21
-52.7461513992955
 31
0.0
  0
LINE
  5
3C8
330
1F
100
AcDbEntity
  8
1
  6
CONTINUOUS
 62
   253
100
AcDbLine
 10
-382.9362976483444
 20
89.35000000000001
 30
0.0
 11
-382.9362976483444
 21
-40.64999999999999
 31
0.0
  0
LINE
  5
3C9
330
1F
100
AcDbEntity
  8
1
  6
CONTINUOUS
 62
   253
100
AcDbLine
 10
-214.0300343744412
 20
-40.65
 30
0.0
 11
-214.0300343744412
 21
89.35000000000001
 31
0.0
  0
LINE
  5
3CA
330
1F
100
AcDbEntity
  8
1
  6
CONTINUOUS
 62
   253
100
AcDbLine
 10
-222.9100343744412
 20
89.34999999999997
 30
0.0
 11
-222.9100343744412
 21
-40.65000000000003
 31
0.0
  0
LINE
  5
3CB
330
1F
100
AcDbEntity
  8
1
  6
CONTINUOUS
 62
   253
100
AcDbLine
 10
-556.8162976483447
 20
-40.6499999999999
 30
0.0
 11
-556.8162976483447
 21
89.3500000000001
 31
0.0
  0
LINE
  5
3CC
330
1F
100
AcDbEntity
  8
1
  6
CONTINUOUS
 62
   253
100
AcDbLine
 10
-693.7900343744413
 20
-40.64999999999986
 30
0.0
 11
-693.7900343744413
 21
89.35000000000015
 31
0.0
  0
LINE
  5
3CD
330
1F
100
AcDbEntity
  8
1
  6
CONTINUOUS
 62
   253
100
AcDbLine
 10
-552.9100343744412
 20
-40.64999999999994
 30
0.0
 11
-552.9100343744412
 21
89.35000000000007
 31
0.0
  0
LINE
  5
3CE
330
1F
100
AcDbEntity
  8
1
  6
CONTINUOUS
 62
     7
100
AcDbLine
 10
558.0780149435046
 20
101.4267451828246
 30
0.0
 11
553.5603768532999
 21
100.7661238178499
 31
0.0
  0
LINE
  5
3CF
330
1F
100
AcDbEntity
  8
1
  6
CONTINUOUS
 62
     7
100
AcDbLine
 10
388.5956530337096
 20
-52.72674518282545
 30
0.0
 11
393.1132911239146
 21
-52.06612381785068
 31
0.0
  0
LINE
  5
3D0
330
1F
100
AcDbEntity
  8
1
  6
CONTINUOUS
 62
   253
100
AcDbLine
 10
-792.7900343744412
 20
89.35000000000018
 30
0.0
 11
-792.7900343744412
 21
-40.64999999999982
 31
0.0
  0
LINE
  5
3D1
330
1F
100
AcDbEntity
  8
1
  6
CONTINUOUS
 62
   253
100
AcDbLine
 10
355.8499656255588
 20
-40.65
 30
0.0
 11
355.8499656255588
 21
89.35000000000001
 31
0.0
  0
ARC
  5
3D2
330
1F
100
AcDbEntity
  8
1
  6
CONTINUOUS
 62
     7
100
AcDbCircle
 10
554.3369605116762
 20
67.29567158795128
 30
0.0
 40
3.000126524639749
100
AcDbArc
 50
180.0018541004207
 51
254.9981458995813
  0
LINE
  5
3D3
330
1F
100
AcDbEntity
  8
1
  6
CONTINUOUS
 62
   253
100
AcDbLine
 10
-316.9362976483445
 20
89.34999999999998
 30
0.0
 11
-316.9362976483445
 21
-40.65000000000002
 31
0.0
  0
LINE
  5
3D4
330
1F
100
AcDbEntity
  8
1
  6
CONTINUOUS
 62
     7
100
AcDbLine
 10
558.0780149435049
 20
-52.72674518282549
 30
0.0
 11
558.3444145216506
 21
-52.7461513992955
 31
0.0
  0
LINE
  5
3D5
330
1F
100
AcDbEntity
  8
1
  6
CONTINUOUS
 62
     7
100
AcDbLine
 10
553.5603768533001
 20
64.39779702451855
 30
0.0
 11
558.0780149435053
 21
63.18729954655203
 31
0.0
  0
LINE
  5
3D6
330
1F
100
AcDbEntity
  8
1
  6
CONTINUOUS
 62
   253
100
AcDbLine
 10
-420.9100343744412
 20
89.35000000000001
 30
0.0
 11
-420.9100343744412
 21
-40.64999999999999
 31
0.0
  0
LINE
  5
3D7
330
1F
100
AcDbEntity
  8
1
  6
CONTINUOUS
 62
   253
100
AcDbLine
 10
-853.8162976483446
 20
89.35000000000021
 30
0.0
 11
-853.8162976483446
 21
-40.6499999999998
 31
0.0
  0
LINE
  5
3D8
330
1F
100
AcDbEntity
  8
1
  6
CONTINUOUS
 62
   253
100
AcDbLine
 10
-354.9100343744412
 20
-40.65
 30
0.0
 11
-354.9100343744412
 21
89.35000000000001
 31
0.0
  0
LINE
  5
3D9
330
1F
100
AcDbEntity
  8
1
  6
CONTINUOUS
 62
   253
100
AcDbLine
 10
162.8237023516556
 20
89.35
 30
0.0
 11
162.8237023516556
 21
-40.65000000000001
 31
0.0
  0
LINE
  5
3DA
330
1F
100
AcDbEntity
  8
1
  6
CONTINUOUS
 62
   253
100
AcDbLine
 10
-181.0300343744412
 20
-40.65
 30
0.0
 11
-181.0300343744412
 21
89.35000000000001
 31
0.0
  0
LINE
  5
3DB
330
1F
100
AcDbEntity
  8
1
  6
CONTINUOUS
 62
   253
100
AcDbLine
 10
-176.0562976483445
 20
89.35
 30
0.0
 11
-176.0562976483445
 21
-40.65000000000001
 31
0.0
  0
LINE
  5
3DC
330
1F
100
AcDbEntity
  8
1
  6
CONTINUOUS
 62
     7
100
AcDbLine
 10
551.3368339886073
 20
-18.59557450338582
 30
0.0
 11
551.3368339886073
 21
-50.45654677783817
 31
0.0
  0
LINE
  5
3DD
330
1F
100
AcDbEntity
  8
1
  6
CONTINUOUS
 62
   253
100
AcDbLine
 10
-594.7900343744413
 20
89.35000000000011
 30
0.0
 11
-594.7900343744413
 21
-40.64999999999989
 31
0.0
  0
LINE
  5
3DE
330
1F
100
AcDbEntity
  8
1
  6
CONTINUOUS
 62
     7
100
AcDbLine
 10
395.3368339886071
 20
-18.59557450338582
 30
0.0
 11
395.3368339886071
 21
-50.45654677783817
 31
0.0
  0
LINE
  5
3DF
330
1F
100
AcDbEntity
  8
1
  6
CONTINUOUS
 62
     7
100
AcDbLine
 10
363.3368339886072
 20
112.85
 30
0.0
 11
363.3368339886072
 21
-64.14999999999999
 31
0.0
  0
LINE
  5
3E0
330
1F
100
AcDbEntity
  8
1
  6
CONTINUOUS
 62
   253
100
AcDbLine
 10
-519.9100343744412
 20
-40.64999999999996
 30
0.0
 11
-519.9100343744412
 21
89.35000000000004
 31
0.0
  0
LINE
  5
3E1
330
1F
100
AcDbEntity
  8
1
  6
CONTINUOUS
 62
   253
100
AcDbLine
 10
49.96996562555878
 20
-40.65000000000003
 30
0.0
 11
49.96996562555878
 21
89.34999999999998
 31
0.0
  0
LINE
  5
3E2
330
1F
100
AcDbEntity
  8
1
  6
CONTINUOUS
 62
   253
100
AcDbLine
 10
223.8499656255589
 20
89.35
 30
0.0
 11
223.8499656255589
 21
-40.65000000000001
 31
0.0
  0
LINE
  5
3E3
330
1F
100
AcDbEntity
  8
1
  6
CONTINUOUS
 62
   253
100
AcDbLine
 10
-215.9826263886811
 20
90.9171207721238
 30
0.0
 11
-215.9826263886811
 21
-42.21712077212381
 31
0.0
  0
LINE
  5
3E4
330
1F
100
AcDbEntity
  8
1
  6
CONTINUOUS
 62
   253
100
AcDbLine
 10
-148.0300343744412
 20
-40.65000000000001
 30
0.0
 11
-148.0300343744412
 21
89.34999999999998
 31
0.0
  0
LINE
  5
3E5
330
1F
100
AcDbEntity
  8
1
  6
CONTINUOUS
 62
   253
100
AcDbLine
 10
-82.03003437444117
 20
89.34999999999998
 30
0.0
 11
-82.03003437444117
 21
-40.65000000000002
 31
0.0
  0
LINE
  5
3E6
330
1F
100
AcDbEntity
  8
1
  6
CONTINUOUS
 62
   253
100
AcDbLine
 10
-486.9100343744411
 20
-40.64999999999997
 30
0.0
 11
-486.9100343744411
 21
89.35000000000004
 31
0.0
  0
LINE
  5
3E7
330
1F
100
AcDbEntity
  8
1
  6
CONTINUOUS
 62
   253
100
AcDbLine
 10
-448.9362976483445
 20
-40.64999999999997
 30
0.0
 11
-448.9362976483445
 21
89.35000000000004
 31
0.0
  0
LINE
  5
3E8
330
1F
100
AcDbEntity
  8
1
  6
CONTINUOUS
 62
   253
100
AcDbLine
 10
-660.7900343744413
 20
-40.64999999999986
 30
0.0
 11
-660.7900343744413
 21
89.35000000000015
 31
0.0
  0
LINE
  5
3E9
330
1F
100
AcDbEntity
  8
1
  6
CONTINUOUS
 62
   253
100
AcDbLine
 10
-321.9100343744411
 20
-40.65
 30
0.0
 11
-321.9100343744411
 21
89.35000000000001
 31
0.0
  0
LINE
  5
3EA
330
1F
100
AcDbEntity
  8
1
  6
CONTINUOUS
 62
   253
100
AcDbLine
 10
157.8499656255589
 20
-40.65
 30
0.0
 11
157.8499656255589
 21
89.35000000000001
 31
0.0
  0
LINE
  5
3EB
330
1F
100
AcDbEntity
  8
1
  6
CONTINUOUS
 62
   253
100
AcDbLine
 10
115.9699656255588
 20
89.34999999999995
 30
0.0
 11
115.9699656255588
 21
-40.65000000000005
 31
0.0
  0
LINE
  5
3EC
330
1F
100
AcDbEntity
  8
1
  6
CONTINUOUS
 62
   253
100
AcDbLine
 10
129.8237023516556
 20
89.35
 30
0.0
 11
129.8237023516556
 21
-40.65000000000001
 31
0.0
  0
ARC
  5
3ED
330
1F
100
AcDbEntity
  8
1
  6
CONTINUOUS
 62
     7
100
AcDbCircle
 10
553.8705627186682
 20
94.222014084388
 30
0.0
 40
3.149344896116982
100
AcDbArc
 50
95.65235049084197
 51
135.3847095406513
  0
ARC
  5
3EE
330
1F
100
AcDbEntity
  8
1
  6
CONTINUOUS
 62
     7
100
AcDbCircle
 10
392.3365821962067
 20
-18.59576771048997
 30
0.0
 40
3.000251798621289
100
AcDbArc
 50
0.0036896741959254
 51
74.99631032580635
  0
ARC
  5
3EF
330
1F
100
AcDbEntity
  8
1
  6
CONTINUOUS
 62
     7
100
AcDbCircle
 10
558.349326257927
 20
96.33452210856987
 30
0.0
 40
1.733607249359636
100
AcDbArc
 50
69.08601714399043
 51
99.00386126116354
  0
LINE
  5
3F0
330
1F
100
AcDbEntity
  8
1
  6
CONTINUOUS
 62
     7
100
AcDbLine
 10
388.3292534555627
 20
101.4461513992955
 30
0.0
 11
388.5956530337095
 21
101.4267451828248
 31
0.0
  0
LINE
  5
3F1
330
1F
100
AcDbEntity
  8
1
  6
CONTINUOUS
 62
     7
100
AcDbLine
 10
395.3368339886071
 20
99.1565467778382
 30
0.0
 11
395.3368339886071
 21
67.29557450338585
 31
0.0
  0
ARC
  5
3F2
330
1F
100
AcDbEntity
  8
1
  6
CONTINUOUS
 62
     7
100
AcDbCircle
 10
552.3563752340166
 20
99.15306483376877
 30
0.0
 40
1.019547191171294
100
AcDbArc
 50
153.4763000373141
 51
179.804323831964
  0
ARC
  5
3F3
330
1F
100
AcDbEntity
  8
1
  6
CONTINUOUS
 62
     7
100
AcDbCircle
 10
553.8770268256783
 20
-48.79179103765784
 30
0.0
 40
3.289608238142189
100
AcDbArc
 50
227.801397556093
 51
264.4762901434286
  0
LINE
  5
3F4
330
1F
100
AcDbEntity
  8
1
  6
CONTINUOUS
 62
     7
100
AcDbLine
 10
553.5603768532998
 20
-48.65604631198659
 30
0.0
 11
558.0780149435045
 21
-49.34676749568591
 31
0.0
  0
LINE
  5
3F5
330
1F
100
AcDbEntity
  8
1
  6
CONTINUOUS
 62
     7
100
AcDbLine
 10
551.5262131098332
 20
99.75070885712307
 30
0.0
 11
551.4441356714948
 21
99.60836194071668
 31
0.0
  0
LINE
  5
3F6
330
1F
100
AcDbEntity
  8
1
  6
CONTINUOUS
 62
   253
100
AcDbLine
 10
483.4168195283489
 20
106.4230950377816
 30
0.0
 11
483.4168195283489
 21
-57.72309503778157
 31
0.0
  0
LINE
  5
3F7
330
1F
100
AcDbEntity
  8
1
  6
CONTINUOUS
 62
   253
100
AcDbLine
 10
-655.8162976483445
 20
89.35000000000012
 30
0.0
 11
-655.8162976483445
 21
-40.64999999999988
 31
0.0
  0
LINE
  5
3F8
330
1F
100
AcDbEntity
  8
1
  6
CONTINUOUS
 62
     7
100
AcDbLine
 10
551.3368339886073
 20
99.1565467778382
 30
0.0
 11
551.3368339886073
 21
67.29557450338585
 31
0.0
  0
LINE
  5
3F9
330
1F
100
AcDbEntity
  8
1
  6
CONTINUOUS
 62
   253
100
AcDbLine
 10
-561.7900343744413
 20
89.3500000000001
 30
0.0
 11
-561.7900343744413
 21
-40.64999999999991
 31
0.0
  0
LINE
  5
3FA
330
1F
100
AcDbEntity
  8
1
  6
CONTINUOUS
 62
   253
100
AcDbLine
 10
466.5753532045837
 20
94.00382800679898
 30
0.0
 11
465.8284081180193
 21
96.7970570816611
 31
0.0
  0
LINE
  5
3FB
330
1F
100
AcDbEntity
  8
1
  6
CONTINUOUS
 62
     7
100
AcDbLine
 10
393.1132911239151
 20
97.35604631198593
 30
0.0
 11
388.5956530337098
 21
98.04676749568534
 31
0.0
  0
LINE
  5
3FC
330
1F
100
AcDbEntity
  8
1
  6
CONTINUOUS
 62
   253
100
AcDbLine
 10
480.8452598591951
 20
-48.09705708166111
 30
0.0
 11
480.0983147726307
 21
-45.30382800679899
 31
0.0
  0
LINE
  5
3FD
330
1F
100
AcDbEntity
  8
1
  6
CONTINUOUS
 62
   253
100
AcDbLine
 10
465.4547029217193
 20
23.78925327798088
 30
0.0
 11
465.4547029217193
 21
24.91074672201912
 31
0.0
  0
LINE
  5
3FE
330
1F
100
AcDbEntity
  8
1
  6
CONTINUOUS
 62
   253
100
AcDbLine
 10
480.0983147726307
 20
22.15939335824033
 30
0.0
 11
480.0983147726307
 21
-45.30382800679899
 31
0.0
  0
LINE
  5
3FF
330
1F
100
AcDbEntity
  8
1
  6
CONTINUOUS
 62
   253
100
AcDbLine
 10
480.8452598591951
 20
96.7970570816611
 30
0.0
 11
481.2189650554951
 21
98.21846215131791
 31
0.0
  0
ARC
  5
400
330
1F
100
AcDbEntity
  8
1
  6
CONTINUOUS
 62
     7
100
AcDbCircle
 10
394.3172927431978
 20
99.15306483376877
 30
0.0
 40
1.019547191171294
100
AcDbArc
 50
0.1956761680360159
 51
26.5236999626859
  0
ARC
  5
401
330
1F
100
AcDbEntity
  8
1
  6
CONTINUOUS
 62
     7
100
AcDbCircle
 10
554.3370857810077
 20
-18.59576771048997
 30
0.0
 40
3.000251798621289
100
AcDbArc
 50
105.0036896741937
 51
179.9963103258041
  0
LINE
  5
402
330
1F
100
AcDbEntity
  8
1
  6
CONTINUOUS
 62
   253
100
AcDbLine
 10
465.8284081180192
 20
26.39463615834834
 30
0.0
 11
466.5753532045837
 21
26.54060664175968
 31
0.0
  0
LINE
  5
403
330
1F
100
AcDbEntity
  8
1
  6
CONTINUOUS
 62
   253
100
AcDbLine
 10
-547.9362976483445
 20
89.35000000000005
 30
0.0
 11
-547.9362976483445
 21
-40.64999999999995
 31
0.0
  0
LINE
  5
404
330
1F
100
AcDbEntity
  8
1
  6
CONTINUOUS
 62
     7
100
AcDbLine
 10
388.5956530337085
 20
-14.48729954655185
 30
0.0
 11
393.1132911239135
 21
-15.69779702451835
 31
0.0
  0
ARC
  5
405
330
1F
100
AcDbEntity
  8
1
  6
CONTINUOUS
 62
     7
100
AcDbCircle
 10
553.8013600539739
 20
97.7381556990369
 30
0.0
 40
3.037542399960175
100
AcDbArc
 50
94.55033827967998
 51
138.5046171111626
  0
ARC
  5
406
330
1F
100
AcDbEntity
  8
1
  6
CONTINUOUS
 62
     7
100
AcDbCircle
 10
558.3487199046587
 20
-47.64724533702871
 30
0.0
 40
1.720946467430141
100
AcDbArc
 50
260.9497840855076
 51
291.9974507034356
  0
LINE
  5
407
330
1F
100
AcDbEntity
  8
1
  6
CONTINUOUS
 62
     7
100
AcDbLine
 10
388.5956530337095
 20
-49.34676749568597
 30
0.0
 11
393.1132911239145
 21
-48.65604631198661
 31
0.0
  0
LINE
  5
408
330
1F
100
AcDbEntity
  8
1
  6
CONTINUOUS
 62
   253
100
AcDbLine
 10
388.3292534555628
 20
63.15325410549469
 30
0.0
 11
388.3292534555623
 21
-14.45325410549467
 31
0.0
  0
LINE
  5
409
330
1F
100
AcDbEntity
  8
1
  6
CONTINUOUS
 62
   253
100
AcDbLine
 10
-759.7900343744413
 20
89.35000000000016
 30
0.0
 11
-759.7900343744413
 21
-40.64999999999984
 31
0.0
  0
LINE
  5
40A
330
1F
100
AcDbEntity
  8
1
  6
CONTINUOUS
 62
   253
100
AcDbLine
 10
463.2568484488655
 20
106.4230950377816
 30
0.0
 11
463.2568484488655
 21
-57.72309503778157
 31
0.0
  0
LINE
  5
40B
330
1F
100
AcDbEntity
  8
1
  6
CONTINUOUS
 62
   253
100
AcDbLine
 10
-886.8162976483445
 20
89.35000000000022
 30
0.0
 11
-886.8162976483445
 21
-40.64999999999979
 31
0.0
  0
LINE
  5
40C
330
1F
100
AcDbEntity
  8
1
  6
CONTINUOUS
 62
   253
100
AcDbLine
 10
-858.7900343744413
 20
-40.64999999999979
 30
0.0
 11
-858.7900343744413
 21
89.35000000000021
 31
0.0
  0
ARC
  5
40D
330
1F
100
AcDbEntity
  8
1
  6
CONTINUOUS
 62
     7
100
AcDbCircle
 10
388.3249480725558
 20
-47.64724533702886
 30
0.0
 40
1.72094646743
100
AcDbArc
 50
248.0025492965626
 51
279.0502159144932
  0
LINE
  5
40E
330
1F
100
AcDbEntity
  8
1
  6
CONTINUOUS
 62
   253
100
AcDbLine
 10
488.2085459945719
 20
-61.42885614900194
 30
0.0
 11
488.2085459945719
 21
110.1288561490019
 31
0.0
  0
LINE
  5
40F
330
1F
100
AcDbEntity
  8
1
  6
CONTINUOUS
 62
   253
100
AcDbLine
 10
480.0983147726307
 20
94.00382800679898
 30
0.0
 11
480.8452598591951
 21
96.7970570816611
 31
0.0
  0
LINE
  5
410
330
1F
100
AcDbEntity
  8
1
  6
CONTINUOUS
 62
   253
100
AcDbLine
 10
-721.8162976483445
 20
89.35000000000015
 30
0.0
 11
-721.8162976483445
 21
-40.64999999999985
 31
0.0
  0
LINE
  5
411
330
1F
100
AcDbEntity
  8
1
  6
CONTINUOUS
 62
   253
100
AcDbLine
 10
-754.8162976483446
 20
-40.64999999999983
 30
0.0
 11
-754.8162976483446
 21
89.35000000000018
 31
0.0
  0
LINE
  5
412
330
1F
100
AcDbEntity
  8
1
  6
CONTINUOUS
 62
   253
100
AcDbLine
 10
-688.8162976483446
 20
89.35000000000014
 30
0.0
 11
-688.8162976483446
 21
-40.64999999999986
 31
0.0
  0
LINE
  5
413
330
1F
100
AcDbEntity
  8
1
  6
CONTINUOUS
 62
   253
100
AcDbLine
 10
458.4651219826425
 20
-61.42885614900194
 30
0.0
 11
458.4651219826425
 21
110.1288561490019
 31
0.0
  0
LINE
  5
414
330
1F
100
AcDbEntity
  8
1
  6
CONTINUOUS
 62
     7
100
AcDbLine
 10
393.1132911239147
 20
100.7661238178499
 30
0.0
 11
388.5956530337099
 21
101.4267451828246
 31
0.0
  0
LINE
  5
415
330
1F
100
AcDbEntity
  8
1
  6
CONTINUOUS
 62
   253
100
AcDbLine
 10
-820.8162976483445
 20
-40.64999999999981
 30
0.0
 11
-820.8162976483445
 21
89.35000000000021
 31
0.0
  0
LINE
  5
416
330
1F
100
AcDbEntity
  8
1
  6
CONTINUOUS
 62
     7
100
AcDbLine
 10
388.3292534555627
 20
-14.45325410549467
 30
0.0
 11
388.5956530337094
 21
-14.48729954655207
 31
0.0
  0
ARC
  5
417
330
1F
100
AcDbEntity
  8
1
  6
CONTINUOUS
 62
     7
100
AcDbCircle
 10
553.825324278264
 20
-45.66855916771232
 30
0.0
 40
2.999212659215644
100
AcDbArc
 50
220.0980804374672
 51
264.9319422571989
  0
ARC
  5
418
330
1F
100
AcDbEntity
  8
1
  6
CONTINUOUS
 62
     7
100
AcDbCircle
 10
552.5840314591819
 20
95.6231249446227
 30
0.0
 40
1.252996052513295
100
AcDbArc
 50
139.6769376353813
 51
168.9413328602784
  0
LINE
  5
419
330
1F
100
AcDbEntity
  8
1
  6
CONTINUOUS
 62
     7
100
AcDbLine
 10
558.0780149435047
 20
98.04676749568537
 30
0.0
 11
553.5603768532995
 21
97.35604631198598
 31
0.0
  0
LINE
  5
41A
330
1F
100
AcDbEntity
  8
1
  6
CONTINUOUS
 62
     7
100
AcDbLine
 10
558.3444145216517
 20
-14.45325410549467
 30
0.0
 11
558.078014943505
 21
-14.48729954655207
 31
0.0
  0
LINE
  5
41B
330
1F
100
AcDbEntity
  8
1
  6
CONTINUOUS
 62
     7
100
AcDbLine
 10
558.3444145216517
 20
101.4461513992955
 30
0.0
 11
558.078014943505
 21
101.4267451828248
 31
0.0
  0
LINE
  5
41C
330
1F
100
AcDbEntity
  8
1
  6
CONTINUOUS
 62
   253
100
AcDbLine
 10
465.8284081180193
 20
96.7970570816611
 30
0.0
 11
465.4547029217193
 21
98.21846215131791
 31
0.0
  0
ARC
  5
41D
330
1F
100
AcDbEntity
  8
1
  6
CONTINUOUS
 62
   253
100
AcDbCircle
 10
477.4856063618041
 20
25.00485525578714
 30
0.0
 40
3.73454462443359
100
AcDbArc
 50
358.5560240473852
 51
18.40984417201878
  0
LINE
  5
41E
330
1F
100
AcDbEntity
  8
1
  6
CONTINUOUS
 62
   253
100
AcDbLine
 10
480.8452598591951
 20
26.39463615834834
 30
0.0
 11
480.0983147726307
 21
26.54060664175968
 31
0.0
  0
LINE
  5
41F
330
1F
100
AcDbEntity
  8
1
  6
CONTINUOUS
 62
     7
100
AcDbLine
 10
558.0780149435049
 20
63.18729954655215
 30
0.0
 11
558.3444145216506
 21
63.15325410549467
 31
0.0
  0
LINE
  5
420
330
1F
100
AcDbEntity
  8
1
  6
CONTINUOUS
 62
   253
100
AcDbLine
 10
466.5753532045837
 20
94.00382800679898
 30
0.0
 11
466.5753532045837
 21
26.54060664175968
 31
0.0
  0
LINE
  5
421
330
1F
100
AcDbEntity
  8
1
  6
CONTINUOUS
 62
     7
100
AcDbLine
 10
551.3368339886072
 20
95.66979191500464
 30
0.0
 11
551.3543019233265
 21
95.86346715119191
 31
0.0
  0
LINE
  5
422
330
1F
100
AcDbEntity
  8
1
  6
CONTINUOUS
 62
   253
100
AcDbLine
 10
-726.7900343744412
 20
89.35000000000015
 30
0.0
 11
-726.7900343744412
 21
-40.64999999999985
 31
0.0
  0
ARC
  5
423
330
1F
100
AcDbEntity
  8
1
  6
CONTINUOUS
 62
     7
100
AcDbCircle
 10
392.8723079232404
 20
97.7381556990369
 30
0.0
 40
3.037542399960175
100
AcDbArc
 50
41.49538288883741
 51
85.44966172032005
  0
LINE
  5
424
330
1F
100
AcDbEntity
  8
1
  6
CONTINUOUS
 62
   253
100
AcDbLine
 10
480.0983147726307
 20
22.15939335824033
 30
0.0
 11
480.8452598591951
 21
22.30536384165167
 31
0.0
  0
ARC
  5
425
330
1F
100
AcDbEntity
  8
1
  6
CONTINUOUS
 62
     7
100
AcDbCircle
 10
392.7966411515361
 20
-48.79179103765784
 30
0.0
 40
3.289608238142189
100
AcDbArc
 50
275.5237098565714
 51
312.198602443907
  0
ARC
  5
426
330
1F
100
AcDbEntity
  8
1
  6
CONTINUOUS
 62
     7
100
AcDbCircle
 10
392.336707465538
 20
67.29567158795138
 30
0.0
 40
3.000126524639916
100
AcDbArc
 50
285.0018541004201
 51
359.998145899577
  0
LINE
  5
427
330
1F
100
AcDbEntity
  8
1
  6
CONTINUOUS
 62
     7
100
AcDbLine
 10
393.1132911239142
 20
64.39779702451854
 30
0.0
 11
388.5956530337091
 21
63.18729954655201
 31
0.0
  0
LINE
  5
428
330
1F
100
AcDbEntity
  8
1
  6
CONTINUOUS
 62
     7
100
AcDbLine
 10
395.1474548673812
 20
99.75070885712307
 30
0.0
 11
395.2295323057197
 21
99.60836194071668
 31
0.0
  0
LINE
  5
429
330
1F
100
AcDbEntity
  8
1
  6
CONTINUOUS
 62
     7
100
AcDbLine
 10
388.5956530337096
 20
63.18729954655215
 30
0.0
 11
388.3292534555638
 21
63.15325410549467
 31
0.0
  0
LINE
  5
42A
330
1F
100
AcDbEntity
  8
1
  6
CONTINUOUS
 62
   253
100
AcDbLine
 10
-514.9362976483444
 20
89.35000000000004
 30
0.0
 11
-514.9362976483444
 21
-40.64999999999996
 31
0.0
  0
LINE
  5
42B
330
1F
100
AcDbEntity
  8
1
  6
CONTINUOUS
 62
     7
100
AcDbLine
 10
583.3368339886073
 20
112.85
 30
0.0
 11
583.3368339886073
 21
-64.14999999999999
 31
0.0
  0
ARC
  5
42C
330
1F
100
AcDbEntity
  8
1
  6
CONTINUOUS
 62
     7
100
AcDbCircle
 10
394.0896365180325
 20
95.6231249446227
 30
0.0
 40
1.252996052513295
100
AcDbArc
 50
11.0586671397216
 51
40.32306236461874
  0
LINE
  5
42D
330
1F
100
AcDbEntity
  8
1
  6
CONTINUOUS
 62
   253
100
AcDbLine
 10
481.2189650554951
 20
-49.51846215131791
 30
0.0
 11
480.8452598591951
 21
-48.09705708166111
 31
0.0
  0
LINE
  5
42E
330
1F
100
AcDbEntity
  8
1
  6
CONTINUOUS
 62
   253
100
AcDbLine
 10
466.5753532045837
 20
22.15939335824033
 30
0.0
 11
466.5753532045837
 21
-45.30382800679899
 31
0.0
  0
ARC
  5
42F
330
1F
100
AcDbEntity
  8
1
  6
CONTINUOUS
 62
   253
100
AcDbCircle
 10
469.1880616154066
 20
25.00485525578769
 30
0.0
 40
3.734544624429997
100
AcDbArc
 50
161.5901558279716
 51
181.4439759526244
  0
LINE
  5
430
330
1F
100
AcDbEntity
  8
1
  6
CONTINUOUS
 62
     7
100
AcDbLine
 10
395.3368339886072
 20
95.66979191500464
 30
0.0
 11
395.319366053888
 21
95.86346715119191
 31
0.0
  0
ARC
  5
431
330
1F
100
AcDbEntity
  8
1
  6
CONTINUOUS
 62
     7
100
AcDbCircle
 10
388.3243417192874
 20
96.33452210856973
 30
0.0
 40
1.733607249359782
100
AcDbArc
 50
80.9961387388354
 51
110.913982856008
  0
LINE
  5
432
330
1F
100
AcDbEntity
  8
1
  6
CONTINUOUS
 62
   253
100
AcDbLine
 10
466.5753532045837
 20
22.15939335824033
 30
0.0
 11
465.8284081180192
 21
22.30536384165167
 31
0.0
  0
ARC
  5
433
330
1F
100
AcDbEntity
  8
1
  6
CONTINUOUS
 62
     7
100
AcDbCircle
 10
392.8031052585463
 20
94.222014084388
 30
0.0
 40
3.149344896116982
100
AcDbArc
 50
44.61529045934876
 51
84.34764950915806
  0
ARC
  5
434
330
1F
100
AcDbEntity
  8
1
  6
CONTINUOUS
 62
     7
100
AcDbCircle
 10
392.8483436989504
 20
-45.66855916771232
 30
0.0
 40
2.999212659215644
100
AcDbArc
 50
275.0680577428012
 51
319.9019195625329
  0
LINE
  5
435
330
1F
100
AcDbEntity
  8
1
  6
CONTINUOUS
 62
   253
100
AcDbLine
 10
480.0983147726307
 20
94.00382800679898
 30
0.0
 11
480.0983147726307
 21
26.54060664175968
 31
0.0
  0
LINE
  5
436
330
1F
100
AcDbEntity
  8
1
  6
CONTINUOUS
 62
   253
100
AcDbLine
 10
481.2189650554951
 20
23.78925327798088
 30
0.0
 11
481.2189650554951
 21
24.91074672201912
 31
0.0
  0
ARC
  5
437
330
1F
100
AcDbEntity
  8
1
  6
CONTINUOUS
 62
   253
100
AcDbCircle
 10
468.8485536215727
 20
23.65551827751026
 30
0.0
 40
3.396484597822649
100
AcDbArc
 50
177.7434220057301
 51
200.3361837885601
  0
ARC
  5
438
330
1F
100
AcDbEntity
  8
1
  6
CONTINUOUS
 62
   253
100
AcDbCircle
 10
477.8251143556417
 20
23.65551827751026
 30
0.0
 40
3.396484597822649
100
AcDbArc
 50
339.6638162114399
 51
2.256577994269946
  0
LINE
  5
439
330
1F
100
AcDbEntity
  8
1
  6
CONTINUOUS
 62
   253
100
AcDbLine
 10
282.2214832596412
 20
-56.5627338885751
 30
0.0
 11
282.2214832596412
 21
105.2627338885751
 31
0.0
  0
LINE
  5
43A
330
1F
100
AcDbEntity
  8
1
  6
CONTINUOUS
 62
   253
100
AcDbLine
 10
-602.418516740359
 20
-56.56273388857499
 30
0.0
 11
-602.418516740359
 21
105.2627338885752
 31
0.0
  0
LINE
  5
43B
330
1F
100
AcDbEntity
  8
1
  6
CONTINUOUS
 62
   253
100
AcDbLine
 10
-507.3078152824269
 20
-56.56273388857505
 30
0.0
 11
-507.3078152824269
 21
105.2627338885751
 31
0.0
  0
LINE
  5
43C
330
1F
100
AcDbEntity
  8
1
  6
CONTINUOUS
 62
   253
100
AcDbLine
 10
-408.3078152824268
 20
105.2627338885751
 30
0.0
 11
-408.3078152824268
 21
-56.56273388857507
 31
0.0
  0
LINE
  5
43D
330
1F
100
AcDbEntity
  8
1
  6
CONTINUOUS
 62
   253
100
AcDbLine
 10
249.2214832596412
 20
-75.65000000000002
 30
0.0
 11
249.2214832596412
 21
124.35
 31
0.0
  0
LINE
  5
43E
330
1F
100
AcDbEntity
  8
1
  6
CONTINUOUS
 62
   253
100
AcDbLine
 10
-246.4833251085026
 20
-53.4956084713475
 30
0.0
 11
-246.4833251085026
 21
102.1956084713475
 31
0.0
  0
LINE
  5
43F
330
1F
100
AcDbEntity
  8
1
  6
CONTINUOUS
 62
   253
100
AcDbLine
 10
-375.3078152824268
 20
-56.56273388857509
 30
0.0
 11
-375.3078152824268
 21
105.2627338885751
 31
0.0
  0
LINE
  5
440
330
1F
100
AcDbEntity
  8
1
  6
CONTINUOUS
 62
   253
100
AcDbLine
 10
-3.42781528242686
 20
-56.56273388857512
 30
0.0
 11
-3.42781528242686
 21
105.2627338885751
 31
0.0
  0
LINE
  5
441
330
1F
100
AcDbEntity
  8
1
  6
CONTINUOUS
 62
   253
100
AcDbLine
 10
-279.4833251085026
 20
-53.4956084713475
 30
0.0
 11
-279.4833251085026
 21
102.1956084713475
 31
0.0
  0
LINE
  5
442
330
1F
100
AcDbEntity
  8
1
  6
CONTINUOUS
 62
   253
100
AcDbLine
 10
200.2766748914974
 20
-53.49560847134748
 30
0.0
 11
200.2766748914974
 21
102.1956084713475
 31
0.0
  0
LINE
  5
443
330
1F
100
AcDbEntity
  8
1
  6
CONTINUOUS
 62
   253
100
AcDbLine
 10
-168.4278152824268
 20
-56.5627338885751
 30
0.0
 11
-168.4278152824268
 21
105.2627338885751
 31
0.0
  0
LINE
  5
444
330
1F
100
AcDbEntity
  8
1
  6
CONTINUOUS
 62
   253
100
AcDbLine
 10
-89.65851674035879
 20
-56.56273388857511
 30
0.0
 11
-89.65851674035879
 21
105.2627338885751
 31
0.0
  0
LINE
  5
445
330
1F
100
AcDbEntity
  8
1
  6
CONTINUOUS
 62
   253
100
AcDbLine
 10
153.3969930857171
 20
-53.49560847134748
 30
0.0
 11
153.3969930857171
 21
102.1956084713475
 31
0.0
  0
LINE
  5
446
330
1F
100
AcDbEntity
  8
1
  6
CONTINUOUS
 62
   253
100
AcDbLine
 10
-681.187815282427
 20
-56.56273388857495
 30
0.0
 11
-681.187815282427
 21
105.2627338885752
 31
0.0
  0
LINE
  5
447
330
1F
100
AcDbEntity
  8
1
  6
CONTINUOUS
 62
   253
100
AcDbLine
 10
-230.5385167403588
 20
-56.56273388857512
 30
0.0
 11
-230.5385167403588
 21
105.2627338885751
 31
0.0
  0
LINE
  5
448
330
1F
100
AcDbEntity
  8
1
  6
CONTINUOUS
 62
   253
100
AcDbLine
 10
-527.5385167403589
 20
105.2627338885751
 30
0.0
 11
-527.5385167403589
 21
-56.56273388857505
 31
0.0
  0
LINE
  5
449
330
1F
100
AcDbEntity
  8
1
  6
CONTINUOUS
 62
   253
100
AcDbLine
 10
233.2766748914974
 20
-53.49560847134748
 30
0.0
 11
233.2766748914974
 21
102.1956084713475
 31
0.0
  0
LINE
  5
44A
330
1F
100
AcDbEntity
  8
1
  6
CONTINUOUS
 62
   253
100
AcDbLine
 10
332.2766748914974
 20
102.1956084713475
 30
0.0
 11
332.2766748914974
 21
-53.4956084713475
 31
0.0
  0
LINE
  5
44B
330
1F
100
AcDbEntity
  8
1
  6
CONTINUOUS
 62
   253
100
AcDbLine
 10
42.34148325964115
 20
105.2627338885751
 30
0.0
 11
42.34148325964115
 21
-56.56273388857513
 31
0.0
  0
LINE
  5
44C
330
1F
100
AcDbEntity
  8
1
  6
CONTINUOUS
 62
   253
100
AcDbLine
 10
-72.6033251085027
 20
-53.4956084713475
 30
0.0
 11
-72.6033251085027
 21
102.1956084713475
 31
0.0
  0
LINE
  5
44D
330
1F
100
AcDbEntity
  8
1
  6
CONTINUOUS
 62
   253
100
AcDbLine
 10
219.3969930857171
 20
102.1956084713475
 30
0.0
 11
219.3969930857171
 21
-53.4956084713475
 31
0.0
  0
LINE
  5
44E
330
1F
100
AcDbEntity
  8
1
  6
CONTINUOUS
 62
   253
100
AcDbLine
 10
26.39667489149727
 20
102.1956084713475
 30
0.0
 11
26.39667489149727
 21
-53.49560847134753
 31
0.0
  0
LINE
  5
44F
330
1F
100
AcDbEntity
  8
1
  6
CONTINUOUS
 62
   253
100
AcDbLine
 10
-428.5385167403588
 20
-56.56273388857507
 30
0.0
 11
-428.5385167403588
 21
105.2627338885751
 31
0.0
  0
LINE
  5
450
330
1F
100
AcDbEntity
  8
1
  6
CONTINUOUS
 62
   253
100
AcDbLine
 10
-816.3633251085029
 20
-53.4956084713473
 30
0.0
 11
-816.3633251085029
 21
102.1956084713477
 31
0.0
  0
LINE
  5
451
330
1F
100
AcDbEntity
  8
1
  6
CONTINUOUS
 62
   253
100
AcDbLine
 10
-138.6033251085026
 20
-53.49560847134749
 30
0.0
 11
-138.6033251085026
 21
102.1956084713475
 31
0.0
  0
LINE
  5
452
330
1F
100
AcDbEntity
  8
1
  6
CONTINUOUS
 62
   253
100
AcDbLine
 10
45.51699308571699
 20
-53.49560847134752
 30
0.0
 11
45.51699308571699
 21
102.1956084713475
 31
0.0
  0
LINE
  5
453
330
1F
100
AcDbEntity
  8
1
  6
CONTINUOUS
 62
   253
100
AcDbLine
 10
29.57218471757311
 20
-56.56273388857512
 30
0.0
 11
29.57218471757311
 21
105.2627338885751
 31
0.0
  0
LINE
  5
454
330
1F
100
AcDbEntity
  8
1
  6
CONTINUOUS
 62
   253
100
AcDbLine
 10
-648.1878152824271
 20
-56.56273388857497
 30
0.0
 11
-648.1878152824271
 21
105.2627338885752
 31
0.0
  0
LINE
  5
455
330
1F
100
AcDbEntity
  8
1
  6
CONTINUOUS
 62
   253
100
AcDbLine
 10
-800.4185167403589
 20
-56.56273388857491
 30
0.0
 11
-800.4185167403589
 21
105.2627338885753
 31
0.0
  0
LINE
  5
456
330
1F
100
AcDbEntity
  8
1
  6
CONTINUOUS
 62
   253
100
AcDbLine
 10
170.4521847175732
 20
-56.5627338885751
 30
0.0
 11
170.4521847175732
 21
105.2627338885751
 31
0.0
  0
LINE
  5
457
330
1F
100
AcDbEntity
  8
1
  6
CONTINUOUS
 62
   253
100
AcDbLine
 10
-263.5385167403588
 20
-56.56273388857512
 30
0.0
 11
-263.5385167403588
 21
105.2627338885751
 31
0.0
  0
LINE
  5
458
330
1F
100
AcDbEntity
  8
1
  6
CONTINUOUS
 62
   253
100
AcDbLine
 10
-767.418516740359
 20
-56.56273388857493
 30
0.0
 11
-767.418516740359
 21
105.2627338885753
 31
0.0
  0
LINE
  5
459
330
1F
100
AcDbEntity
  8
1
  6
CONTINUOUS
 62
   253
100
AcDbLine
 10
-20.48300691428301
 20
-53.4956084713475
 30
0.0
 11
-20.48300691428301
 21
102.1956084713475
 31
0.0
  0
LINE
  5
45A
330
1F
100
AcDbEntity
  8
1
  6
CONTINUOUS
 62
   253
100
AcDbLine
 10
-342.3078152824269
 20
-56.5627338885751
 30
0.0
 11
-342.3078152824269
 21
105.2627338885751
 31
0.0
  0
LINE
  5
45B
330
1F
100
AcDbEntity
  8
1
  6
CONTINUOUS
 62
   253
100
AcDbLine
 10
351.396993085717
 20
-53.49560847134748
 30
0.0
 11
351.396993085717
 21
102.1956084713475
 31
0.0
  0
LINE
  5
45C
330
1F
100
AcDbEntity
  8
1
  6
CONTINUOUS
 62
   253
100
AcDbLine
 10
-569.418516740359
 20
-56.562733888575
 30
0.0
 11
-569.418516740359
 21
105.2627338885752
 31
0.0
  0
LINE
  5
45D
330
1F
100
AcDbEntity
  8
1
  6
CONTINUOUS
 62
   253
100
AcDbLine
 10
12.51699308571702
 20
-53.49560847134751
 30
0.0
 11
12.51699308571702
 21
102.1956084713475
 31
0.0
  0
LINE
  5
45E
330
1F
100
AcDbEntity
  8
1
  6
CONTINUOUS
 62
   253
100
AcDbLine
 10
-830.2430069142831
 20
-53.49560847134729
 30
0.0
 11
-830.2430069142831
 21
102.1956084713477
 31
0.0
  0
LINE
  5
45F
330
1F
100
AcDbEntity
  8
1
  6
CONTINUOUS
 62
   253
100
AcDbLine
 10
-714.1878152824269
 20
-56.56273388857495
 30
0.0
 11
-714.1878152824269
 21
105.2627338885752
 31
0.0
  0
LINE
  5
460
330
1F
100
AcDbEntity
  8
1
  6
CONTINUOUS
 62
   253
100
AcDbLine
 10
-395.5385167403588
 20
-56.56273388857508
 30
0.0
 11
-395.5385167403588
 21
105.2627338885751
 31
0.0
  0
LINE
  5
461
330
1F
100
AcDbEntity
  8
1
  6
CONTINUOUS
 62
   253
100
AcDbLine
 10
335.4521847175732
 20
-56.5627338885751
 30
0.0
 11
335.4521847175732
 21
105.2627338885751
 31
0.0
  0
LINE
  5
462
330
1F
100
AcDbEntity
  8
1
  6
CONTINUOUS
 62
   253
100
AcDbLine
 10
-846.1878152824268
 20
-56.5627338885749
 30
0.0
 11
-846.1878152824268
 21
105.2627338885753
 31
0.0
  0
LINE
  5
463
330
1F
100
AcDbEntity
  8
1
  6
CONTINUOUS
 62
   253
100
AcDbLine
 10
75.34148325964112
 20
-56.56273388857513
 30
0.0
 11
75.34148325964112
 21
105.262733888575
 31
0.0
  0
LINE
  5
464
330
1F
100
AcDbEntity
  8
1
  6
CONTINUOUS
 62
   253
100
AcDbLine
 10
-56.65851674035888
 20
-56.56273388857512
 30
0.0
 11
-56.65851674035888
 21
105.2627338885751
 31
0.0
  0
LINE
  5
465
330
1F
100
AcDbEntity
  8
1
  6
CONTINUOUS
 62
   253
100
AcDbLine
 10
216.2214832596412
 20
-56.5627338885751
 30
0.0
 11
216.2214832596412
 21
105.2627338885751
 31
0.0
  0
LINE
  5
466
330
1F
100
AcDbEntity
  8
1
  6
CONTINUOUS
 62
   253
100
AcDbLine
 10
-879.187815282427
 20
-56.56273388857488
 30
0.0
 11
-879.187815282427
 21
105.2627338885753
 31
0.0
  0
LINE
  5
467
330
1F
100
AcDbEntity
  8
1
  6
CONTINUOUS
 62
   253
100
AcDbLine
 10
-734.4185167403589
 20
-56.56273388857494
 30
0.0
 11
-734.4185167403589
 21
105.2627338885752
 31
0.0
  0
LINE
  5
468
330
1F
100
AcDbEntity
  8
1
  6
CONTINUOUS
 62
   253
100
AcDbLine
 10
92.39667489149727
 20
-53.49560847134752
 30
0.0
 11
92.39667489149727
 21
102.1956084713475
 31
0.0
  0
LINE
  5
469
330
1F
100
AcDbEntity
  8
1
  6
CONTINUOUS
 62
   253
100
AcDbLine
 10
318.396993085717
 20
-53.49560847134748
 30
0.0
 11
318.396993085717
 21
102.1956084713475
 31
0.0
  0
LINE
  5
46A
330
1F
100
AcDbEntity
  8
1
  6
CONTINUOUS
 62
   253
100
AcDbLine
 10
-461.5385167403588
 20
-56.56273388857507
 30
0.0
 11
-461.5385167403588
 21
105.2627338885751
 31
0.0
  0
LINE
  5
46B
330
1F
100
AcDbEntity
  8
1
  6
CONTINUOUS
 62
   253
100
AcDbLine
 10
-540.3078152824269
 20
-56.56273388857505
 30
0.0
 11
-540.3078152824269
 21
105.2627338885751
 31
0.0
  0
LINE
  5
46C
330
1F
100
AcDbEntity
  8
1
  6
CONTINUOUS
 62
   253
100
AcDbLine
 10
108.3414832596411
 20
-56.56273388857513
 30
0.0
 11
108.3414832596411
 21
105.262733888575
 31
0.0
  0
LINE
  5
46D
330
1F
100
AcDbEntity
  8
1
  6
CONTINUOUS
 62
   253
100
AcDbLine
 10
-326.3630069142829
 20
-53.49560847134749
 30
0.0
 11
-326.3630069142829
 21
102.1956084713475
 31
0.0
  0
LINE
  5
46E
330
1F
100
AcDbEntity
  8
1
  6
CONTINUOUS
 62
   253
100
AcDbLine
 10
-201.4278152824269
 20
-56.5627338885751
 30
0.0
 11
-201.4278152824269
 21
105.2627338885751
 31
0.0
  0
LINE
  5
46F
330
1F
100
AcDbEntity
  8
1
  6
CONTINUOUS
 62
   253
100
AcDbLine
 10
59.39667489149731
 20
-53.4956084713475
 30
0.0
 11
59.39667489149731
 21
102.1956084713474
 31
0.0
  0
LINE
  5
470
330
1F
100
AcDbEntity
  8
1
  6
CONTINUOUS
 62
   253
100
AcDbLine
 10
-36.42781528242683
 20
-56.56273388857512
 30
0.0
 11
-36.42781528242683
 21
105.2627338885751
 31
0.0
  0
LINE
  5
471
330
1F
100
AcDbEntity
  8
1
  6
CONTINUOUS
 62
   253
100
AcDbLine
 10
-185.483006914283
 20
-53.49560847134749
 30
0.0
 11
-185.483006914283
 21
102.1956084713475
 31
0.0
  0
LINE
  5
472
330
1F
100
AcDbEntity
  8
1
  6
CONTINUOUS
 62
   253
100
AcDbLine
 10
137.4521847175733
 20
-56.5627338885751
 30
0.0
 11
137.4521847175733
 21
105.2627338885751
 31
0.0
  0
LINE
  5
473
330
1F
100
AcDbEntity
  8
1
  6
CONTINUOUS
 62
   253
100
AcDbLine
 10
186.396993085717
 20
-53.49560847134748
 30
0.0
 11
186.396993085717
 21
102.1956084713475
 31
0.0
  0
LINE
  5
474
330
1F
100
AcDbEntity
  8
1
  6
CONTINUOUS
 62
   253
100
AcDbLine
 10
-122.6585167403588
 20
-56.5627338885751
 30
0.0
 11
-122.6585167403588
 21
105.2627338885751
 31
0.0
  0
LINE
  5
475
330
1F
100
AcDbEntity
  8
1
  6
CONTINUOUS
 62
   253
100
AcDbLine
 10
302.4521847175732
 20
-56.5627338885751
 30
0.0
 11
302.4521847175732
 21
105.2627338885751
 31
0.0
  0
LINE
  5
476
330
1F
100
AcDbEntity
  8
1
  6
CONTINUOUS
 62
   253
100
AcDbLine
 10
-69.42781528242686
 20
105.2627338885751
 30
0.0
 11
-69.42781528242686
 21
-56.5627338885751
 31
0.0
  0
LINE
  5
477
330
1F
100
AcDbEntity
  8
1
  6
CONTINUOUS
 62
   253
100
AcDbLine
 10
-309.3078152824268
 20
-56.5627338885751
 30
0.0
 11
-309.3078152824268
 21
105.2627338885751
 31
0.0
  0
LINE
  5
478
330
1F
100
AcDbEntity
  8
1
  6
CONTINUOUS
 62
   253
100
AcDbLine
 10
-135.4278152824268
 20
105.2627338885751
 30
0.0
 11
-135.4278152824268
 21
-56.5627338885751
 31
0.0
  0
LINE
  5
479
330
1F
100
AcDbEntity
  8
1
  6
CONTINUOUS
 62
   253
100
AcDbLine
 10
-474.3078152824268
 20
105.2627338885751
 30
0.0
 11
-474.3078152824268
 21
-56.56273388857507
 31
0.0
  0
LINE
  5
47A
330
1F
100
AcDbEntity
  8
1
  6
CENTER
 62
     1
100
AcDbLine
 10
710.0999999999998
 20
24.35
 30
0.0
 11
891.0999999999999
 21
24.35
 31
0.0
  0
LINE
  5
47B
330
1F
100
AcDbEntity
  8
1
  6
CONTINUOUS
 62
   253
100
AcDbLine
 10
-813.1878152824269
 20
105.2627338885753
 30
0.0
 11
-813.1878152824269
 21
-56.56273388857488
 31
0.0
  0
LINE
  5
47C
330
1F
100
AcDbEntity
  8
1
  6
CONTINUOUS
 62
   253
100
AcDbLine
 10
-102.4278152824268
 20
105.2627338885751
 30
0.0
 11
-102.4278152824268
 21
-56.5627338885751
 31
0.0
  0
LINE
  5
47D
330
1F
100
AcDbEntity
  8
1
  6
CONTINUOUS
 62
   253
100
AcDbLine
 10
-441.3078152824268
 20
105.2627338885751
 30
0.0
 11
-441.3078152824268
 21
-56.56273388857507
 31
0.0
  0
LINE
  5
47E
330
1F
100
AcDbEntity
  8
1
  6
CONTINUOUS
 62
   253
100
AcDbLine
 10
-23.65851674035885
 20
105.2627338885751
 30
0.0
 11
-23.65851674035885
 21
-56.56273388857513
 31
0.0
  0
LINE
  5
47F
330
1F
100
AcDbEntity
  8
1
  6
CONTINUOUS
 62
   253
100
AcDbLine
 10
-866.418516740359
 20
105.2627338885753
 30
0.0
 11
-866.418516740359
 21
-56.56273388857488
 31
0.0
  0
LINE
  5
480
330
1F
100
AcDbEntity
  8
1
  6
CONTINUOUS
 62
   253
100
AcDbLine
 10
-780.187815282427
 20
105.2627338885753
 30
0.0
 11
-780.187815282427
 21
-56.56273388857491
 31
0.0
  0
LINE
  5
481
330
1F
100
AcDbEntity
  8
1
  6
CONTINUOUS
 62
   253
100
AcDbLine
 10
-662.7426263886812
 20
90.91712077212394
 30
0.0
 11
-662.7426263886812
 21
-42.21712077212366
 31
0.0
  0
LINE
  5
482
330
1F
100
AcDbEntity
  8
1
  6
CONTINUOUS
 62
   253
100
AcDbLine
 10
-290.8626263886811
 20
90.91712077212378
 30
0.0
 11
-290.8626263886811
 21
-42.21712077212382
 31
0.0
  0
LINE
  5
483
330
1F
100
AcDbEntity
  8
1
  6
CONTINUOUS
 62
   253
100
AcDbLine
 10
-599.243006914283
 20
102.1956084713476
 30
0.0
 11
-599.243006914283
 21
-53.49560847134737
 31
0.0
  0
LINE
  5
484
330
1F
100
AcDbEntity
  8
1
  6
CONTINUOUS
 62
   253
100
AcDbLine
 10
-818.8637056341047
 20
90.917120772124
 30
0.0
 11
-818.8637056341047
 21
-42.21712077212361
 31
0.0
  0
LINE
  5
485
330
1F
100
AcDbEntity
  8
1
  6
CONTINUOUS
 62
   253
100
AcDbLine
 10
-615.187815282427
 20
105.2627338885752
 30
0.0
 11
-615.187815282427
 21
-56.56273388857498
 31
0.0
  0
LINE
  5
486
330
1F
100
AcDbEntity
  8
1
  6
CONTINUOUS
 62
   253
100
AcDbLine
 10
-827.7426263886812
 20
90.917120772124
 30
0.0
 11
-827.7426263886812
 21
-42.21712077212361
 31
0.0
  0
LINE
  5
487
330
1F
100
AcDbEntity
  8
1
  6
CONTINUOUS
 62
   253
100
AcDbLine
 10
122.897373611319
 20
90.9171207721238
 30
0.0
 11
122.897373611319
 21
-42.21712077212381
 31
0.0
  0
LINE
  5
488
330
1F
100
AcDbEntity
  8
1
  6
CONTINUOUS
 62
   253
100
AcDbLine
 10
122.8962943658953
 20
90.91712077212375
 30
0.0
 11
122.8962943658953
 21
-42.21712077212385
 31
0.0
  0
LINE
  5
489
330
1F
100
AcDbEntity
  8
1
  6
CONTINUOUS
 62
   253
100
AcDbLine
 10
-296.5385167403588
 20
105.2627338885751
 30
0.0
 11
-296.5385167403588
 21
-56.5627338885751
 31
0.0
  0
LINE
  5
48A
330
1F
100
AcDbEntity
  8
1
  6
CENTER
 62
     1
100
AcDbLine
 10
800.5999999999998
 20
-66.15
 30
0.0
 11
800.5999999999998
 21
114.85
 31
0.0
  0
LINE
  5
48B
330
1F
100
AcDbEntity
  8
1
  6
CONTINUOUS
 62
   253
100
AcDbLine
 10
-797.2430069142831
 20
102.1956084713477
 30
0.0
 11
-797.2430069142831
 21
-53.4956084713473
 31
0.0
  0
LINE
  5
48C
330
1F
100
AcDbEntity
  8
1
  6
CONTINUOUS
 62
   253
100
AcDbLine
 10
62.57218471757314
 20
105.262733888575
 30
0.0
 11
62.57218471757314
 21
-56.56273388857512
 31
0.0
  0
LINE
  5
48D
330
1F
100
AcDbEntity
  8
1
  6
CONTINUOUS
 62
   253
100
AcDbLine
 10
-276.3078152824268
 20
105.2627338885751
 30
0.0
 11
-276.3078152824268
 21
-56.5627338885751
 31
0.0
  0
LINE
  5
48E
330
1F
100
AcDbEntity
  8
1
  6
CONTINUOUS
 62
   253
100
AcDbLine
 10
-488.862626388681
 20
90.91712077212382
 30
0.0
 11
-488.862626388681
 21
-42.21712077212378
 31
0.0
  0
LINE
  5
48F
330
1F
100
AcDbEntity
  8
1
  6
CONTINUOUS
 62
   253
100
AcDbLine
 10
-345.4833251085026
 20
102.1956084713475
 30
0.0
 11
-345.4833251085026
 21
-53.4956084713475
 31
0.0
  0
LINE
  5
490
330
1F
100
AcDbEntity
  8
1
  6
CONTINUOUS
 62
   253
100
AcDbLine
 10
-188.6585167403589
 20
105.2627338885751
 30
0.0
 11
-188.6585167403589
 21
-56.56273388857507
 31
0.0
  0
LINE
  5
491
330
1F
100
AcDbEntity
  8
1
  6
CONTINUOUS
 62
   253
100
AcDbLine
 10
111.516993085717
 20
102.1956084713474
 30
0.0
 11
111.516993085717
 21
-53.49560847134754
 31
0.0
  0
LINE
  5
492
330
1F
100
AcDbEntity
  8
1
  6
CONTINUOUS
 62
   253
100
AcDbLine
 10
-668.418516740359
 20
105.2627338885752
 30
0.0
 11
-668.418516740359
 21
-56.56273388857495
 31
0.0
  0
LINE
  5
493
330
1F
100
AcDbEntity
  8
1
  6
CONTINUOUS
 62
   253
100
AcDbLine
 10
-582.187815282427
 20
105.2627338885752
 30
0.0
 11
-582.187815282427
 21
-56.56273388857501
 31
0.0
  0
LINE
  5
494
330
1F
100
AcDbEntity
  8
1
  6
CONTINUOUS
 62
   253
100
AcDbLine
 10
-155.6585167403589
 20
105.2627338885751
 30
0.0
 11
-155.6585167403589
 21
-56.5627338885751
 31
0.0
  0
LINE
  5
495
330
1F
100
AcDbEntity
  8
1
  6
CONTINUOUS
 62
   253
100
AcDbLine
 10
285.3969930857171
 20
102.1956084713475
 30
0.0
 11
285.3969930857171
 21
-53.4956084713475
 31
0.0
  0
LINE
  5
496
330
1F
100
AcDbEntity
  8
1
  6
CONTINUOUS
 62
   253
100
AcDbLine
 10
-362.5385167403588
 20
105.2627338885751
 30
0.0
 11
-362.5385167403588
 21
-56.56273388857507
 31
0.0
  0
LINE
  5
497
330
1F
100
AcDbEntity
  8
1
  6
CONTINUOUS
 62
   253
100
AcDbLine
 10
-620.8637056341047
 20
90.91712077212391
 30
0.0
 11
-620.8637056341047
 21
-42.21712077212369
 31
0.0
  0
LINE
  5
498
330
1F
100
AcDbEntity
  8
1
  6
CONTINUOUS
 62
   253
100
AcDbLine
 10
236.4521847175732
 20
105.2627338885751
 30
0.0
 11
236.4521847175732
 21
-56.56273388857507
 31
0.0
  0
LINE
  5
499
330
1F
100
AcDbEntity
  8
1
  6
CONTINUOUS
 62
   253
100
AcDbLine
 10
183.2214832596412
 20
105.2627338885751
 30
0.0
 11
183.2214832596412
 21
-56.56273388857507
 31
0.0
  0
LINE
  5
49A
330
1F
100
AcDbEntity
  8
1
  6
CONTINUOUS
 62
   253
100
AcDbLine
 10
-227.3630069142829
 20
102.1956084713475
 30
0.0
 11
-227.3630069142829
 21
-53.49560847134753
 31
0.0
  0
LINE
  5
49B
330
1F
100
AcDbEntity
  8
1
  6
CONTINUOUS
 62
   253
100
AcDbLine
 10
-243.3078152824268
 20
105.2627338885751
 30
0.0
 11
-243.3078152824268
 21
-56.56273388857513
 31
0.0
  0
LINE
  5
49C
330
1F
100
AcDbEntity
  8
1
  6
CONTINUOUS
 62
   253
100
AcDbLine
 10
-446.9837056341047
 20
90.91712077212382
 30
0.0
 11
-446.9837056341047
 21
-42.21712077212378
 31
0.0
  0
LINE
  5
49D
330
1F
100
AcDbEntity
  8
1
  6
CONTINUOUS
 62
   253
100
AcDbLine
 10
-543.4833251085026
 20
102.1956084713475
 30
0.0
 11
-543.4833251085026
 21
-53.49560847134745
 31
0.0
  0
LINE
  5
49E
330
1F
100
AcDbEntity
  8
1
  6
CONTINUOUS
 62
   253
100
AcDbLine
 10
-39.60332510850267
 20
102.1956084713475
 30
0.0
 11
-39.60332510850267
 21
-53.49560847134753
 31
0.0
  0
LINE
  5
49F
330
1F
100
AcDbEntity
  8
1
  6
CONTINUOUS
 62
   253
100
AcDbLine
 10
203.4521847175732
 20
105.2627338885751
 30
0.0
 11
203.4521847175732
 21
-56.56273388857507
 31
0.0
  0
LINE
  5
4A0
330
1F
100
AcDbEntity
  8
1
  6
CONTINUOUS
 62
   253
100
AcDbLine
 10
-747.1878152824269
 20
105.2627338885753
 30
0.0
 11
-747.1878152824269
 21
-56.56273388857494
 31
0.0
  0
LINE
  5
4A1
330
1F
100
AcDbEntity
  8
1
  6
CONTINUOUS
 62
   253
100
AcDbLine
 10
134.2766748914974
 20
102.1956084713475
 30
0.0
 11
134.2766748914974
 21
-53.4956084713475
 31
0.0
  0
LINE
  5
4A2
330
1F
100
AcDbEntity
  8
1
  6
CONTINUOUS
 62
   253
100
AcDbLine
 10
167.2766748914974
 20
102.1956084713475
 30
0.0
 11
167.2766748914974
 21
-53.4956084713475
 31
0.0
  0
LINE
  5
4A3
330
1F
100
AcDbEntity
  8
1
  6
CONTINUOUS
 62
   253
100
AcDbLine
 10
150.2214832596412
 20
105.2627338885751
 30
0.0
 11
150.2214832596412
 21
-56.56273388857507
 31
0.0
  0
LINE
  5
4A4
330
1F
100
AcDbEntity
  8
1
  6
CONTINUOUS
 62
   253
100
AcDbLine
 10
-752.8637056341047
 20
90.91712077212397
 30
0.0
 11
-752.8637056341047
 21
-42.21712077212364
 31
0.0
  0
LINE
  5
4A5
330
1F
100
AcDbEntity
  8
1
  6
CONTINUOUS
 62
   253
100
AcDbLine
 10
315.2214832596412
 20
105.2627338885751
 30
0.0
 11
315.2214832596412
 21
-56.56273388857507
 31
0.0
  0
LINE
  5
4A6
330
1F
100
AcDbEntity
  8
1
  6
CONTINUOUS
 62
   253
100
AcDbLine
 10
-882.3633251085026
 20
102.1956084713477
 30
0.0
 11
-882.3633251085026
 21
-53.4956084713473
 31
0.0
  0
LINE
  5
4A7
330
1F
100
AcDbEntity
  8
1
  6
CONTINUOUS
 62
   253
100
AcDbLine
 10
-860.7426263886812
 20
90.91712077212401
 30
0.0
 11
-860.7426263886812
 21
-42.2171207721236
 31
0.0
  0
LINE
  5
4A8
330
1F
100
AcDbEntity
  8
1
  6
CONTINUOUS
 62
   253
100
AcDbLine
 10
-86.48300691428307
 20
102.1956084713475
 30
0.0
 11
-86.48300691428307
 21
-53.4956084713475
 31
0.0
  0
LINE
  5
4A9
330
1F
100
AcDbEntity
  8
1
  6
CONTINUOUS
 62
   253
100
AcDbLine
 10
-833.4185167403588
 20
105.2627338885753
 30
0.0
 11
-833.4185167403588
 21
-56.56273388857488
 31
0.0
  0
LINE
  5
4AA
330
1F
100
AcDbEntity
  8
1
  6
CONTINUOUS
 62
   253
100
AcDbLine
 10
-629.7426263886813
 20
90.91712077212392
 30
0.0
 11
-629.7426263886813
 21
-42.21712077212368
 31
0.0
  0
LINE
  5
4AB
330
1F
100
AcDbEntity
  8
1
  6
CONTINUOUS
 62
   253
100
AcDbLine
 10
-494.5385167403588
 20
105.2627338885751
 30
0.0
 11
-494.5385167403588
 21
-56.56273388857505
 31
0.0
  0
LINE
  5
4AC
330
1F
100
AcDbEntity
  8
1
  6
CONTINUOUS
 62
   253
100
AcDbLine
 10
78.51699308571696
 20
102.1956084713474
 30
0.0
 11
78.51699308571696
 21
-53.49560847134754
 31
0.0
  0
LINE
  5
4AD
330
1F
100
AcDbEntity
  8
1
  6
CONTINUOUS
 62
   253
100
AcDbLine
 10
-635.4185167403589
 20
105.2627338885752
 30
0.0
 11
-635.4185167403589
 21
-56.56273388857498
 31
0.0
  0
LINE
  5
4AE
330
1F
100
AcDbEntity
  8
1
  6
CONTINUOUS
 62
   253
100
AcDbLine
 10
348.2214832596412
 20
105.2627338885751
 30
0.0
 11
348.2214832596412
 21
-56.56273388857507
 31
0.0
  0
LINE
  5
4AF
330
1F
100
AcDbEntity
  8
1
  6
CONTINUOUS
 62
   253
100
AcDbLine
 10
-701.4185167403589
 20
105.2627338885752
 30
0.0
 11
-701.4185167403589
 21
-56.56273388857493
 31
0.0
  0
LINE
  5
4B0
330
1F
100
AcDbEntity
  8
1
  6
CONTINUOUS
 62
   253
100
AcDbLine
 10
299.2766748914974
 20
102.1956084713475
 30
0.0
 11
299.2766748914974
 21
-53.4956084713475
 31
0.0
  0
LINE
  5
4B1
330
1F
100
AcDbEntity
  8
1
  6
CONTINUOUS
 62
   253
100
AcDbLine
 10
95.57218471757311
 20
105.262733888575
 30
0.0
 11
95.57218471757311
 21
-56.56273388857512
 31
0.0
  0
LINE
  5
4B2
330
1F
100
AcDbEntity
  8
1
  6
CONTINUOUS
 62
   253
100
AcDbLine
 10
9.341483259641125
 20
105.2627338885751
 30
0.0
 11
9.341483259641125
 21
-56.56273388857513
 31
0.0
  0
LINE
  5
4B3
330
1F
100
AcDbEntity
  8
1
  6
CONTINUOUS
 62
   253
100
AcDbLine
 10
-329.5385167403589
 20
105.2627338885751
 30
0.0
 11
-329.5385167403589
 21
-56.56273388857507
 31
0.0
  0
LINE
  5
4B4
330
1F
100
AcDbEntity
  8
1
  6
CONTINUOUS
 62
   253
100
AcDbLine
 10
15.01737361131894
 20
90.91712077212377
 30
0.0
 11
15.01737361131894
 21
-42.21712077212383
 31
0.0
  0
LINE
  5
4B5
330
1F
100
AcDbEntity
  8
1
  6
CONTINUOUS
 62
   253
100
AcDbLine
 10
-731.2430069142831
 20
102.1956084713476
 30
0.0
 11
-731.2430069142831
 21
-53.49560847134735
 31
0.0
  0
LINE
  5
4B6
330
1F
100
AcDbEntity
  8
1
  6
CONTINUOUS
 62
   253
100
AcDbLine
 10
-53.48300691428304
 20
102.1956084713475
 30
0.0
 11
-53.48300691428304
 21
-53.49560847134753
 31
0.0
  0
LINE
  5
4B7
330
1F
100
AcDbEntity
  8
1
  6
CONTINUOUS
 62
   253
100
AcDbLine
 10
-392.363006914283
 20
102.1956084713475
 30
0.0
 11
-392.363006914283
 21
-53.49560847134747
 31
0.0
  0
LINE
  5
4B8
330
1F
100
AcDbEntity
  8
1
  6
CONTINUOUS
 62
   253
100
AcDbLine
 10
190.8499656255588
 20
-40.65
 30
0.0
 11
190.8499656255588
 21
89.35000000000001
 31
0.0
  0
LINE
  5
4B9
330
1F
100
AcDbEntity
  8
1
  6
CONTINUOUS
 62
   253
100
AcDbLine
 10
-717.3633251085029
 20
102.1956084713476
 30
0.0
 11
-717.3633251085029
 21
-53.49560847134735
 31
0.0
  0
LINE
  5
4BA
330
1F
100
AcDbEntity
  8
1
  6
CONTINUOUS
 62
   253
100
AcDbLine
 10
-288.9100343744411
 20
-40.65000000000001
 30
0.0
 11
-288.9100343744411
 21
89.34999999999998
 31
0.0
  0
LINE
  5
4BB
330
1F
100
AcDbEntity
  8
1
  6
CONTINUOUS
 62
   253
100
AcDbLine
 10
16.9699656255588
 20
-40.65000000000003
 30
0.0
 11
16.9699656255588
 21
89.34999999999998
 31
0.0
  0
LINE
  5
4BC
330
1F
100
AcDbEntity
  8
1
  6
CONTINUOUS
 62
   253
100
AcDbLine
 10
289.8499656255589
 20
89.35
 30
0.0
 11
289.8499656255589
 21
-40.65000000000001
 31
0.0
  0
LINE
  5
4BD
330
1F
100
AcDbEntity
  8
1
  6
CONTINUOUS
 62
   253
100
AcDbLine
 10
-44.05629764834457
 20
89.34999999999997
 30
0.0
 11
-44.05629764834457
 21
-40.65000000000003
 31
0.0
  0
LINE
  5
4BE
330
1F
100
AcDbEntity
  8
1
  6
CONTINUOUS
 62
   253
100
AcDbLine
 10
124.8499656255589
 20
-40.65
 30
0.0
 11
124.8499656255589
 21
89.35000000000001
 31
0.0
  0
LINE
  5
4BF
330
1F
100
AcDbEntity
  8
1
  6
CONTINUOUS
 62
   253
100
AcDbLine
 10
-260.363006914283
 20
102.1956084713475
 30
0.0
 11
-260.363006914283
 21
-53.49560847134753
 31
0.0
  0
LINE
  5
4C0
330
1F
100
AcDbEntity
  8
1
  6
CONTINUOUS
 62
   253
100
AcDbLine
 10
-141.1037056341046
 20
90.91712077212378
 30
0.0
 11
-141.1037056341046
 21
-42.21712077212382
 31
0.0
  0
LINE
  5
4C1
330
1F
100
AcDbEntity
  8
1
  6
CONTINUOUS
 62
   253
100
AcDbLine
 10
188.897373611319
 20
90.9171207721238
 30
0.0
 11
188.897373611319
 21
-42.21712077212381
 31
0.0
  0
LINE
  5
4C2
330
1F
100
AcDbEntity
  8
1
  6
CONTINUOUS
 62
   253
100
AcDbLine
 10
-651.3633251085027
 20
102.1956084713476
 30
0.0
 11
-651.3633251085027
 21
-53.49560847134735
 31
0.0
  0
LINE
  5
4C3
330
1F
100
AcDbEntity
  8
1
  6
CONTINUOUS
 62
   253
100
AcDbLine
 10
-248.9837056341046
 20
90.91712077212377
 30
0.0
 11
-248.9837056341046
 21
-42.21712077212383
 31
0.0
  0
LINE
  5
4C4
330
1F
100
AcDbEntity
  8
1
  6
CONTINUOUS
 62
   253
100
AcDbLine
 10
-378.4833251085026
 20
102.1956084713475
 30
0.0
 11
-378.4833251085026
 21
-53.49560847134747
 31
0.0
  0
LINE
  5
4C5
330
1F
100
AcDbEntity
  8
1
  6
CONTINUOUS
 62
   253
100
AcDbLine
 10
-115.0300343744412
 20
89.34999999999998
 30
0.0
 11
-115.0300343744412
 21
-40.65000000000002
 31
0.0
  0
LINE
  5
4C6
330
1F
100
AcDbEntity
  8
1
  6
CONTINUOUS
 62
   253
100
AcDbLine
 10
327.8237023516556
 20
89.35
 30
0.0
 11
327.8237023516556
 21
-40.65000000000001
 31
0.0
  0
LINE
  5
4C7
330
1F
100
AcDbEntity
  8
1
  6
CONTINUOUS
 62
   253
100
AcDbLine
 10
-684.3633251085027
 20
102.1956084713476
 30
0.0
 11
-684.3633251085027
 21
-53.49560847134735
 31
0.0
  0
LINE
  5
4C8
330
1F
100
AcDbEntity
  8
1
  6
CONTINUOUS
 62
   253
100
AcDbLine
 10
-312.4833251085027
 20
102.1956084713475
 30
0.0
 11
-312.4833251085027
 21
-53.4956084713475
 31
0.0
  0
LINE
  5
4C9
330
1F
100
AcDbEntity
  8
1
  6
CONTINUOUS
 62
   253
100
AcDbLine
 10
-49.03003437444126
 20
89.34999999999997
 30
0.0
 11
-49.03003437444126
 21
-40.65000000000003
 31
0.0
  0
LINE
  5
4CA
330
1F
100
AcDbEntity
  8
1
  6
CONTINUOUS
 62
   253
100
AcDbLine
 10
320.897373611319
 20
90.91712077212372
 30
0.0
 11
320.897373611319
 21
-42.21712077212374
 31
0.0
  0
LINE
  5
4CB
330
1F
100
AcDbEntity
  8
1
  6
CONTINUOUS
 62
   253
100
AcDbLine
 10
353.897373611319
 20
90.9171207721238
 30
0.0
 11
353.897373611319
 21
-42.21712077212381
 31
0.0
  0
LINE
  5
4CC
330
1F
100
AcDbEntity
  8
1
  6
CONTINUOUS
 62
   253
100
AcDbLine
 10
-6.6033251085027
 20
102.1956084713475
 30
0.0
 11
-6.6033251085027
 21
-53.49560847134753
 31
0.0
  0
LINE
  5
4CD
330
1F
100
AcDbEntity
  8
1
  6
CONTINUOUS
 62
   253
100
AcDbLine
 10
-413.9837056341045
 20
90.91712077212381
 30
0.0
 11
-413.9837056341045
 21
-42.21712077212379
 31
0.0
  0
LINE
  5
4CE
330
1F
100
AcDbEntity
  8
1
  6
CONTINUOUS
 62
   253
100
AcDbLine
 10
-204.6033251085027
 20
102.1956084713475
 30
0.0
 11
-204.6033251085027
 21
-53.4956084713475
 31
0.0
  0
LINE
  5
4CF
330
1F
100
AcDbEntity
  8
1
  6
CONTINUOUS
 62
   253
100
AcDbLine
 10
48.01737361131892
 20
90.91712077212377
 30
0.0
 11
48.01737361131892
 21
-42.21712077212383
 31
0.0
  0
LINE
  5
4D0
330
1F
100
AcDbEntity
  8
1
  6
CONTINUOUS
 62
   253
100
AcDbLine
 10
-119.483006914283
 20
102.1956084713475
 30
0.0
 11
-119.483006914283
 21
-53.4956084713475
 31
0.0
  0
LINE
  5
4D1
330
1F
100
AcDbEntity
  8
1
  6
CONTINUOUS
 62
   253
100
AcDbLine
 10
-17.98262638868109
 20
90.91712077212377
 30
0.0
 11
-17.98262638868109
 21
-42.21712077212383
 31
0.0
  0
LINE
  5
4D2
330
1F
100
AcDbEntity
  8
1
  6
CONTINUOUS
 62
   253
100
AcDbLine
 10
-323.8626263886811
 20
90.9171207721238
 30
0.0
 11
-323.8626263886811
 21
-42.21712077212381
 31
0.0
  0
LINE
  5
4D3
330
1F
100
AcDbEntity
  8
1
  6
CONTINUOUS
 62
   253
100
AcDbLine
 10
-785.8637056341048
 20
90.91712077212398
 30
0.0
 11
-785.8637056341048
 21
-42.21712077212362
 31
0.0
  0
LINE
  5
4D4
330
1F
100
AcDbEntity
  8
1
  6
CONTINUOUS
 62
   253
100
AcDbLine
 10
-108.1037056341046
 20
90.91712077212378
 30
0.0
 11
-108.1037056341046
 21
-42.21712077212382
 31
0.0
  0
LINE
  5
4D5
330
1F
100
AcDbEntity
  8
1
  6
CONTINUOUS
 62
   253
100
AcDbLine
 10
-587.8637056341046
 20
90.91712077212391
 30
0.0
 11
-587.8637056341046
 21
-42.21712077212369
 31
0.0
  0
LINE
  5
4D6
330
1F
100
AcDbEntity
  8
1
  6
CONTINUOUS
 62
   253
100
AcDbLine
 10
-849.3633251085027
 20
102.1956084713477
 30
0.0
 11
-849.3633251085027
 21
-53.4956084713473
 31
0.0
  0
LINE
  5
4D7
330
1F
100
AcDbEntity
  8
1
  6
CONTINUOUS
 62
   253
100
AcDbLine
 10
-77.05629764834448
 20
-40.65000000000001
 30
0.0
 11
-77.05629764834448
 21
89.34999999999998
 31
0.0
  0
LINE
  5
4D8
330
1F
100
AcDbEntity
  8
1
  6
CONTINUOUS
 62
   253
100
AcDbLine
 10
-554.8637056341047
 20
90.9171207721239
 30
0.0
 11
-554.8637056341047
 21
-42.21712077212371
 31
0.0
  0
LINE
  5
4D9
330
1F
100
AcDbEntity
  8
1
  6
CONTINUOUS
 62
   253
100
AcDbLine
 10
294.8237023516555
 20
89.35
 30
0.0
 11
294.8237023516555
 21
-40.65000000000001
 31
0.0
  0
LINE
  5
4DA
330
1F
100
AcDbEntity
  8
1
  6
CONTINUOUS
 62
   253
100
AcDbLine
 10
-387.9100343744411
 20
89.35000000000001
 30
0.0
 11
-387.9100343744411
 21
-40.64999999999999
 31
0.0
  0
LINE
  5
4DB
330
1F
100
AcDbEntity
  8
1
  6
CONTINUOUS
 62
   253
100
AcDbLine
 10
-566.2430069142831
 20
102.1956084713476
 30
0.0
 11
-566.2430069142831
 21
-53.4956084713474
 31
0.0
  0
LINE
  5
4DC
330
1F
100
AcDbEntity
  8
1
  6
CONTINUOUS
 62
   253
100
AcDbLine
 10
-510.4833251085027
 20
102.1956084713475
 30
0.0
 11
-510.4833251085027
 21
-53.49560847134745
 31
0.0
  0
LINE
  5
4DD
330
1F
100
AcDbEntity
  8
1
  6
CONTINUOUS
 62
   253
100
AcDbLine
 10
197.7762943658954
 20
90.9171207721238
 30
0.0
 11
197.7762943658954
 21
-42.21712077212381
 31
0.0
  0
LINE
  5
4DE
330
1F
100
AcDbEntity
  8
1
  6
CONTINUOUS
 62
   253
100
AcDbLine
 10
-171.6033251085027
 20
102.1956084713475
 30
0.0
 11
-171.6033251085027
 21
-53.4956084713475
 31
0.0
  0
LINE
  5
4DF
330
1F
100
AcDbEntity
  8
1
  6
CONTINUOUS
 62
   253
100
AcDbLine
 10
56.89629436589533
 20
90.91712077212375
 30
0.0
 11
56.89629436589533
 21
-42.21712077212385
 31
0.0
  0
LINE
  5
4E0
330
1F
100
AcDbEntity
  8
1
  6
CONTINUOUS
 62
   253
100
AcDbLine
 10
89.89629436589536
 20
90.91712077212375
 30
0.0
 11
89.89629436589536
 21
-42.21712077212385
 31
0.0
  0
LINE
  5
4E1
330
1F
100
AcDbEntity
  8
1
  6
CONTINUOUS
 62
   253
100
AcDbLine
 10
-11.05629764834448
 20
89.34999999999997
 30
0.0
 11
-11.05629764834448
 21
-40.65000000000003
 31
0.0
  0
LINE
  5
4E2
330
1F
100
AcDbEntity
  8
1
  6
CONTINUOUS
 62
   253
100
AcDbLine
 10
-458.3630069142829
 20
102.1956084713475
 30
0.0
 11
-458.3630069142829
 21
-53.49560847134745
 31
0.0
  0
LINE
  5
4E3
330
1F
100
AcDbEntity
  8
1
  6
CONTINUOUS
 62
   253
100
AcDbLine
 10
-281.9837056341046
 20
90.91712077212378
 30
0.0
 11
-281.9837056341046
 21
-42.21712077212382
 31
0.0
  0
LINE
  5
4E4
330
1F
100
AcDbEntity
  8
1
  6
CONTINUOUS
 62
   253
100
AcDbLine
 10
-75.10370563410467
 20
90.91712077212378
 30
0.0
 11
-75.10370563410467
 21
-42.21712077212382
 31
0.0
  0
LINE
  5
4E5
330
1F
100
AcDbEntity
  8
1
  6
CONTINUOUS
 62
   253
100
AcDbLine
 10
-425.3630069142829
 20
102.1956084713475
 30
0.0
 11
-425.3630069142829
 21
-53.49560847134747
 31
0.0
  0
LINE
  5
4E6
330
1F
100
AcDbEntity
  8
1
  6
CONTINUOUS
 62
   253
100
AcDbLine
 10
120.9437023516555
 20
-40.65000000000004
 30
0.0
 11
120.9437023516555
 21
89.34999999999995
 31
0.0
  0
LINE
  5
4E7
330
1F
100
AcDbEntity
  8
1
  6
CONTINUOUS
 62
   253
100
AcDbLine
 10
54.94370235165552
 20
-40.65000000000003
 30
0.0
 11
54.94370235165552
 21
89.34999999999998
 31
0.0
  0
LINE
  5
4E8
330
1F
100
AcDbEntity
  8
1
  6
CONTINUOUS
 62
   253
100
AcDbLine
 10
230.7762943658954
 20
90.9171207721238
 30
0.0
 11
230.7762943658954
 21
-42.21712077212381
 31
0.0
  0
LINE
  5
4E9
330
1F
100
AcDbEntity
  8
1
  6
CONTINUOUS
 62
   253
100
AcDbLine
 10
-215.9837056341046
 20
90.91712077212377
 30
0.0
 11
-215.9837056341046
 21
-42.21712077212383
 31
0.0
  0
LINE
  5
4EA
330
1F
100
AcDbEntity
  8
1
  6
CONTINUOUS
 62
   253
100
AcDbLine
 10
21.94370235165549
 20
89.34999999999997
 30
0.0
 11
21.94370235165549
 21
-40.65000000000003
 31
0.0
  0
LINE
  5
4EB
330
1F
100
AcDbEntity
  8
1
  6
CONTINUOUS
 62
   253
100
AcDbLine
 10
-479.9837056341046
 20
90.91712077212382
 30
0.0
 11
-479.9837056341046
 21
-42.21712077212378
 31
0.0
  0
LINE
  5
4EC
330
1F
100
AcDbEntity
  8
1
  6
CONTINUOUS
 62
   253
100
AcDbLine
 10
155.897373611319
 20
90.9171207721238
 30
0.0
 11
155.897373611319
 21
-42.21712077212381
 31
0.0
  0
LINE
  5
4ED
330
1F
100
AcDbEntity
  8
1
  6
CONTINUOUS
 62
   253
100
AcDbLine
 10
-149.982626388681
 20
90.91712077212378
 30
0.0
 11
-149.982626388681
 21
-42.21712077212382
 31
0.0
  0
LINE
  5
4EE
330
1F
100
AcDbEntity
  8
1
  6
CONTINUOUS
 62
   253
100
AcDbLine
 10
-695.7426263886811
 20
90.91712077212394
 30
0.0
 11
-695.7426263886811
 21
-42.21712077212366
 31
0.0
  0
LINE
  5
4EF
330
1F
100
AcDbEntity
  8
1
  6
CONTINUOUS
 62
   253
100
AcDbLine
 10
-764.243006914283
 20
102.1956084713476
 30
0.0
 11
-764.243006914283
 21
-53.49560847134732
 31
0.0
  0
LINE
  5
4F0
330
1F
100
AcDbEntity
  8
1
  6
CONTINUOUS
 62
   253
100
AcDbLine
 10
-182.9826263886811
 20
90.9171207721238
 30
0.0
 11
-182.9826263886811
 21
-42.21712077212381
 31
0.0
  0
LINE
  5
4F1
330
1F
100
AcDbEntity
  8
1
  6
CONTINUOUS
 62
   253
100
AcDbLine
 10
-481.9362976483445
 20
-40.64999999999997
 30
0.0
 11
-481.9362976483445
 21
89.35000000000004
 31
0.0
  0
LINE
  5
4F2
330
1F
100
AcDbEntity
  8
1
  6
CONTINUOUS
 62
   253
100
AcDbLine
 10
228.8237023516556
 20
-40.65
 30
0.0
 11
228.8237023516556
 21
89.35000000000001
 31
0.0
  0
LINE
  5
4F3
330
1F
100
AcDbEntity
  8
1
  6
CONTINUOUS
 62
   253
100
AcDbLine
 10
-356.862626388681
 20
90.9171207721238
 30
0.0
 11
-356.862626388681
 21
-42.21712077212381
 31
0.0
  0
LINE
  5
4F4
330
1F
100
AcDbEntity
  8
1
  6
CONTINUOUS
 62
   253
100
AcDbLine
 10
-521.8626263886811
 20
90.91712077212384
 30
0.0
 11
-521.8626263886811
 21
-42.21712077212376
 31
0.0
  0
LINE
  5
4F5
330
1F
100
AcDbEntity
  8
1
  6
CONTINUOUS
 62
   253
100
AcDbLine
 10
87.94370235165549
 20
-40.65000000000004
 30
0.0
 11
87.94370235165549
 21
89.34999999999995
 31
0.0
  0
LINE
  5
4F6
330
1F
100
AcDbEntity
  8
1
  6
CONTINUOUS
 62
   253
100
AcDbLine
 10
-143.0562976483446
 20
-40.65000000000001
 30
0.0
 11
-143.0562976483446
 21
89.34999999999998
 31
0.0
  0
LINE
  5
4F7
330
1F
100
AcDbEntity
  8
1
  6
CONTINUOUS
 62
   253
100
AcDbLine
 10
360.8237023516555
 20
89.35
 30
0.0
 11
360.8237023516555
 21
-40.65000000000001
 31
0.0
  0
LINE
  5
4F8
330
1F
100
AcDbEntity
  8
1
  6
CONTINUOUS
 62
   253
100
AcDbLine
 10
-455.862626388681
 20
-42.21712077212378
 30
0.0
 11
-455.862626388681
 21
90.91712077212374
 31
0.0
  0
LINE
  5
4F9
330
1F
100
AcDbEntity
  8
1
  6
CONTINUOUS
 62
   253
100
AcDbLine
 10
-794.7426263886811
 20
-42.21712077212362
 30
0.0
 11
-794.7426263886811
 21
90.9171207721239
 31
0.0
  0
LINE
  5
4FA
330
1F
100
AcDbEntity
  8
1
  6
CONTINUOUS
 62
   253
100
AcDbLine
 10
329.7762943658955
 20
-42.2171207721238
 30
0.0
 11
329.7762943658955
 21
90.91712077212371
 31
0.0
  0
LINE
  5
4FB
330
1F
100
AcDbEntity
  8
1
  6
CONTINUOUS
 62
   253
100
AcDbLine
 10
-411.4833251085026
 20
-53.49560847134746
 30
0.0
 11
-411.4833251085026
 21
102.1956084713475
 31
0.0
  0
LINE
  5
4FC
330
1F
100
AcDbEntity
  8
1
  6
CONTINUOUS
 62
   253
100
AcDbLine
 10
-665.243006914283
 20
-53.49560847134735
 30
0.0
 11
-665.243006914283
 21
102.1956084713476
 31
0.0
  0
LINE
  5
4FD
330
1F
100
AcDbEntity
  8
1
  6
CONTINUOUS
 62
   253
100
AcDbLine
 10
23.89629436589535
 20
-42.21712077212383
 30
0.0
 11
23.89629436589535
 21
90.91712077212368
 31
0.0
  0
LINE
  5
4FE
330
1F
100
AcDbEntity
  8
1
  6
CONTINUOUS
 62
   253
100
AcDbLine
 10
-293.363006914283
 20
-53.4956084713475
 30
0.0
 11
-293.363006914283
 21
102.1956084713475
 31
0.0
  0
LINE
  5
4FF
330
1F
100
AcDbEntity
  8
1
  6
CONTINUOUS
 62
   253
100
AcDbLine
 10
-83.98262638868108
 20
-42.21712077212379
 30
0.0
 11
-83.98262638868108
 21
90.91712077212367
 31
0.0
  0
LINE
  5
500
330
1F
100
AcDbEntity
  8
1
  6
CONTINUOUS
 62
   253
100
AcDbLine
 10
-653.8637056341047
 20
-42.21712077212366
 30
0.0
 11
-653.8637056341047
 21
90.91712077212385
 31
0.0
  0
LINE
  5
501
330
1F
100
AcDbEntity
  8
1
  6
CONTINUOUS
 62
   253
100
AcDbLine
 10
-750.3633251085027
 20
-53.49560847134732
 30
0.0
 11
-750.3633251085027
 21
102.1956084713476
 31
0.0
  0
LINE
  5
502
330
1F
100
AcDbEntity
  8
1
  6
CONTINUOUS
 62
   253
100
AcDbLine
 10
-152.483006914283
 20
-53.49560847134747
 30
0.0
 11
-152.483006914283
 21
102.1956084713475
 31
0.0
  0
LINE
  5
503
330
1F
100
AcDbEntity
  8
1
  6
CONTINUOUS
 62
   253
100
AcDbLine
 10
-686.8637056341048
 20
-42.21712077212366
 30
0.0
 11
-686.8637056341048
 21
90.91712077212385
 31
0.0
  0
LINE
  5
504
330
1F
100
AcDbEntity
  8
1
  6
CONTINUOUS
 62
   253
100
AcDbLine
 10
-698.2430069142832
 20
-53.49560847134733
 30
0.0
 11
-698.2430069142832
 21
102.1956084713476
 31
0.0
  0
LINE
  5
505
330
1F
100
AcDbEntity
  8
1
  6
CONTINUOUS
 62
     7
100
AcDbLine
 10
559.3368339886072
 20
111.85
 30
0.0
 11
559.3368339886072
 21
-63.15
 31
0.0
  0
LINE
  5
506
330
1F
100
AcDbEntity
  8
1
  6
CONTINUOUS
 62
   253
100
AcDbLine
 10
-116.9826263886811
 20
-42.21712077212381
 30
0.0
 11
-116.9826263886811
 21
90.91712077212368
 31
0.0
  0
LINE
  5
507
330
1F
100
AcDbEntity
  8
1
  6
CONTINUOUS
 62
   253
100
AcDbLine
 10
-524.3630069142829
 20
-53.49560847134743
 30
0.0
 11
-524.3630069142829
 21
102.1956084713475
 31
0.0
  0
LINE
  5
508
330
1F
100
AcDbEntity
  8
1
  6
CONTINUOUS
 62
   253
100
AcDbLine
 10
-359.3630069142829
 20
-53.49560847134747
 30
0.0
 11
-359.3630069142829
 21
102.1956084713475
 31
0.0
  0
LINE
  5
509
330
1F
100
AcDbEntity
  8
1
  6
CONTINUOUS
 62
   253
100
AcDbLine
 10
-618.3633251085029
 20
-53.49560847134735
 30
0.0
 11
-618.3633251085029
 21
102.1956084713476
 31
0.0
  0
LINE
  5
50A
330
1F
100
AcDbEntity
  8
1
  6
CONTINUOUS
 62
   253
100
AcDbLine
 10
-444.4833251085027
 20
-53.49560847134746
 30
0.0
 11
-444.4833251085027
 21
102.1956084713475
 31
0.0
  0
LINE
  5
50B
330
1F
100
AcDbEntity
  8
1
  6
CONTINUOUS
 62
   253
100
AcDbLine
 10
-422.8626263886811
 20
-42.21712077212378
 30
0.0
 11
-422.8626263886811
 21
90.91712077212374
 31
0.0
  0
LINE
  5
50C
330
1F
100
AcDbEntity
  8
1
  6
CONTINUOUS
 62
   253
100
AcDbLine
 10
-314.9837056341045
 20
-42.21712077212381
 30
0.0
 11
-314.9837056341045
 21
90.91712077212368
 31
0.0
  0
LINE
  5
50D
330
1F
100
AcDbEntity
  8
1
  6
CONTINUOUS
 62
   253
100
AcDbLine
 10
362.7762943658954
 20
-42.21712077212371
 30
0.0
 11
362.7762943658954
 21
90.9171207721237
 31
0.0
  0
LINE
  5
50E
330
1F
100
AcDbEntity
  8
1
  6
CONTINUOUS
 62
   253
100
AcDbLine
 10
-347.9837056341046
 20
-42.2171207721238
 30
0.0
 11
-347.9837056341046
 21
90.91712077212371
 31
0.0
  0
LINE
  5
50F
330
1F
100
AcDbEntity
  8
1
  6
CONTINUOUS
 62
   253
100
AcDbLine
 10
221.897373611319
 20
-42.2171207721238
 30
0.0
 11
221.897373611319
 21
90.91712077212371
 31
0.0
  0
LINE
  5
510
330
1F
100
AcDbEntity
  8
1
  6
CONTINUOUS
 62
   253
100
AcDbLine
 10
-863.243006914283
 20
-53.49560847134727
 30
0.0
 11
-863.243006914283
 21
102.1956084713477
 31
0.0
  0
LINE
  5
511
330
1F
100
AcDbEntity
  8
1
  6
CONTINUOUS
 62
   253
100
AcDbLine
 10
-783.3633251085026
 20
-53.4956084713473
 30
0.0
 11
-783.3633251085026
 21
102.1956084713477
 31
0.0
  0
LINE
  5
512
330
1F
100
AcDbEntity
  8
1
  6
CONTINUOUS
 62
   253
100
AcDbLine
 10
-632.2430069142831
 20
-53.49560847134735
 30
0.0
 11
-632.2430069142831
 21
102.1956084713476
 31
0.0
  0
LINE
  5
513
330
1F
100
AcDbEntity
  8
1
  6
CONTINUOUS
 62
     7
100
AcDbLine
 10
387.3368339886072
 20
111.85
 30
0.0
 11
387.3368339886072
 21
-63.15
 31
0.0
  0
LINE
  5
514
330
1F
100
AcDbEntity
  8
1
  6
CONTINUOUS
 62
   253
100
AcDbLine
 10
386.3368339886072
 20
-64.14999999999999
 30
0.0
 11
386.3368339886072
 21
112.85
 31
0.0
  0
LINE
  5
515
330
1F
100
AcDbEntity
  8
1
  6
CONTINUOUS
 62
   253
100
AcDbLine
 10
-491.363006914283
 20
-53.49560847134745
 30
0.0
 11
-491.363006914283
 21
102.1956084713475
 31
0.0
  0
LINE
  5
516
330
1F
100
AcDbEntity
  8
1
  6
CONTINUOUS
 62
   253
100
AcDbLine
 10
-105.6033251085027
 20
-53.4956084713475
 30
0.0
 11
-105.6033251085027
 21
102.1956084713475
 31
0.0
  0
LINE
  5
517
330
1F
100
AcDbEntity
  8
1
  6
CONTINUOUS
 62
   253
100
AcDbLine
 10
-477.4833251085028
 20
-53.49560847134745
 30
0.0
 11
-477.4833251085028
 21
102.1956084713475
 31
0.0
  0
LINE
  5
518
330
1F
100
AcDbEntity
  8
1
  6
CONTINUOUS
 62
   253
100
AcDbLine
 10
-761.7426263886812
 20
-42.21712077212363
 30
0.0
 11
-761.7426263886812
 21
90.91712077212388
 31
0.0
  0
LINE
  5
519
330
1F
100
AcDbEntity
  8
1
  6
CONTINUOUS
 62
   253
100
AcDbLine
 10
-585.3633251085027
 20
-53.49560847134737
 30
0.0
 11
-585.3633251085027
 21
102.1956084713476
 31
0.0
  0
LINE
  5
51A
330
1F
100
AcDbEntity
  8
1
  6
CONTINUOUS
 62
   253
100
AcDbLine
 10
560.3368339886072
 20
-64.14999999999999
 30
0.0
 11
560.3368339886072
 21
112.85
 31
0.0
  0
MTEXT
  5
51B
330
1F
100
AcDbEntity
  8
1
 62
     7
100
AcDbMText
 10
84.07251469301005
 20
-97.79030261348005
 30
0.0
 40
10.0
 41
0.0
 71
     1
 72
     1
  1
{\fＭＳ ゴシック;FEP-125CK}
  0
LWPOLYLINE
  5
51C
330
1F
100
AcDbEntity
  8
1
  6
CONTINUOUS
 62
   253
100
AcDbPolyline
 90
        8
 70
     0
 43
0.0
 10
465.9376658348638
 20
23.79206640556113
 10
465.8447100312824
 20
23.79200023719206
 10
465.7549953226807
 20
23.79180403918093
 10
465.6716497966062
 20
23.79148465237429
 10
465.5975794659784
 20
23.79105321284903
 10
465.5353669449805
 20
23.79052476363017
 10
465.4871814009127
 20
23.78991773018491
 10
465.4547029217193
 20
23.78925327798089
  0
LWPOLYLINE
  5
51D
330
1F
100
AcDbEntity
  8
1
  6
CONTINUOUS
 62
   253
100
AcDbPolyline
 90
        9
 70
     0
 43
0.0
 10
465.8284081180192
 20
26.39463615834833
 10
465.8393818678244
 20
26.2985624041746
 10
465.8680174520084
 20
26.20622034297987
 10
465.9132433270178
 20
26.12106541467183
 10
465.9733671406206
 20
26.0462841166473
 10
466.0461390597263
 20
25.9846747650604
 10
466.1288359591393
 20
25.93854278183268
 10
466.2183633209038
 20
25.90961442576545
 10
466.3113710311637
 20
25.89897219593578
  0
LWPOLYLINE
  5
51E
330
1F
100
AcDbEntity
  8
1
  6
CONTINUOUS
 62
   253
100
AcDbPolyline
 90
        8
 70
     0
 43
0.0
 10
480.7360021423506
 20
97.84788235115482
 10
480.828957945932
 20
97.85659886339474
 10
480.9186726545338
 20
97.88244448101554
 10
481.0020181806082
 20
97.92451804348407
 10
481.076088511236
 20
97.9813525696454
 10
481.1383010322339
 20
98.05096640703329
 10
481.1864865763018
 20
98.13093232625289
 10
481.2189650554951
 20
98.21846215131791
  0
LWPOLYLINE
  5
51F
330
1F
100
AcDbEntity
  8
1
  6
CONTINUOUS
 62
   253
100
AcDbPolyline
 90
        9
 70
     0
 43
0.0
 10
480.8452598591952
 20
22.30536384165163
 10
480.8342861093899
 20
22.40143759582535
 10
480.805650525206
 20
22.4937796570201
 10
480.7604246501966
 20
22.57893458532814
 10
480.7003008365938
 20
22.65371588335267
 10
480.6275289174881
 20
22.71532523493958
 10
480.5448320180751
 20
22.7614572181673
 10
480.4553046563106
 20
22.79038557423455
 10
480.3622969460507
 20
22.80102780406423
  0
LWPOLYLINE
  5
520
330
1F
100
AcDbEntity
  8
1
  6
CONTINUOUS
 62
   253
100
AcDbPolyline
 90
        8
 70
     0
 43
0.0
 10
481.2189650554951
 20
23.78925327798089
 10
481.1864865763017
 20
23.78991773018491
 10
481.1383010322339
 20
23.79052476363017
 10
481.076088511236
 20
23.79105321284903
 10
481.0020181806082
 20
23.79148465237429
 10
480.9186726545337
 20
23.79180403918093
 10
480.828957945932
 20
23.79200023719206
 10
480.7360021423506
 20
23.79206640556113
  0
LWPOLYLINE
  5
521
330
1F
100
AcDbEntity
  8
1
  6
CONTINUOUS
 62
     7
100
AcDbPolyline
 90
        8
 70
     0
 43
0.0
 10
558.8692579989029
 20
101.5406775641463
 10
558.9873668456121
 20
101.5942032780954
 10
559.0912693718864
 20
101.6575887360383
 10
559.1846277953748
 20
101.7350095546985
 10
559.2585322380122
 20
101.8223920016715
 10
559.3111692765125
 20
101.9221629499265
 10
559.3355728520249
 20
102.0291996623414
 10
559.3368339886072
 20
102.0598989816658
  0
LWPOLYLINE
  5
522
330
1F
100
AcDbEntity
  8
1
  6
CONTINUOUS
 62
     7
100
AcDbPolyline
 90
        8
 70
     0
 43
0.0
 10
-387.8044099783116
 20
101.5406775641463
 10
-387.6863011316023
 20
101.5942032780954
 10
-387.582398605328
 20
101.6575887360383
 10
-387.4890401818396
 20
101.7350095546985
 10
-387.4151357392022
 20
101.8223920016715
 10
-387.3624987007019
 20
101.9221629499265
 10
-387.3380951251895
 20
102.0291996623414
 10
-387.3368339886072
 20
102.0598989816658
210
0.0
220
0.0
230
-1.0
  0
LWPOLYLINE
  5
523
330
1F
100
AcDbEntity
  8
1
  6
CONTINUOUS
 62
   253
100
AcDbPolyline
 90
        9
 70
     0
 43
0.0
 10
467.0583161177282
 20
-45.40700559938978
 10
466.9653560601998
 20
-45.38270752976113
 10
466.8758708464252
 20
-45.36029587926209
 10
466.7932054306186
 20
-45.34060839461765
 10
466.7204498431801
 20
-45.32438099332686
 10
466.6603236854664
 20
-45.31222025509199
 10
466.6150744711856
 20
-45.30458074789011
 10
466.5863936144113
 20
-45.30174803623772
 10
466.5753532045837
 20
-45.30382800679899
  0
LWPOLYLINE
  5
524
330
1F
100
AcDbEntity
  8
1
  6
CONTINUOUS
 62
   253
100
AcDbPolyline
 90
        9
 70
     0
 43
0.0
 10
466.5753532045837
 20
26.54060664175964
 10
466.5863936144113
 20
26.44459219244651
 10
466.6150744711856
 20
26.35231881815581
 10
466.6603236854665
 20
26.26723569444566
 10
466.7204498431801
 20
26.19252322555472
 10
466.7932054306186
 20
26.13097416100109
 10
466.8758708464253
 20
26.08488920270139
 10
466.9653560601998
 20
26.05599100481221
 10
467.0583161177282
 20
26.04535978097696
  0
LWPOLYLINE
  5
525
330
1F
100
AcDbEntity
  8
1
  6
CONTINUOUS
 62
     7
100
AcDbPolyline
 90
        7
 70
     0
 43
0.0
 10
-387.3368339886072
 20
-53.35989898166574
 10
-387.3529136273442
 20
-53.25063184556016
 10
-387.4003373212
 20
-53.14521937062613
 10
-387.4669620823566
 20
-53.05775047607732
 10
-387.5589455157173
 20
-52.97477623898562
 10
-387.6571746362994
 20
-52.91016155387018
 10
-387.7742337575281
 20
-52.85283085419852
210
0.0
220
0.0
230
-1.0
  0
LWPOLYLINE
  5
526
330
1F
100
AcDbEntity
  8
1
  6
CONTINUOUS
 62
   253
100
AcDbPolyline
 90
        8
 70
     0
 43
0.0
 10
481.2189650554951
 20
-49.51846215131793
 10
481.1864865763018
 20
-49.4309323262529
 10
481.1383010322339
 20
-49.3509664070333
 10
481.076088511236
 20
-49.28135256964541
 10
481.0020181806083
 20
-49.2245180434841
 10
480.9186726545338
 20
-49.18244448101557
 10
480.828957945932
 20
-49.15659886339475
 10
480.7360021423506
 20
-49.14788235115485
  0
LWPOLYLINE
  5
527
330
1F
100
AcDbEntity
  8
1
  6
CONTINUOUS
 62
     7
100
AcDbPolyline
 90
       44
 70
     0
 43
0.0
 10
-558.3444145216517
 20
-14.45325410549467
 10
-558.3721432915411
 20
-14.45384907052293
 10
-558.3998346475772
 20
-14.4552118874768
 10
-558.4275767886589
 20
-14.45735114150577
 10
-558.4552224721417
 20
-14.46025801840992
 10
-558.4923945850687
 20
-14.46539902128521
 10
-558.5293381980042
 20
-14.4719292252057
 10
-558.5664073761034
 20
-14.47993401885033
 10
-558.6031011484483
 20
-14.48932610445784
 10
-558.6394206951184
 20
-14.5001035102011
 10
-558.6652536529554
 20
-14.50869357237575
 10
-558.6907653236884
 20
-14.5179539630101
 10
-558.7160280554376
 20
-14.52790830774629
 10
-558.7409266789043
 20
-14.53850733013715
 10
-558.7739065406982
 20
-14.55379912005086
 10
-558.8061983465292
 20
-14.57022078649281
 10
-558.8380603678994
 20
-14.58790917820396
 10
-558.8691361557268
 20
-14.60667094288427
 10
-558.8994342196863
 20
-14.6264962878384
 10
-558.9295791688943
 20
-14.64783531128944
 10
-558.9587888627733
 20
-14.67017228747536
 10
-558.9872890940816
 20
-14.6936809468823
 10
-559.0147420835036
 20
-14.71807871068887
 10
-559.0412692520155
 20
-14.74345738944145
 10
-559.0667025547039
 20
-14.7696378684032
 10
-559.0912693718864
 20
-14.79685104941262
 10
-559.1147224614971
 20
-14.82482301467804
 10
-559.1394114467603
 20
-14.85667745048761
 10
-559.1626983158475
 20
-14.8893564935866
 10
-559.1847611237473
 20
-14.92311295727186
 10
-559.2053397638605
 20
-14.95754632511817
 10
-559.2245281246813
 20
-14.99279214332279
 10
-559.2422076611884
 20
-15.02860964892532
 10
-559.2585322380122
 20
-15.06531773300466
 10
-559.2733306560143
 20
-15.10254889525071
 10
-559.287783900939
 20
-15.1438804775608
 10
-559.3003899648744
 20
-15.1857185867596
 10
-559.3112345585107
 20
-15.22840748140973
 10
-559.3201687316375
 20
-15.27142112880567
 10
-559.3272271430544
 20
-15.31494679909346
 10
-559.3323538690877
 20
-15.35867291349719
 10
-559.3355728520249
 20
-15.40301897186461
 10
-559.3368176312035
 20
-15.44750571028031
 10
-559.3368339886072
 20
-15.45322537284127
210
0.0
220
0.0
230
-1.0
  0
LWPOLYLINE
  5
528
330
1F
100
AcDbEntity
  8
1
  6
CONTINUOUS
 62
   253
100
AcDbPolyline
 90
        9
 70
     0
 43
0.0
 10
480.3622969460506
 20
96.9002471189467
 10
480.4553046563105
 20
96.87593027876635
 10
480.5448320180749
 20
96.85350258047472
 10
480.6275289174881
 20
96.8338032685365
 10
480.7003008365938
 20
96.81756949119966
 10
480.7604246501966
 20
96.80540871640825
 10
480.805650525206
 20
96.79777600035207
 10
480.8342861093899
 20
96.79495695926407
 10
480.8452598591952
 20
96.79705708166111
  0
LWPOLYLINE
  5
529
330
1F
100
AcDbEntity
  8
1
  6
CONTINUOUS
 62
   253
100
AcDbPolyline
 90
        9
 70
     0
 43
0.0
 10
480.0983147726307
 20
22.15939335824029
 10
480.087274362803
 20
22.25540780755344
 10
480.0585935060288
 20
22.34768118184415
 10
480.0133442917479
 20
22.4327643055543
 10
479.9532181340343
 20
22.50747677444526
 10
479.8804625465958
 20
22.56902583899889
 10
479.7977971307891
 20
22.6151107972986
 10
479.7083119170146
 20
22.6440089951878
 10
479.6153518594862
 20
22.65464021902307
  0
LWPOLYLINE
  5
52A
330
1F
100
AcDbEntity
  8
1
  6
CONTINUOUS
 62
   253
100
AcDbPolyline
 90
        9
 70
     0
 43
0.0
 10
466.5753532045837
 20
94.00382800679898
 10
466.5863936144112
 20
94.0017480362377
 10
466.6150744711856
 20
94.0045807478901
 10
466.6603236854664
 20
94.01222025509199
 10
466.7204498431801
 20
94.02438099332686
 10
466.7932054306186
 20
94.04060839461765
 10
466.8758708464252
 20
94.06029587926209
 10
466.9653560601998
 20
94.08270752976112
 10
467.0583161177282
 20
94.10700559938978
  0
LWPOLYLINE
  5
52B
330
1F
100
AcDbEntity
  8
1
  6
CONTINUOUS
 62
   253
100
AcDbPolyline
 90
        5
 70
     0
 43
0.0
 10
466.3113710311637
 20
25.89897219593578
 10
466.2138188361908
 20
25.85541876790086
 10
466.142701411557
 20
25.78014002070325
 10
466.0880205400973
 20
25.68991914219559
 10
466.0406037789639
 20
25.57933884261469
  0
LWPOLYLINE
  5
52C
330
1F
100
AcDbEntity
  8
1
  6
CONTINUOUS
 62
   253
100
AcDbPolyline
 90
        9
 70
     0
 43
0.0
 10
479.6153518594862
 20
94.10700559938978
 10
479.7083119170146
 20
94.08270752976112
 10
479.7977971307891
 20
94.06029587926209
 10
479.8804625465958
 20
94.04060839461765
 10
479.9532181340343
 20
94.02438099332686
 10
480.013344291748
 20
94.01222025509199
 10
480.0585935060288
 20
94.0045807478901
 10
480.0872743628032
 20
94.0017480362377
 10
480.0983147726307
 20
94.00382800679898
  0
LWPOLYLINE
  5
52D
330
1F
100
AcDbEntity
  8
1
  6
CONTINUOUS
 62
   253
100
AcDbPolyline
 90
        9
 70
     0
 43
0.0
 10
465.8284081180192
 20
96.79705708166111
 10
465.8393818678245
 20
96.79495695926407
 10
465.8680174520084
 20
96.79777600035207
 10
465.9132433270178
 20
96.80540871640825
 10
465.9733671406206
 20
96.81756949119966
 10
466.0461390597263
 20
96.8338032685365
 10
466.1288359591394
 20
96.85350258047472
 10
466.2183633209038
 20
96.87593027876635
 10
466.3113710311638
 20
96.9002471189467
  0
LWPOLYLINE
  5
52E
330
1F
100
AcDbEntity
  8
1
  6
CONTINUOUS
 62
   253
100
AcDbPolyline
 90
        5
 70
     0
 43
0.0
 10
-480.6239338860447
 20
23.09635754964057
 10
-480.5719138502524
 20
22.98422566374413
 10
-480.5121040643855
 20
22.89577352319645
 10
-480.4314444688175
 20
22.82532695486831
 10
-480.3622969460506
 20
22.80102780406423
210
0.0
220
0.0
230
-1.0
  0
LWPOLYLINE
  5
52F
330
1F
100
AcDbEntity
  8
1
  6
CONTINUOUS
 62
   253
100
AcDbPolyline
 90
        9
 70
     0
 43
0.0
 10
467.0583161177282
 20
22.65464021902305
 10
466.9653560601998
 20
22.6440089951878
 10
466.8758708464253
 20
22.61511079729862
 10
466.7932054306186
 20
22.56902583899891
 10
466.7204498431801
 20
22.50747677444529
 10
466.6603236854665
 20
22.43276430555434
 10
466.6150744711856
 20
22.34768118184419
 10
466.5863936144113
 20
22.25540780755349
 10
466.5753532045837
 20
22.15939335824035
  0
LWPOLYLINE
  5
530
330
1F
100
AcDbEntity
  8
1
  6
CONTINUOUS
 62
   253
100
AcDbPolyline
 90
        8
 70
     0
 43
0.0
 10
465.4547029217193
 20
24.91074672201912
 10
465.4871814009126
 20
24.9100822698151
 10
465.5353669449805
 20
24.90947523636984
 10
465.5975794659783
 20
24.90894678715098
 10
465.6716497966061
 20
24.90851534762572
 10
465.7549953226806
 20
24.90819596081908
 10
465.8447100312824
 20
24.90799976280794
 10
465.9376658348638
 20
24.90793359443888
  0
LWPOLYLINE
  5
531
330
1F
100
AcDbEntity
  8
1
  6
CONTINUOUS
 62
   253
100
AcDbPolyline
 90
        9
 70
     0
 43
0.0
 10
480.0983147726307
 20
-45.30382800679899
 10
480.0872743628031
 20
-45.30174803623772
 10
480.0585935060288
 20
-45.30458074789011
 10
480.013344291748
 20
-45.31222025509199
 10
479.9532181340343
 20
-45.32438099332686
 10
479.8804625465958
 20
-45.34060839461765
 10
479.7977971307891
 20
-45.36029587926209
 10
479.7083119170146
 20
-45.38270752976113
 10
479.6153518594862
 20
-45.40700559938978
  0
LWPOLYLINE
  5
532
330
1F
100
AcDbEntity
  8
1
  6
CONTINUOUS
 62
   253
100
AcDbPolyline
 90
        5
 70
     0
 43
0.0
 10
466.0497340911696
 20
23.09635754964057
 10
466.101754126962
 20
22.98422566374413
 10
466.1615639128289
 20
22.89577352319645
 10
466.2422235083969
 20
22.82532695486831
 10
466.3113710311637
 20
22.80102780406423
  0
LWPOLYLINE
  5
533
330
1F
100
AcDbEntity
  8
1
  6
CONTINUOUS
 62
   253
100
AcDbPolyline
 90
        8
 70
     0
 43
0.0
 10
465.9376658348638
 20
-49.14788235115485
 10
465.8447100312824
 20
-49.15659886339475
 10
465.7549953226807
 20
-49.18244448101555
 10
465.6716497966062
 20
-49.22451804348408
 10
465.5975794659784
 20
-49.28135256964539
 10
465.5353669449805
 20
-49.35096640703328
 10
465.4871814009126
 20
-49.43093232625288
 10
465.4547029217193
 20
-49.5184621513179
  0
LWPOLYLINE
  5
534
330
1F
100
AcDbEntity
  8
1
  6
CONTINUOUS
 62
   253
100
AcDbPolyline
 90
        8
 70
     0
 43
0.0
 10
465.4547029217193
 20
98.2184621513179
 10
465.4871814009126
 20
98.13093232625287
 10
465.5353669449805
 20
98.05096640703327
 10
465.5975794659784
 20
97.98135256964538
 10
465.6716497966062
 20
97.92451804348407
 10
465.7549953226807
 20
97.88244448101554
 10
465.8447100312824
 20
97.85659886339472
 10
465.9376658348638
 20
97.84788235115482
  0
LWPOLYLINE
  5
535
330
1F
100
AcDbEntity
  8
1
  6
CONTINUOUS
 62
     7
100
AcDbPolyline
 90
       42
 70
     0
 43
0.0
 10
388.3292534555627
 20
-14.45325410549467
 10
388.2923264998462
 20
-14.4542163221094
 10
388.2554138414753
 20
-14.4565455046584
 10
388.218121489734
 20
-14.46029712905908
 10
388.1810572931791
 20
-14.46543307627205
 10
388.1440094812539
 20
-14.47199253403488
 10
388.107331489844
 20
-14.47991730082016
 10
388.070566828766
 20
-14.48932610445784
 10
388.034247282096
 20
-14.5001035102011
 10
387.9999041378614
 20
-14.51169561989852
 10
387.9660878375634
 20
-14.52449113125964
 10
387.9324980678373
 20
-14.53861514361691
 10
387.8996012678034
 20
-14.55387697101998
 10
387.8672372540751
 20
-14.57034464851535
 10
387.8356561376365
 20
-14.58788107044115
 10
387.8045318214877
 20
-14.60667094288427
 10
387.7742337575281
 20
-14.6264962878384
 10
387.7440888083201
 20
-14.64783531128944
 10
387.7148791144411
 20
-14.67017228747536
 10
387.6863788831328
 20
-14.6936809468823
 10
387.6589258937107
 20
-14.71807871068887
 10
387.6323987251989
 20
-14.74345738944145
 10
387.6069654225104
 20
-14.7696378684032
 10
387.582398605328
 20
-14.79685104941262
 10
387.5589455157173
 20
-14.82482301467804
 10
387.5342565304541
 20
-14.85667745048761
 10
387.5109696613669
 20
-14.8893564935866
 10
387.4890401818396
 20
-14.92289937762087
 10
387.4685497794981
 20
-14.95715830861324
 10
387.4492543664155
 20
-14.99257104010354
 10
387.4314603160259
 20
-15.02860964892532
 10
387.4151357392021
 20
-15.06531773300466
 10
387.4003373212
 20
-15.10254889525071
 10
387.3858840762754
 20
-15.1438804775608
 10
387.37327801234
 20
-15.1857185867596
 10
387.3624987007019
 20
-15.22812373636898
 10
387.3535936655108
 20
-15.27091117416921
 10
387.3464808767793
 20
-15.31465873222113
 10
387.3413141081267
 20
-15.35867291349719
 10
387.3380951251895
 20
-15.40301897186461
 10
387.3368503460108
 20
-15.44750571028031
 10
387.3368339886072
 20
-15.45322537284127
  0
LWPOLYLINE
  5
536
330
1F
100
AcDbEntity
  8
1
  6
CONTINUOUS
 62
     7
100
AcDbPolyline
 90
       42
 70
     0
 43
0.0
 10
387.3368339886072
 20
64.15322537284128
 10
387.3368503460108
 20
64.14750571028033
 10
387.338029397064
 20
64.10434400714689
 10
387.3410778735799
 20
64.06119407715491
 10
387.3460196374027
 20
64.01799622861871
 10
387.3528570043226
 20
63.97492984738068
 10
387.3617396420364
 20
63.93143489674793
 10
387.3725915809924
 20
63.88820352589767
 10
387.3854641532492
 20
63.84517434399856
 10
387.4003373212
 20
63.80254889525072
 10
387.4147066041248
 20
63.76633897247583
 10
387.4305595380618
 20
63.73053562812461
 10
387.4479453206731
 20
63.69510209683536
 10
387.4668307178604
 20
63.66017942276017
 10
387.4875020596858
 20
63.6253662301577
 10
387.509719425976
 20
63.59119201059013
 10
387.5335548512758
 20
63.55762262979168
 10
387.5589455157173
 20
63.52482301467807
 10
387.5817373455645
 20
63.49761187415037
 10
387.6056412410773
 20
63.47105445147359
 10
387.6308668383378
 20
63.44498104822774
 10
387.6571746362994
 20
63.41969748324157
 10
387.6846990459309
 20
63.39512274836997
 10
387.7132824680974
 20
63.37144311334061
 10
387.7432174120916
 20
63.34847736253874
 10
387.7742337575281
 20
63.32649628783842
 10
387.8035434955165
 20
63.30729319472117
 10
387.8337143064079
 20
63.2890086260794
 10
387.8650326935395
 20
63.27152076191338
 10
387.8971260930528
 20
63.25508453389278
 10
387.9301660000382
 20
63.23964968156563
 10
387.963910235179
 20
63.22536338195632
 10
387.9987357567045
 20
63.21211454749481
 10
388.034247282096
 20
63.20010351020111
 10
388.0691409851015
 20
63.18972111448322
 10
388.104574482804
 20
63.18057151767796
 10
388.1409347308834
 20
63.17260175336807
 10
388.1776645433195
 20
63.16597409394276
 10
388.21498154291
 20
63.16067758445747
 10
388.2525360979383
 20
63.15678477469768
 10
388.2908090620103
 20
63.15428508126639
 10
388.3292534555638
 20
63.15325410549467
  0
LWPOLYLINE
  5
537
330
1F
100
AcDbEntity
  8
1
  6
CONTINUOUS
 62
     7
100
AcDbPolyline
 90
        6
 70
     0
 43
0.0
 10
-395.3368339886071
 20
-50.45654677783831
 10
-395.3239655110514
 20
-50.61523360875955
 10
-395.2853330706571
 20
-50.77203728753651
 10
-395.2185579190864
 20
-50.93021804410066
 10
-395.1243617935446
 20
-51.08416641516269
 10
-395.0062792931015
 20
-51.22880183857608
210
0.0
220
0.0
230
-1.0
  0
LWPOLYLINE
  5
538
330
1F
100
AcDbEntity
  8
1
  6
CONTINUOUS
 62
     7
100
AcDbPolyline
 90
        6
 70
     0
 43
0.0
 10
551.3368339886073
 20
-50.45654677783831
 10
551.3497024661631
 20
-50.61523360875955
 10
551.3883349065572
 20
-50.77203728753651
 10
551.455110058128
 20
-50.93021804410066
 10
551.5493061836698
 20
-51.08416641516269
 10
551.6673886841129
 20
-51.22880183857608
  0
LWPOLYLINE
  5
539
330
1F
100
AcDbEntity
  8
1
  6
CONTINUOUS
 62
     7
100
AcDbPolyline
 90
        7
 70
     0
 43
0.0
 10
559.3368339886072
 20
-53.35989898166574
 10
559.3207543498703
 20
-53.25063184556016
 10
559.2733306560143
 20
-53.14521937062613
 10
559.2067058948578
 20
-53.05775047607732
 10
559.1147224614971
 20
-52.97477623898562
 10
559.016493340915
 20
-52.91016155387018
 10
558.8994342196863
 20
-52.85283085419852
  0
LWPOLYLINE
  5
53A
330
1F
100
AcDbEntity
  8
1
  6
CONTINUOUS
 62
   253
100
AcDbPolyline
 90
        9
 70
     0
 43
0.0
 10
480.3622969460507
 20
25.89897219593577
 10
480.4553046563106
 20
25.90961442576545
 10
480.5448320180751
 20
25.9385427818327
 10
480.6275289174881
 20
25.98467476506042
 10
480.7003008365938
 20
26.04628411664734
 10
480.7604246501966
 20
26.12106541467186
 10
480.805650525206
 20
26.20622034297991
 10
480.8342861093899
 20
26.29856240417465
 10
480.8452598591952
 20
26.39463615834838
  0
LWPOLYLINE
  5
53B
330
1F
100
AcDbEntity
  8
1
  6
CONTINUOUS
 62
   253
100
AcDbPolyline
 90
        8
 70
     0
 43
0.0
 10
480.7360021423506
 20
24.90793359443888
 10
480.828957945932
 20
24.90799976280794
 10
480.9186726545338
 20
24.90819596081908
 10
481.0020181806083
 20
24.90851534762572
 10
481.0760885112361
 20
24.90894678715098
 10
481.1383010322339
 20
24.90947523636984
 10
481.1864865763018
 20
24.9100822698151
 10
481.2189650554951
 20
24.91074672201912
  0
LWPOLYLINE
  5
53C
330
1F
100
AcDbEntity
  8
1
  6
CONTINUOUS
 62
   253
100
AcDbPolyline
 90
        5
 70
     0
 43
0.0
 10
-480.3622969460506
 20
25.89897219593578
 10
-480.4598491410235
 20
25.85541876790086
 10
-480.5309665656573
 20
25.78014002070325
 10
-480.5856474371171
 20
25.68991914219559
 10
-480.6330641982505
 20
25.57933884261469
210
0.0
220
0.0
230
-1.0
  0
LWPOLYLINE
  5
53D
330
1F
100
AcDbEntity
  8
1
  6
CONTINUOUS
 62
     7
100
AcDbPolyline
 90
        6
 70
     0
 43
0.0
 10
-558.9681650658172
 20
97.95391478018519
 10
-559.0783798060022
 20
97.89929309549949
 10
-559.1727118558132
 20
97.83511072308607
 10
-559.2505248886066
 20
97.75944856556372
 10
-559.3153940245921
 20
97.65206935896906
 10
-559.3368339886072
 20
97.54071321088612
210
0.0
220
0.0
230
-1.0
  0
LWPOLYLINE
  5
53E
330
1F
100
AcDbEntity
  8
1
  6
CONTINUOUS
 62
   253
100
AcDbPolyline
 90
        9
 70
     0
 43
0.0
 10
480.8452598591952
 20
-48.09705708166113
 10
480.83428610939
 20
-48.09495695926409
 10
480.805650525206
 20
-48.09777600035209
 10
480.7604246501966
 20
-48.10540871640828
 10
480.7003008365938
 20
-48.11756949119968
 10
480.6275289174881
 20
-48.13380326853652
 10
480.544832018075
 20
-48.15350258047475
 10
480.4553046563105
 20
-48.17593027876638
 10
480.3622969460506
 20
-48.20024711894673
  0
LWPOLYLINE
  5
53F
330
1F
100
AcDbEntity
  8
1
  6
CONTINUOUS
 62
   253
100
AcDbPolyline
 90
        9
 70
     0
 43
0.0
 10
466.3113710311637
 20
22.80102780406422
 10
466.2183633209038
 20
22.79038557423455
 10
466.1288359591393
 20
22.76145721816732
 10
466.0461390597263
 20
22.7153252349396
 10
465.9733671406206
 20
22.6537158833527
 10
465.9132433270178
 20
22.57893458532818
 10
465.8680174520084
 20
22.49377965702014
 10
465.8393818678244
 20
22.40143759582541
 10
465.8284081180192
 20
22.30536384165168
  0
LWPOLYLINE
  5
540
330
1F
100
AcDbEntity
  8
1
  6
CONTINUOUS
 62
   253
100
AcDbPolyline
 90
        9
 70
     0
 43
0.0
 10
479.6153518594862
 20
26.04535978097694
 10
479.7083119170146
 20
26.05599100481221
 10
479.7977971307891
 20
26.0848892027014
 10
479.8804625465958
 20
26.13097416100111
 10
479.9532181340343
 20
26.19252322555475
 10
480.0133442917479
 20
26.2672356944457
 10
480.0585935060288
 20
26.35231881815585
 10
480.087274362803
 20
26.44459219244656
 10
480.0983147726307
 20
26.5406066417597
  0
LWPOLYLINE
  5
541
330
1F
100
AcDbEntity
  8
1
  6
CONTINUOUS
 62
   253
100
AcDbPolyline
 90
        9
 70
     0
 43
0.0
 10
466.3113710311638
 20
-48.20024711894673
 10
466.2183633209038
 20
-48.17593027876638
 10
466.1288359591394
 20
-48.15350258047475
 10
466.0461390597263
 20
-48.13380326853652
 10
465.9733671406206
 20
-48.11756949119968
 10
465.9132433270178
 20
-48.10540871640828
 10
465.8680174520084
 20
-48.09777600035208
 10
465.8393818678244
 20
-48.09495695926409
 10
465.8284081180192
 20
-48.09705708166113
  0
LWPOLYLINE
  5
542
330
1F
100
AcDbEntity
  8
1
  6
CONTINUOUS
 62
   253
100
AcDbPolyline
 90
        3
 70
     0
 43
0.0
 10
480.8452598591951
 20
22.30536384165167
 10
480.9463977724117
 20
22.37481633837871
 10
481.0098948750585
 20
22.47514517277198
  0
LWPOLYLINE
  5
543
330
1F
100
AcDbEntity
  8
1
  6
CONTINUOUS
 62
     7
100
AcDbPolyline
 90
        6
 70
     0
 43
0.0
 10
387.3368339886072
 20
-48.84071321088609
 10
387.3537369748194
 20
-48.93983489302383
 10
387.4064364552968
 20
-49.03825544342311
 10
387.4919460736435
 20
-49.12774276270295
 10
387.5810980957652
 20
-49.19092356858643
 10
387.6803411750996
 20
-49.2429077986766
  0
LWPOLYLINE
  5
544
330
1F
100
AcDbEntity
  8
1
  6
CONTINUOUS
 62
     7
100
AcDbPolyline
 90
        6
 70
     0
 43
0.0
 10
-559.3368339886072
 20
-48.84071321088609
 10
-559.3199310023949
 20
-48.93983489302383
 10
-559.2672315219177
 20
-49.03825544342311
 10
-559.181721903571
 20
-49.12774276270295
 10
-559.0925698814492
 20
-49.19092356858643
 10
-558.9933268021148
 20
-49.2429077986766
210
0.0
220
0.0
230
-1.0
  0
LWPOLYLINE
  5
545
330
1F
100
AcDbEntity
  8
1
  6
CONTINUOUS
 62
     7
100
AcDbPolyline
 90
        5
 70
     0
 43
0.0
 10
-551.5310976079868
 20
-47.60034605052009
 10
-551.4468528951678
 20
-47.44933090446543
 10
-551.3864552753647
 20
-47.29463271928106
 10
-551.3492275933102
 20
-47.1331454135023
 10
-551.3368339886072
 20
-46.96979191500463
210
0.0
220
0.0
230
-1.0
  0
LWPOLYLINE
  5
546
330
1F
100
AcDbEntity
  8
1
  6
CONTINUOUS
 62
   253
100
AcDbPolyline
 90
        4
 70
     0
 43
0.0
 10
481.0290235836959
 20
26.18426949323156
 10
480.9698945828619
 20
26.29375440103054
 10
480.8838620477007
 20
26.38003600374067
 10
480.8452598591951
 20
26.39463615834834
  0
LWPOLYLINE
  5
547
330
1F
100
AcDbEntity
  8
1
  6
CONTINUOUS
 62
     7
100
AcDbPolyline
 90
        6
 70
     0
 43
0.0
 10
387.7055029113972
 20
97.95391478018519
 10
387.5952881712122
 20
97.89929309549949
 10
387.5009561214012
 20
97.83511072308607
 10
387.4231430886078
 20
97.75944856556372
 10
387.3582739526223
 20
97.65206935896906
 10
387.3368339886072
 20
97.54071321088612
  0
LWPOLYLINE
  5
548
330
1F
100
AcDbEntity
  8
1
  6
CONTINUOUS
 62
     7
100
AcDbPolyline
 90
       44
 70
     0
 43
0.0
 10
-559.3368339886072
 20
64.15322537284128
 10
-559.3368176312035
 20
64.14750571028033
 10
-559.3356385801504
 20
64.10434400714689
 10
-559.3325901036344
 20
64.06119407715491
 10
-559.3276096567939
 20
64.01771467124999
 10
-559.3207201618678
 20
63.97442940513942
 10
-559.3118642458245
 20
63.93115434105059
 10
-559.3010763962219
 20
63.88820352589767
 10
-559.2882038239651
 20
63.84517434399856
 10
-559.2733306560143
 20
63.80254889525072
 10
-559.2589613730895
 20
63.76633897247583
 10
-559.2431084391526
 20
63.73053562812461
 10
-559.2256136879239
 20
63.69489111328948
 10
-559.2066270229792
 20
63.65980863482171
 10
-559.1860375790209
 20
63.62516017317182
 10
-559.1639485512384
 20
63.59119201059013
 10
-559.1401131259386
 20
63.55762262979168
 10
-559.1147224614971
 20
63.52482301467807
 10
-559.0919306316498
 20
63.49761187415037
 10
-559.0680267361371
 20
63.47105445147359
 10
-559.0428011388766
 20
63.44498104822774
 10
-559.016493340915
 20
63.41969748324157
 10
-558.9889689312834
 20
63.39512274836997
 10
-558.9603855091169
 20
63.37144311334061
 10
-558.9304505651228
 20
63.34847736253874
 10
-558.8994342196863
 20
63.32649628783842
 10
-558.87751263346
 20
63.3119962308052
 10
-558.8551259627053
 20
63.29802163712363
 10
-558.8322126954556
 20
63.2845483404091
 10
-558.8088565140039
 20
63.2716388850149
 10
-558.7766933336926
 20
63.25515869572813
 10
-558.7437365825348
 20
63.23975381934062
 10
-558.7096993702809
 20
63.22533992347305
 10
-558.6749322205097
 20
63.21211454749481
 10
-558.6394206951184
 20
63.20010351020111
 10
-558.6132720744008
 20
63.1921937568595
 10
-558.5868463619868
 20
63.18498273116661
 10
-558.5600608013228
 20
63.17845896256678
 10
-558.533045205292
 20
63.17266371825394
 10
-558.4962143311895
 20
63.16600811894104
 10
-558.4590069233697
 20
63.16071654466315
 10
-558.4210556184424
 20
63.15677832604559
 10
-558.3828589152041
 20
63.15428508126639
 10
-558.3444145216506
 20
63.15325410549467
210
0.0
220
0.0
230
-1.0
  0
ENDSEC
  0
SECTION
  2
OBJECTS
  0
DICTIONARY
  5
C
330
0
100
AcDbDictionary
  3
ACAD_GROUP
350
D
  3
ACAD_LAYOUT
350
1A
  3
ACAD_MATERIAL
350
43
  3
ACAD_MLEADERSTYLE
350
6B
  3
ACAD_MLINESTYLE
350
17
  3
ACAD_PLOTSETTINGS
350
19
  3
ACAD_SCALELIST
350
47
  3
ACAD_VISUALSTYLE
350
2A
  3
ACDBHEADERROUNDTRIPXREC
350
549
  3
ACDBVARIABLEDICTIONARY
350
56A
  0
DICTIONARY
  5
571
330
8
100
AcDbDictionary
280
     1
  3
ACAD_XREC_ROUNDTRIP
360
572
  0
DICTIONARY
  5
D
102
{ACAD_REACTORS
330
C
102
}
330
C
100
AcDbDictionary
  0
DICTIONARY
  5
1A
102
{ACAD_REACTORS
330
C
102
}
330
C
100
AcDbDictionary
  0
DICTIONARY
  5
43
102
{ACAD_REACTORS
330
C
102
}
330
C
100
AcDbDictionary
  3
BYBLOCK
350
45
  3
BYLAYER
350
44
  3
GLOBAL
350
46
  0
DICTIONARY
  5
6B
102
{ACAD_REACTORS
330
C
102
}
330
C
100
AcDbDictionary
  3
STANDARD
350
6C
  0
DICTIONARY
  5
17
102
{ACAD_REACTORS
330
C
102
}
330
C
100
AcDbDictionary
  3
STANDARD
350
18
  0
DICTIONARY
  5
19
102
{ACAD_REACTORS
330
C
102
}
330
C
100
AcDbDictionary
  0
DICTIONARY
  5
47
102
{ACAD_REACTORS
330
C
102
}
330
C
100
AcDbDictionary
  3
A0
350
48
  3
A1
350
49
  3
A2
350
4A
  3
A3
350
4B
  3
A4
350
4C
  3
A5
350
4D
  3
A6
350
4E
  3
A7
350
4F
  3
A8
350
50
  3
A9
350
51
  3
B0
350
52
  3
B1
350
53
  3
B2
350
54
  3
B3
350
55
  3
B4
350
56
  3
B5
350
57
  3
B6
350
58
  3
B7
350
59
  3
B8
350
5A
  3
B9
350
5B
  3
C0
350
5C
  3
C1
350
5D
  3
C2
350
5E
  3
C3
350
5F
  3
C4
350
60
  3
C5
350
61
  3
C6
350
62
  3
C7
350
63
  3
C8
350
64
  3
C9
350
65
  3
D0
350
66
  3
D1
350
67
  3
D2
350
68
  0
DICTIONARY
  5
2A
102
{ACAD_REACTORS
330
C
102
}
330
C
100
AcDbDictionary
  3
2DWIREFRAME
350
2F
  3
BASIC
350
32
  3
BRIGHTEN
350
36
  3
COLORCHANGE
350
3A
  3
CONCEPTUAL
350
34
  3
DIM
350
35
  3
EDGECOLOROFF
350
3D
  3
FACEPATTERN
350
39
  3
FLAT
350
2B
  3
FLATWITHEDGES
350
2C
  3
GOURAUD
350
2D
  3
GOURAUDWITHEDGES
350
2E
  3
HIDDEN
350
31
  3
JITTEROFF
350
3B
  3
LINEPATTERN
350
38
  3
OVERHANGOFF
350
3C
  3
REALISTIC
350
33
  3
SHADED
350
42
  3
SHADED_WITH_EDGES
350
41
  3
SHADES_OF_GRAY
350
3E
  3
SKETCHY
350
3F
  3
THICKEN
350
37
  3
WIREFRAME
350
30
  3
X-RAY
350
40
  0
DICTIONARY
  5
549
102
{ACAD_REACTORS
330
C
102
}
330
C
100
AcDbDictionary
  3
CEPSNID
350
553
  3
CEPSNTYPE
350
552
  3
DIMSTYLEDATA
350
569
  3
FINGERPRINTGUID
350
554
  3
HYPERLINKBASE
350
54C
  3
INSUNITS
350
551
  3
LAYOUTDICT
350
54E
  3
LWETCUNION
350
550
  3
PLOTSETDICT
350
54F
  3
PSVPSCALE
350
556
  3
PUCSBASE
350
559
  3
PUCSORGBACK
350
55F
  3
PUCSORGBOTTOM
350
55B
  3
PUCSORGFRONT
350
55E
  3
PUCSORGLEFT
350
55C
  3
PUCSORGRIGHT
350
55D
  3
PUCSORGTOP
350
55A
  3
PUCSORTHOREF
350
557
  3
PUCSORTHOVIEW
350
558
  3
STYLESHEET
350
54D
  3
TSTACKALIGN
350
54A
  3
TSTACKSIZE
350
54B
  3
UCSBASE
350
562
  3
UCSORGBACK
350
568
  3
UCSORGBOTTOM
350
564
  3
UCSORGFRONT
350
567
  3
UCSORGLEFT
350
565
  3
UCSORGRIGHT
350
566
  3
UCSORGTOP
350
563
  3
UCSORTHOREF
350
560
  3
UCSORTHOVIEW
350
561
  3
VERSIONGUID
350
555
  0
DICTIONARY
  5
56A
102
{ACAD_REACTORS
330
C
102
}
330
C
100
AcDbDictionary
  3
CANNOSCALE
350
573
  3
CMLEADERSTYLE
350
56C
  3
CTABLESTYLE
350
56B
  3
DIMASSOC
350
56F
  3
HIDETEXT
350
570
  3
MSLTSCALE
350
574
  0
XRECORD
  5
572
102
{ACAD_REACTORS
330
571
102
}
330
571
100
AcDbXrecord
102
VTR_0.000_0.000_1.000_1.000_VISUALSTYLE
340
2F
102
VTR_0.000_0.000_1.000_1.000_GRIDDISPLAY
 70
     3
102
VTR_0.000_0.000_1.000_1.000_GRIDMAJOR
 70
     5
102
VTR_0.000_0.000_1.000_1.000_DEFAULTLIGHTING
280
     1
102
VTR_0.000_0.000_1.000_1.000_DEFAULTLIGHTINGTYPE
 70
     1
102
VTR_0.000_0.000_1.000_1.000_BRIGHTNESS
141
0.0
102
VTR_0.000_0.000_1.000_1.000_CONTRAST
142
0.0
  0
MATERIAL
  5
45
102
{ACAD_REACTORS
330
43
102
}
102
{ACAD_XDICTIONARY
360
577
102
}
330
43
100
AcDbMaterial
  1
BYBLOCK
  0
MATERIAL
  5
44
102
{ACAD_REACTORS
330
43
102
}
102
{ACAD_XDICTIONARY
360
575
102
}
330
43
100
AcDbMaterial
  1
BYLAYER
  0
MATERIAL
  5
46
102
{ACAD_REACTORS
330
43
102
}
102
{ACAD_XDICTIONARY
360
579
102
}
330
43
100
AcDbMaterial
  1
GLOBAL
  0
ACAD_PROXY_OBJECT
  5
6C
102
{ACAD_REACTORS
330
6B
102
}
330
6B
100
AcDbProxyObject
 90
      499
 91
      505
 93
      610
310
40901902A4063FBFFFFFE056BD1B81E855B9FC0AD7A3703D0AD73F4214DD185B99185C9900AD7A3703D0AC73F90141901A02B5E8DC0F42B1CFC02B5E8DC0F42B1CFE5764000000000000300FC0
340
14
340
0
340
11
340
0
 94
        0
1001
ACAD_MLEADERVER
1070
     2
  0
MLINESTYLE
  5
18
102
{ACAD_REACTORS
330
17
102
}
330
17
100
AcDbMlineStyle
  2
Standard
 70
     0
  3

 62
   256
 51
90.0
 52
90.0
 71
     2
 49
0.5
 62
   256
  6
BYLAYER
 49
-0.5
 62
   256
  6
BYLAYER
  0
ACAD_PROXY_OBJECT
  5
48
102
{ACAD_REACTORS
330
47
102
}
330
47
100
AcDbProxyObject
 90
      499
 91
      503
 93
       41
310
903313A31580
  0
ACAD_PROXY_OBJECT
  5
49
102
{ACAD_REACTORS
330
47
102
}
330
47
100
AcDbProxyObject
 90
      499
 91
      503
 93
      105
310
903313A324000000000000004000
  0
ACAD_PROXY_OBJECT
  5
4A
102
{ACAD_REACTORS
330
47
102
}
330
47
100
AcDbProxyObject
 90
      499
 91
      503
 93
      105
310
903313A344000000000000104000
  0
ACAD_PROXY_OBJECT
  5
4B
102
{ACAD_REACTORS
330
47
102
}
330
47
100
AcDbProxyObject
 90
      499
 91
      503
 93
      105
310
903313A354000000000000144000
  0
ACAD_PROXY_OBJECT
  5
4C
102
{ACAD_REACTORS
330
47
102
}
330
47
100
AcDbProxyObject
 90
      499
 91
      503
 93
      105
310
903313A384000000000000204000
  0
ACAD_PROXY_OBJECT
  5
4D
102
{ACAD_REACTORS
330
47
102
}
330
47
100
AcDbProxyObject
 90
      499
 91
      503
 93
      113
310
904313A31304000000000000244000
  0
ACAD_PROXY_OBJECT
  5
4E
102
{ACAD_REACTORS
330
47
102
}
330
47
100
AcDbProxyObject
 90
      499
 91
      503
 93
      113
310
904313A31364000000000000304000
  0
ACAD_PROXY_OBJECT
  5
4F
102
{ACAD_REACTORS
330
47
102
}
330
47
100
AcDbProxyObject
 90
      499
 91
      503
 93
      113
310
904313A32304000000000000344000
  0
ACAD_PROXY_OBJECT
  5
50
102
{ACAD_REACTORS
330
47
102
}
330
47
100
AcDbProxyObject
 90
      499
 91
      503
 93
      113
310
904313A333040000000000003E4000
  0
ACAD_PROXY_OBJECT
  5
51
102
{ACAD_REACTORS
330
47
102
}
330
47
100
AcDbProxyObject
 90
      499
 91
      503
 93
      113
310
904313A34304000000000000444000
  0
ACAD_PROXY_OBJECT
  5
52
102
{ACAD_REACTORS
330
47
102
}
330
47
100
AcDbProxyObject
 90
      499
 91
      503
 93
      113
310
904313A35304000000000000494000
  0
ACAD_PROXY_OBJECT
  5
53
102
{ACAD_REACTORS
330
47
102
}
330
47
100
AcDbProxyObject
 90
      499
 91
      503
 93
      121
310
905313A3130304000000000000594000
  0
ACAD_PROXY_OBJECT
  5
54
102
{ACAD_REACTORS
330
47
102
}
330
47
100
AcDbProxyObject
 90
      499
 91
      503
 93
      105
310
903323A310000000000000010100
  0
ACAD_PROXY_OBJECT
  5
55
102
{ACAD_REACTORS
330
47
102
}
330
47
100
AcDbProxyObject
 90
      499
 91
      503
 93
      105
310
903343A310000000000000410100
  0
ACAD_PROXY_OBJECT
  5
56
102
{ACAD_REACTORS
330
47
102
}
330
47
100
AcDbProxyObject
 90
      499
 91
      503
 93
      105
310
903383A310000000000000810100
  0
ACAD_PROXY_OBJECT
  5
57
102
{ACAD_REACTORS
330
47
102
}
330
47
100
AcDbProxyObject
 90
      499
 91
      503
 93
      113
310
90431303A310000000000000910100
  0
ACAD_PROXY_OBJECT
  5
58
102
{ACAD_REACTORS
330
47
102
}
330
47
100
AcDbProxyObject
 90
      499
 91
      503
 93
      121
310
9053130303A310000000000001650100
  0
ACAD_PROXY_OBJECT
  5
59
102
{ACAD_REACTORS
330
47
102
}
330
47
100
AcDbProxyObject
 90
      499
 91
      503
 93
      257
310
90E312F31323822203D2031272D3022000000000000200FC000000000000284000
  0
ACAD_PROXY_OBJECT
  5
5A
102
{ACAD_REACTORS
330
47
102
}
330
47
100
AcDbProxyObject
 90
      499
 91
      503
 93
      249
310
90D312F363422203D2031272D3022000000000000240FC000000000000284000
  0
ACAD_PROXY_OBJECT
  5
5B
102
{ACAD_REACTORS
330
47
102
}
330
47
100
AcDbProxyObject
 90
      499
 91
      503
 93
      249
310
90D312F333222203D2031272D3022000000000000280FC000000000000284000
  0
ACAD_PROXY_OBJECT
  5
5C
102
{ACAD_REACTORS
330
47
102
}
330
47
100
AcDbProxyObject
 90
      499
 91
      503
 93
      249
310
90D312F313622203D2031272D30220000000000002C0FC000000000000284000
  0
ACAD_PROXY_OBJECT
  5
5D
102
{ACAD_REACTORS
330
47
102
}
330
47
100
AcDbProxyObject
 90
      499
 91
      503
 93
      249
310
90D332F333222203D2031272D30220000000000002E0FC000000000000284000
  0
ACAD_PROXY_OBJECT
  5
5E
102
{ACAD_REACTORS
330
47
102
}
330
47
100
AcDbProxyObject
 90
      499
 91
      503
 93
      241
310
90C312F3822203D2031272D3022000000000000300FC000000000000284000
  0
ACAD_PROXY_OBJECT
  5
5F
102
{ACAD_REACTORS
330
47
102
}
330
47
100
AcDbProxyObject
 90
      499
 91
      503
 93
      249
310
90D332F313622203D2031272D3022000000000000320FC000000000000284000
  0
ACAD_PROXY_OBJECT
  5
60
102
{ACAD_REACTORS
330
47
102
}
330
47
100
AcDbProxyObject
 90
      499
 91
      503
 93
      241
310
90C312F3422203D2031272D3022000000000000340FC000000000000284000
  0
ACAD_PROXY_OBJECT
  5
61
102
{ACAD_REACTORS
330
47
102
}
330
47
100
AcDbProxyObject
 90
      499
 91
      503
 93
      241
310
90C332F3822203D2031272D3022000000000000360FC000000000000284000
  0
ACAD_PROXY_OBJECT
  5
62
102
{ACAD_REACTORS
330
47
102
}
330
47
100
AcDbProxyObject
 90
      499
 91
      503
 93
      241
310
90C312F3222203D2031272D3022000000000000380FC000000000000284000
  0
ACAD_PROXY_OBJECT
  5
63
102
{ACAD_REACTORS
330
47
102
}
330
47
100
AcDbProxyObject
 90
      499
 91
      503
 93
      241
310
90C332F3422203D2031272D30220000000000003A0FC000000000000284000
  0
ACAD_PROXY_OBJECT
  5
64
102
{ACAD_REACTORS
330
47
102
}
330
47
100
AcDbProxyObject
 90
      499
 91
      503
 93
      161
310
90A3122203D2031272D30224000000000000284000
  0
ACAD_PROXY_OBJECT
  5
65
102
{ACAD_REACTORS
330
47
102
}
330
47
100
AcDbProxyObject
 90
      499
 91
      503
 93
      257
310
90E312D312F3222203D2031272D30220000000000003E0FC000000000000284000
  0
ACAD_PROXY_OBJECT
  5
66
102
{ACAD_REACTORS
330
47
102
}
330
47
100
AcDbProxyObject
 90
      499
 91
      503
 93
      225
310
90A3322203D2031272D302200000000000002100000000000000284000
  0
ACAD_PROXY_OBJECT
  5
67
102
{ACAD_REACTORS
330
47
102
}
330
47
100
AcDbProxyObject
 90
      499
 91
      503
 93
      225
310
90A3622203D2031272D302200000000000006100000000000000284000
  0
ACAD_PROXY_OBJECT
  5
68
102
{ACAD_REACTORS
330
47
102
}
330
47
100
AcDbProxyObject
 90
      499
 91
      503
 93
      249
310
90D31272D3022203D2031272D30220000000000000A100000000000000284000
  0
ACAD_PROXY_OBJECT
  5
2F
102
{ACAD_REACTORS
330
2A
102
}
330
2A
100
AcDbProxyObject
 90
      499
 91
      501
 93
      436
310
42CC9915DA5C99599C985B595049028333333333333E33F0000000000000F90107901411070040501600405405064090741402480A0340
1001
ACAD
1000
AcDbSavedByObjectVersion
1070
     0
  0
ACAD_PROXY_OBJECT
  5
32
102
{ACAD_REACTORS
330
2A
102
}
330
2A
100
AcDbProxyObject
 90
      499
 91
      501
 93
      388
310
4150985CDA58D07406404333333333333E33F0000000000000F90107A41107004050150841D405064090741402480A0350
1001
ACAD
1000
AcDbSavedByObjectVersion
1070
     0
  0
ACAD_PROXY_OBJECT
  5
36
102
{ACAD_REACTORS
330
2A
102
}
330
2A
100
AcDbProxyObject
 90
      499
 91
      501
 93
      428
310
42109C9A59DA1D195B90C409028333333333333E33F0000000000000F9010790141107004050150841D405064090741402480A029950
1001
ACAD
1000
AcDbSavedByObjectVersion
1070
     0
  0
ACAD_PROXY_OBJECT
  5
3A
102
{ACAD_REACTORS
330
2A
102
}
330
2A
100
AcDbProxyObject
 90
      499
 91
      501
 93
      452
310
42D0DBDB1BDC90DA185B99D95104090240C333333333333E33F0000000000000F90108901411070040501508421405064090741402480A0350
1001
ACAD
1000
AcDbSavedByObjectVersion
1070
     0
  0
ACAD_PROXY_OBJECT
  5
34
102
{ACAD_REACTORS
330
2A
102
}
330
2A
100
AcDbProxyObject
 90
      499
 91
      501
 93
      500
310
4290DBDB98D95C1D1D585B10940D028333333333333E33F0000000000000F90107902409070040501000000000018199010841D405064090740C02480A0340
1001
ACAD
1000
AcDbSavedByObjectVersion
1070
     0
  0
ACAD_PROXY_OBJECT
  5
35
102
{ACAD_REACTORS
330
2A
102
}
330
2A
100
AcDbProxyObject
 90
      499
 91
      501
 93
      412
310
40D11A5B50B409028333333333333E33F0000000000000F9010790141107004050150841D405064090741402480A02677FFFFFD0
1001
ACAD
1000
AcDbSavedByObjectVersion
1070
     0
  0
ACAD_PROXY_OBJECT
  5
3D
102
{ACAD_REACTORS
330
2A
102
}
330
2A
100
AcDbProxyObject
 90
      499
 91
      501
 93
      452
310
43115919D950DBDB1BDC93D999916409028333333333333E33F0000000000000F9010790141107004050150841D405064090741402480A0350
1001
ACAD
1000
AcDbSavedByObjectVersion
1070
     0
  0
ACAD_PROXY_OBJECT
  5
39
102
{ACAD_REACTORS
330
2A
102
}
330
2A
100
AcDbProxyObject
 90
      499
 91
      501
 93
      444
310
42D19858D95C185D1D195C9B90F409028333333333333E33F0000000000000F9010790141107004050150841D405064090741402480A0350
1001
ACAD
1000
AcDbSavedByObjectVersion
1070
     0
  0
ACAD_PROXY_OBJECT
  5
2B
102
{ACAD_REACTORS
330
2A
102
}
330
2A
100
AcDbProxyObject
 90
      499
 91
      501
 93
      380
310
41119B185D240901404333333333333E33F0000000000000F9010740A907004050150841D405064090741402480A1B50
1001
ACAD
1000
AcDbSavedByObjectVersion
1070
     0
  0
ACAD_PROXY_OBJECT
  5
2C
102
{ACAD_REACTORS
330
2A
102
}
330
2A
100
AcDbProxyObject
 90
      499
 91
      501
 93
      468
310
43519B185D15DA5D1A115919D95CD0140901404333333333333E33F0000000000000F90107409019070040501600405405064090741402480A1B50
1001
ACAD
1000
AcDbSavedByObjectVersion
1070
     0
  0
ACAD_PROXY_OBJECT
  5
2D
102
{ACAD_REACTORS
330
2A
102
}
330
2A
100
AcDbProxyObject
 90
      499
 91
      501
 93
      404
310
41D1DBDD5C985D5910240902404333333333333E33F0000000000000F9010740A9070040501641D405064090741402480A1B50
1001
ACAD
1000
AcDbSavedByObjectVersion
1070
     0
  0
ACAD_PROXY_OBJECT
  5
2E
102
{ACAD_REACTORS
330
2A
102
}
330
2A
100
AcDbProxyObject
 90
      499
 91
      501
 93
      492
310
4411DBDD5C985D5915DA5D1A115919D95CD0340902404333333333333E33F0000000000000F90107409019070040501600405405064090741402480A1B50
1001
ACAD
1000
AcDbSavedByObjectVersion
1070
     0
  0
ACAD_PROXY_OBJECT
  5
31
102
{ACAD_REACTORS
330
2A
102
}
330
2A
100
AcDbProxyObject
 90
      499
 91
      501
 93
      476
310
41921A5919195B90640502408333333333333E33F0000000000000F901079024090700405020000000000001110200405405064090740C02480A0340
1001
ACAD
1000
AcDbSavedByObjectVersion
1070
     0
  0
ACAD_PROXY_OBJECT
  5
3B
102
{ACAD_REACTORS
330
2A
102
}
330
2A
100
AcDbProxyObject
 90
      499
 91
      501
 93
      428
310
42529A5D1D195C93D999914409028333333333333E33F0000000000000F9010790141107004050150A41D405064090741402480A0350
1001
ACAD
1000
AcDbSavedByObjectVersion
1070
     0
  0
ACAD_PROXY_OBJECT
  5
38
102
{ACAD_REACTORS
330
2A
102
}
330
2A
100
AcDbProxyObject
 90
      499
 91
      501
 93
      444
310
42D31A5B995C185D1D195C9B90E409028333333333333E33F0000000000000F9010790141107004050750841D405064090741402483A0350
1001
ACAD
1000
AcDbSavedByObjectVersion
1070
     0
  0
ACAD_PROXY_OBJECT
  5
3C
102
{ACAD_REACTORS
330
2A
102
}
330
2A
100
AcDbProxyObject
 90
      499
 91
      501
 93
      444
310
42D3DD995C9A185B99D3D999915409028333333333333E33F0000000000000F9010790141107004050150941D405064090741402480A0350
1001
ACAD
1000
AcDbSavedByObjectVersion
1070
     0
  0
ACAD_PROXY_OBJECT
  5
33
102
{ACAD_REACTORS
330
2A
102
}
330
2A
100
AcDbProxyObject
 90
      499
 91
      501
 93
      428
310
425499585B1A5CDD1A58D08409038333333333333E33F0000000000000F9010740A907004050150800405405064090740C02480A1B40
1001
ACAD
1000
AcDbSavedByObjectVersion
1070
     0
  0
ACAD_PROXY_OBJECT
  5
42
102
{ACAD_REACTORS
330
2A
102
}
330
2A
100
AcDbProxyObject
 90
      499
 91
      501
 93
      420
310
4194DA1859195911B40902404333333333333E33F0000000000000F9010740A41107004050150800405405064090840C02480A0B40
1001
ACAD
1000
AcDbSavedByObjectVersion
1070
     0
  0
ACAD_PROXY_OBJECT
  5
41
102
{ACAD_REACTORS
330
2A
102
}
330
2A
100
AcDbProxyObject
 90
      499
 91
      501
 93
      516
310
4454DA18591959081DDA5D1A08195919D95CD1A40902404333333333333E33F0000000000000F901074090142907004050250800405405064090740C02480A0B40
1001
ACAD
1000
AcDbSavedByObjectVersion
1070
     0
  0
ACAD_PROXY_OBJECT
  5
3E
102
{ACAD_REACTORS
330
2A
102
}
330
2A
100
AcDbProxyObject
 90
      499
 91
      501
 93
      532
310
4394DA1859195CC81BD98811DC985E5174090240C333333333333E33F0000000000000F901079024090741D01000000000000111010841D405064090740C02480A0340
1001
ACAD
1000
AcDbSavedByObjectVersion
1070
     0
  0
ACAD_PROXY_OBJECT
  5
3F
102
{ACAD_REACTORS
330
2A
102
}
330
2A
100
AcDbProxyObject
 90
      499
 91
      501
 93
      476
310
41D4DAD95D18DA1E51840502408333333333333E33F0000000000000F901079024090741D01000000000000111010B41D405064090741802480A0340
1001
ACAD
1000
AcDbSavedByObjectVersion
1070
     0
  0
ACAD_PROXY_OBJECT
  5
37
102
{ACAD_REACTORS
330
2A
102
}
330
2A
100
AcDbProxyObject
 90
      499
 91
      501
 93
      412
310
41D51A1A58DAD95B90D409028333333333333E33F0000000000000F9010790141107004050150C41D405064090741402480A0350
1001
ACAD
1000
AcDbSavedByObjectVersion
1070
     0
  0
ACAD_PROXY_OBJECT
  5
30
102
{ACAD_REACTORS
330
2A
102
}
330
2A
100
AcDbProxyObject
 90
      499
 91
      501
 93
      420
310
4255DA5C99599C985B595059028333333333333E33F0000000000000F90107901411070040501600405405064090740C02480A0340
1001
ACAD
1000
AcDbSavedByObjectVersion
1070
     0
  0
ACAD_PROXY_OBJECT
  5
40
102
{ACAD_REACTORS
330
2A
102
}
330
2A
100
AcDbProxyObject
 90
      499
 91
      501
 93
      404
310
41560B54985E51940902404000000000000E03F0000000000000F9010740501907004050150841D405064090740C02480A1B40
1001
ACAD
1000
AcDbSavedByObjectVersion
1070
     0
  0
XRECORD
  5
553
102
{ACAD_REACTORS
330
549
102
}
330
549
100
AcDbXrecord
340
0
  0
XRECORD
  5
552
102
{ACAD_REACTORS
330
549
102
}
330
549
100
AcDbXrecord
 90
        0
  0
XRECORD
  5
569
102
{ACAD_REACTORS
330
549
102
}
330
549
100
AcDbXrecord
1000
DSTYLE
1002
{
1070
   179
 70
     2
1070
   171
 70
     2
1070
   143
 40
25.4
1070
   274
 70
     2
1070
    41
 40
3.0
1070
   141
 40
0.09
1070
    43
 40
0.38
1070
   278
 70
    46
1070
    44
 40
1.5
1070
    42
 40
0.0625
1070
   147
 40
1.5
1070
   272
 70
     4
1070
    73
 70
     1
1070
   172
 70
     0
1070
    74
 70
     1
1070
   283
 70
     1
1070
   340
340
6F
1070
   140
 40
3.0
1070
   284
 70
     0
1070
    78
 70
     0
1002
}
  0
XRECORD
  5
554
102
{ACAD_REACTORS
330
549
102
}
330
549
100
AcDbXrecord
  1
{9EA77474-2859-4FD8-8850-E384F3ACA583}
  0
XRECORD
  5
54C
102
{ACAD_REACTORS
330
549
102
}
330
549
100
AcDbXrecord
  1

  0
XRECORD
  5
551
102
{ACAD_REACTORS
330
549
102
}
330
549
100
AcDbXrecord
 90
        4
  0
XRECORD
  5
54E
102
{ACAD_REACTORS
330
549
102
}
330
549
100
AcDbXrecord
340
1A
  0
XRECORD
  5
550
102
{ACAD_REACTORS
330
549
102
}
330
549
100
AcDbXrecord
 90
    10269
  0
XRECORD
  5
54F
102
{ACAD_REACTORS
330
549
102
}
330
549
100
AcDbXrecord
340
19
  0
XRECORD
  5
556
102
{ACAD_REACTORS
330
549
102
}
330
549
100
AcDbXrecord
 40
0.0
  0
XRECORD
  5
559
102
{ACAD_REACTORS
330
549
102
}
330
549
100
AcDbXrecord
340
0
  0
XRECORD
  5
55F
102
{ACAD_REACTORS
330
549
102
}
330
549
100
AcDbXrecord
 10
0.0
 20
0.0
 30
0.0
  0
XRECORD
  5
55B
102
{ACAD_REACTORS
330
549
102
}
330
549
100
AcDbXrecord
 10
0.0
 20
0.0
 30
0.0
  0
XRECORD
  5
55E
102
{ACAD_REACTORS
330
549
102
}
330
549
100
AcDbXrecord
 10
0.0
 20
0.0
 30
0.0
  0
XRECORD
  5
55C
102
{ACAD_REACTORS
330
549
102
}
330
549
100
AcDbXrecord
 10
0.0
 20
0.0
 30
0.0
  0
XRECORD
  5
55D
102
{ACAD_REACTORS
330
549
102
}
330
549
100
AcDbXrecord
 10
0.0
 20
0.0
 30
0.0
  0
XRECORD
  5
55A
102
{ACAD_REACTORS
330
549
102
}
330
549
100
AcDbXrecord
 10
0.0
 20
0.0
 30
0.0
  0
XRECORD
  5
557
102
{ACAD_REACTORS
330
549
102
}
330
549
100
AcDbXrecord
340
0
  0
XRECORD
  5
558
102
{ACAD_REACTORS
330
549
102
}
330
549
100
AcDbXrecord
 70
     0
  0
XRECORD
  5
54D
102
{ACAD_REACTORS
330
549
102
}
330
549
100
AcDbXrecord
  1

  0
XRECORD
  5
54A
102
{ACAD_REACTORS
330
549
102
}
330
549
100
AcDbXrecord
 90
        1
  0
XRECORD
  5
54B
102
{ACAD_REACTORS
330
549
102
}
330
549
100
AcDbXrecord
 90
       70
  0
XRECORD
  5
562
102
{ACAD_REACTORS
330
549
102
}
330
549
100
AcDbXrecord
340
0
  0
XRECORD
  5
568
102
{ACAD_REACTORS
330
549
102
}
330
549
100
AcDbXrecord
 10
0.0
 20
0.0
 30
0.0
  0
XRECORD
  5
564
102
{ACAD_REACTORS
330
549
102
}
330
549
100
AcDbXrecord
 10
0.0
 20
0.0
 30
0.0
  0
XRECORD
  5
567
102
{ACAD_REACTORS
330
549
102
}
330
549
100
AcDbXrecord
 10
0.0
 20
0.0
 30
0.0
  0
XRECORD
  5
565
102
{ACAD_REACTORS
330
549
102
}
330
549
100
AcDbXrecord
 10
0.0
 20
0.0
 30
0.0
  0
XRECORD
  5
566
102
{ACAD_REACTORS
330
549
102
}
330
549
100
AcDbXrecord
 10
0.0
 20
0.0
 30
0.0
  0
XRECORD
  5
563
102
{ACAD_REACTORS
330
549
102
}
330
549
100
AcDbXrecord
 10
0.0
 20
0.0
 30
0.0
  0
XRECORD
  5
560
102
{ACAD_REACTORS
330
549
102
}
330
549
100
AcDbXrecord
340
0
  0
XRECORD
  5
561
102
{ACAD_REACTORS
330
549
102
}
330
549
100
AcDbXrecord
 70
     0
  0
XRECORD
  5
555
102
{ACAD_REACTORS
330
549
102
}
330
549
100
AcDbXrecord
  1
{FAEB1C32-E019-11D5-929B-00C0DF256EC4}
  0
DICTIONARYVAR
  5
573
102
{ACAD_REACTORS
330
56A
102
}
330
56A
100
DictionaryVariables
280
     0
  1
1:1
  0
DICTIONARYVAR
  5
56C
102
{ACAD_REACTORS
330
56A
102
}
330
56A
100
DictionaryVariables
280
     0
  1
Standard
  0
DICTIONARYVAR
  5
56B
102
{ACAD_REACTORS
330
56A
102
}
330
56A
100
DictionaryVariables
280
     0
  1
Standard
  0
DICTIONARYVAR
  5
56F
102
{ACAD_REACTORS
330
56A
102
}
330
56A
100
DictionaryVariables
280
     0
  1
2
  0
DICTIONARYVAR
  5
570
102
{ACAD_REACTORS
330
56A
102
}
330
56A
100
DictionaryVariables
280
     0
  1
1
  0
DICTIONARYVAR
  5
574
102
{ACAD_REACTORS
330
56A
102
}
330
56A
100
DictionaryVariables
280
     0
  1
1
  0
DICTIONARY
  5
577
330
45
100
AcDbDictionary
280
     1
  3
ACAD_XREC_ROUNDTRIP
360
578
  0
DICTIONARY
  5
575
330
44
100
AcDbDictionary
280
     1
  3
ACAD_XREC_ROUNDTRIP
360
576
  0
DICTIONARY
  5
579
330
46
100
AcDbDictionary
280
     1
  3
ACAD_XREC_ROUNDTRIP
360
57A
  0
XRECORD
  5
578
102
{ACAD_REACTORS
330
577
102
}
330
577
100
AcDbXrecord
102
MATERIAL
148
0.0
149
0.0
149
0.0
 93
        0
 94
      127
282
     0
 72
     1
 77
     1
171
     1
175
     1
179
     1
273
     0
  0
XRECORD
  5
576
102
{ACAD_REACTORS
330
575
102
}
330
575
100
AcDbXrecord
102
MATERIAL
148
0.0
149
0.0
149
0.0
 93
        0
 94
      127
282
     0
 72
     1
 77
     1
171
     1
175
     1
179
     1
273
     0
  0
XRECORD
  5
57A
102
{ACAD_REACTORS
330
579
102
}
330
579
100
AcDbXrecord
102
MATERIAL
148
0.0
149
0.0
149
0.0
 93
        0
 94
      127
282
     0
 72
     1
 77
     1
171
     1
175
     1
179
     1
273
     0
  0
ENDSEC
  0
EOF
