  0
SECTION
  2
HEADER
  9
$ACADVER
  1
AC1014
  9
$ACADMAINTVER
 70
     9
  9
$DWGCODEPAGE
  3
ANSI_932
  9
$INSBASE
 10
0.0
 20
0.0
 30
0.0
  9
$EXTMIN
 10
-340.4999999999309
 20
70.33333333340497
 30
0.0
  9
$EXTMAX
 10
229.9999999998899
 20
329.6396494445793
 30
0.0
  9
$LIMMIN
 10
0.0
 20
0.0
  9
$LIMMAX
 10
12.0
 20
9.0
  9
$ORTHOMODE
 70
     0
  9
$REGENMODE
 70
     1
  9
$FILLMODE
 70
     1
  9
$QTEXTMODE
 70
     0
  9
$MIRRTEXT
 70
     1
  9
$DRAGMODE
 70
     2
  9
$LTSCALE
 40
1.0
  9
$OSMODE
 70
    37
  9
$ATTMODE
 70
     1
  9
$TEXTSIZE
 40
0.2
  9
$TRACEWID
 40
0.05
  9
$TEXTSTYLE
  7
STANDARD
  9
$CLAYER
  8
0
  9
$CELTYPE
  6
BYLAYER
  9
$CECOLOR
 62
   256
  9
$CELTSCALE
 40
1.0
  9
$DELOBJ
 70
     1
  9
$DISPSILH
 70
     0
  9
$DIMSCALE
 40
1.0
  9
$DIMASZ
 40
3.0
  9
$DIMEXO
 40
0.0625
  9
$DIMDLI
 40
0.38
  9
$DIMRND
 40
0.0
  9
$DIMDLE
 40
0.0
  9
$DIMEXE
 40
1.5
  9
$DIMTP
 40
0.0
  9
$DIMTM
 40
0.0
  9
$DIMTXT
 40
3.0
  9
$DIMCEN
 40
0.09
  9
$DIMTSZ
 40
0.0
  9
$DIMTOL
 70
     0
  9
$DIMLIM
 70
     0
  9
$DIMTIH
 70
     1
  9
$DIMTOH
 70
     1
  9
$DIMSE1
 70
     0
  9
$DIMSE2
 70
     0
  9
$DIMTAD
 70
     1
  9
$DIMZIN
 70
     0
  9
$DIMBLK
  1

  9
$DIMASO
 70
     1
  9
$DIMSHO
 70
     1
  9
$DIMPOST
  1

  9
$DIMAPOST
  1

  9
$DIMALT
 70
     0
  9
$DIMALTD
 70
     2
  9
$DIMALTF
 40
25.4
  9
$DIMLFAC
 40
1.0
  9
$DIMTOFL
 70
     0
  9
$DIMTVP
 40
0.0
  9
$DIMTIX
 70
     0
  9
$DIMSOXD
 70
     0
  9
$DIMSAH
 70
     0
  9
$DIMBLK1
  1

  9
$DIMBLK2
  1

  9
$DIMSTYLE
  2
STANDARD
  9
$DIMCLRD
 70
     0
  9
$DIMCLRE
 70
     0
  9
$DIMCLRT
 70
     0
  9
$DIMTFAC
 40
1.0
  9
$DIMGAP
 40
1.5
  9
$DIMJUST
 70
     0
  9
$DIMSD1
 70
     0
  9
$DIMSD2
 70
     0
  9
$DIMTOLJ
 70
     1
  9
$DIMTZIN
 70
     0
  9
$DIMALTZ
 70
     0
  9
$DIMALTTZ
 70
     0
  9
$DIMFIT
 70
     3
  9
$DIMUPT
 70
     0
  9
$DIMUNIT
 70
     2
  9
$DIMDEC
 70
     2
  9
$DIMTDEC
 70
     4
  9
$DIMALTU
 70
     2
  9
$DIMALTTD
 70
     2
  9
$DIMTXSTY
  7
ＭＳ_ゴシック
  9
$DIMAUNIT
 70
     0
  9
$LUNITS
 70
     2
  9
$LUPREC
 70
     4
  9
$SKETCHINC
 40
0.1
  9
$FILLETRAD
 40
0.5
  9
$AUNITS
 70
     0
  9
$AUPREC
 70
     0
  9
$MENU
  1
.
  9
$ELEVATION
 40
0.0
  9
$PELEVATION
 40
0.0
  9
$THICKNESS
 40
0.0
  9
$LIMCHECK
 70
     0
  9
$CHAMFERA
 40
0.0
  9
$CHAMFERB
 40
0.0
  9
$CHAMFERC
 40
0.0
  9
$CHAMFERD
 40
0.0
  9
$SKPOLY
 70
     0
  9
$TDCREATE
 40
2459061.747049722
  9
$TDUPDATE
 40
2459061.747050035
  9
$TDINDWG
 40
0.0000000116
  9
$TDUSRTIMER
 40
0.0000000116
  9
$USRTIMER
 70
     1
  9
$ANGBASE
 50
0.0
  9
$ANGDIR
 70
     0
  9
$PDMODE
 70
     0
  9
$PDSIZE
 40
0.0
  9
$PLINEWID
 40
0.0
  9
$COORDS
 70
     1
  9
$SPLFRAME
 70
     0
  9
$SPLINETYPE
 70
     6
  9
$SPLINESEGS
 70
     8
  9
$ATTDIA
 70
     0
  9
$ATTREQ
 70
     1
  9
$HANDLING
 70
     1
  9
$HANDSEED
  5
45D
  9
$SURFTAB1
 70
     6
  9
$SURFTAB2
 70
     6
  9
$SURFTYPE
 70
     6
  9
$SURFU
 70
     6
  9
$SURFV
 70
     6
  9
$UCSNAME
  2

  9
$UCSORG
 10
0.0
 20
0.0
 30
0.0
  9
$UCSXDIR
 10
1.0
 20
0.0
 30
0.0
  9
$UCSYDIR
 10
0.0
 20
1.0
 30
0.0
  9
$PUCSNAME
  2

  9
$PUCSORG
 10
0.0
 20
0.0
 30
0.0
  9
$PUCSXDIR
 10
1.0
 20
0.0
 30
0.0
  9
$PUCSYDIR
 10
0.0
 20
1.0
 30
0.0
  9
$USERI1
 70
     0
  9
$USERI2
 70
     0
  9
$USERI3
 70
     0
  9
$USERI4
 70
     0
  9
$USERI5
 70
     0
  9
$USERR1
 40
0.0
  9
$USERR2
 40
0.0
  9
$USERR3
 40
0.0
  9
$USERR4
 40
0.0
  9
$USERR5
 40
0.0
  9
$WORLDVIEW
 70
     1
  9
$SHADEDGE
 70
     3
  9
$SHADEDIF
 70
    70
  9
$TILEMODE
 70
     1
  9
$MAXACTVP
 70
    64
  9
$PINSBASE
 10
0.0
 20
0.0
 30
0.0
  9
$PLIMCHECK
 70
     0
  9
$PEXTMIN
 10
1.000000000000000E+20
 20
1.000000000000000E+20
 30
1.000000000000000E+20
  9
$PEXTMAX
 10
-1.000000000000000E+20
 20
-1.000000000000000E+20
 30
-1.000000000000000E+20
  9
$PLIMMIN
 10
0.0
 20
0.0
  9
$PLIMMAX
 10
12.0
 20
9.0
  9
$UNITMODE
 70
     0
  9
$VISRETAIN
 70
     1
  9
$PLINEGEN
 70
     0
  9
$PSLTSCALE
 70
     1
  9
$TREEDEPTH
 70
  3020
  9
$PICKSTYLE
 70
     1
  9
$CMLSTYLE
  2
STANDARD
  9
$CMLJUST
 70
     0
  9
$CMLSCALE
 40
1.0
  9
$PROXYGRAPHICS
 70
     1
  9
$MEASUREMENT
 70
     1
  0
ENDSEC
  0
SECTION
  2
CLASSES
  0
CLASS
  1
ACDBDICTIONARYWDFLT
  2
AcDbDictionaryWithDefault
  3
ObjectDBX Classes
 90
        0
280
     0
281
     0
  0
CLASS
  1
VISUALSTYLE
  2
AcDbVisualStyle
  3
ObjectDBX Classes
 90
     4095
280
     0
281
     0
  0
CLASS
  1
MATERIAL
  2
AcDbMaterial
  3
ObjectDBX Classes
 90
     1153
280
     0
281
     0
  0
CLASS
  1
SCALE
  2
AcDbScale
  3
ObjectDBX Classes
 90
     1153
280
     0
281
     0
  0
CLASS
  1
TABLESTYLE
  2
AcDbTableStyle
  3
ObjectDBX Classes
 90
     4095
280
     0
281
     0
  0
CLASS
  1
MLEADERSTYLE
  2
AcDbMLeaderStyle
  3
ACDB_MLEADERSTYLE_CLASS
 90
     4095
280
     0
281
     0
  0
CLASS
  1
SUN
  2
AcDbSun
  3
SCENEOE
 90
     1153
280
     0
281
     0
  0
CLASS
  1
DICTIONARYVAR
  2
AcDbDictionaryVar
  3
ObjectDBX Classes
 90
        0
280
     0
281
     0
  0
CLASS
  1
XRECORD
  2
AcDbXrecord
  3
ObjectDBX Classes
 90
        0
280
     0
281
     0
  0
CLASS
  1
LWPOLYLINE
  2
AcDbPolyline
  3
ObjectDBX Classes
 90
        0
280
     0
281
     1
  0
CLASS
  1
HATCH
  2
AcDbHatch
  3
ObjectDBX Classes
 90
        0
280
     0
281
     1
  0
CLASS
  1
ACDBPLACEHOLDER
  2
AcDbPlaceHolder
  3
ObjectDBX Classes
 90
        0
280
     0
281
     0
  0
CLASS
  1
LAYOUT
  2
AcDbLayout
  3
ObjectDBX Classes
 90
        0
280
     0
281
     0
  0
ENDSEC
  0
SECTION
  2
TABLES
  0
TABLE
  2
VPORT
  5
8
102
{ACAD_XDICTIONARY
360
452
102
}
330
0
100
AcDbSymbolTable
 70
     1
  0
VPORT
  5
29
330
8
100
AcDbSymbolTableRecord
100
AcDbViewportTableRecord
  2
*ACTIVE
 70
     0
 10
0.0
 20
0.0
 11
1.0
 21
1.0
 12
-55.25000000002049
 22
199.9864913889921
 13
0.0
 23
0.0
 14
0.5
 24
0.5
 15
0.5
 25
0.5
 16
0.0
 26
0.0
 36
1.0
 17
0.0
 27
0.0
 37
0.0
 40
259.3063161111744
 41
1.6
 42
50.0
 43
0.0
 44
0.0
 50
0.0
 51
0.0
 71
     0
 72
   100
 73
     1
 74
     3
 75
     0
 76
     0
 77
     0
 78
     0
  0
ENDTAB
  0
TABLE
  2
LTYPE
  5
5
330
0
100
AcDbSymbolTable
 70
     2
  0
LTYPE
  5
14
330
5
100
AcDbSymbolTableRecord
100
AcDbLinetypeTableRecord
  2
BYBLOCK
 70
     0
  3

 72
    65
 73
     0
 40
0.0
  0
LTYPE
  5
15
330
5
100
AcDbSymbolTableRecord
100
AcDbLinetypeTableRecord
  2
BYLAYER
 70
     0
  3

 72
    65
 73
     0
 40
0.0
  0
LTYPE
  5
16
330
5
100
AcDbSymbolTableRecord
100
AcDbLinetypeTableRecord
  2
CONTINUOUS
 70
     0
  3
Solid line
 72
    65
 73
     0
 40
0.0
  0
LTYPE
  5
2B4
330
5
100
AcDbSymbolTableRecord
100
AcDbLinetypeTableRecord
  2
________________
 70
     0
  3

 72
    65
 73
     4
 40
6.0
 49
2.25
 74
     0
 49
-1.5
 74
     0
 49
0.7499999999999999
 74
     0
 49
-1.5
 74
     0
  0
ENDTAB
  0
TABLE
  2
LAYER
  5
2
330
0
100
AcDbSymbolTable
 70
     1
  0
LAYER
  5
10
330
2
100
AcDbSymbolTableRecord
100
AcDbLayerTableRecord
  2
0
 70
     0
 62
     7
  6
CONTINUOUS
  0
ENDTAB
  0
TABLE
  2
STYLE
  5
3
330
0
100
AcDbSymbolTable
 70
     2
  0
STYLE
  5
11
330
3
100
AcDbSymbolTableRecord
100
AcDbTextStyleTableRecord
  2
STANDARD
 70
     0
 40
0.0
 41
1.0
 50
0.0
 71
     0
 42
0.2
  3
txt
  4

  0
STYLE
  5
6E
330
3
100
AcDbSymbolTableRecord
100
AcDbTextStyleTableRecord
  2
ＭＳ_ゴシック
 70
     0
 40
0.0
 41
1.0
 50
0.0
 71
     0
 42
0.2
  3
ＭＳ ゴシック.shx
  4

  0
ENDTAB
  0
TABLE
  2
VIEW
  5
6
330
0
100
AcDbSymbolTable
 70
     0
  0
ENDTAB
  0
TABLE
  2
UCS
  5
7
330
0
100
AcDbSymbolTable
 70
     0
  0
ENDTAB
  0
TABLE
  2
APPID
  5
9
330
0
100
AcDbSymbolTable
 70
     2
  0
APPID
  5
12
330
9
100
AcDbSymbolTableRecord
100
AcDbRegAppTableRecord
  2
ACAD
 70
     0
  0
APPID
  5
45C
330
9
100
AcDbSymbolTableRecord
100
AcDbRegAppTableRecord
  2
ACAD_MLEADERVER
 70
     0
  0
ENDTAB
  0
TABLE
  2
DIMSTYLE
  5
A
330
0
100
AcDbSymbolTable
 70
     1
  0
DIMSTYLE
105
27
330
A
100
AcDbSymbolTableRecord
100
AcDbDimStyleTableRecord
  2
STANDARD
 70
     0
  3

  4

  5

  6

  7

 40
1.0
 41
0.18
 42
0.0625
 43
0.38
 44
0.18
 45
0.0
 46
0.0
 47
0.0
 48
0.0
140
0.18
141
0.09
142
0.0
143
25.4
144
1.0
145
0.0
146
1.0
147
0.09
 71
     0
 72
     0
 73
     1
 74
     1
 75
     0
 76
     0
 77
     0
 78
     0
170
     0
171
     2
172
     0
173
     0
174
     0
175
     0
176
     0
177
     0
178
     0
270
     2
271
     4
272
     4
273
     2
274
     2
340
11
275
     0
280
     0
281
     0
282
     0
283
     1
284
     0
285
     0
286
     0
287
     3
288
     0
  0
ENDTAB
  0
TABLE
  2
BLOCK_RECORD
  5
1
330
0
100
AcDbSymbolTable
 70
     0
  0
BLOCK_RECORD
  5
1F
330
1
100
AcDbSymbolTableRecord
100
AcDbBlockTableRecord
  2
*MODEL_SPACE
  0
BLOCK_RECORD
  5
1B
330
1
100
AcDbSymbolTableRecord
100
AcDbBlockTableRecord
  2
*PAPER_SPACE
  0
ENDTAB
  0
ENDSEC
  0
SECTION
  2
BLOCKS
  0
BLOCK
  5
20
330
1F
100
AcDbEntity
  8
0
100
AcDbBlockBegin
  2
*MODEL_SPACE
 70
     0
 10
0.0
 20
0.0
 30
0.0
  3
*MODEL_SPACE
  1

  0
ENDBLK
  5
21
330
1F
100
AcDbEntity
  8
0
100
AcDbBlockEnd
  0
BLOCK
  5
1C
330
1B
100
AcDbEntity
 67
     1
  8
0
100
AcDbBlockBegin
  2
*PAPER_SPACE
 70
     0
 10
0.0
 20
0.0
 30
0.0
  3
*PAPER_SPACE
  1

  0
ENDBLK
  5
1D
330
1B
100
AcDbEntity
 67
     1
  8
0
100
AcDbBlockEnd
  0
ENDSEC
  0
SECTION
  2
ENTITIES
  0
ARC
  5
6F
330
1F
100
AcDbEntity
  8
0
  6
CONTINUOUS
 62
     7
100
AcDbCircle
 10
-235.000000000053
 20
215.0000000000724
 30
0.0
 40
82.74999999991722
100
AcDbArc
 50
249.2334321930281
 51
292.0038634356169
  0
ARC
  5
70
330
1F
100
AcDbEntity
  8
0
  6
CONTINUOUS
 62
     7
100
AcDbCircle
 10
-235.000000000053
 20
215.0000000000724
 30
0.0
 40
79.74999999992028
100
AcDbArc
 50
139.7199722972814
 51
141.516805934893
  0
LINE
  5
71
330
1F
100
AcDbEntity
  8
0
  6
CONTINUOUS
 62
     7
100
AcDbLine
 10
-296.3299817295518
 20
263.7268098073638
 30
0.0
 11
-295.6705092371926
 21
263.1854678185903
 31
0.0
  0
ARC
  5
72
330
1F
100
AcDbEntity
  8
0
  6
CONTINUOUS
 62
     7
100
AcDbCircle
 10
-235.000000000053
 20
215.0000000000724
 30
0.0
 40
92.49999999990749
100
AcDbArc
 50
266.6227122473315
 51
266.8023809030981
  0
ARC
  5
73
330
1F
100
AcDbEntity
  8
0
  6
CONTINUOUS
 62
     7
100
AcDbCircle
 10
-235.000000000053
 20
215.0000000000724
 30
0.0
 40
82.74999999991722
100
AcDbArc
 50
59.75270808779198
 51
61.48424085426314
  0
ARC
  5
74
330
1F
100
AcDbEntity
  8
0
  6
CONTINUOUS
 62
     7
100
AcDbCircle
 10
-235.000000000053
 20
215.0000000000724
 30
0.0
 40
89.99999999990999
100
AcDbArc
 50
347.6184124894856
 51
349.618412489486
  0
ARC
  5
75
330
1F
100
AcDbEntity
  8
0
  6
CONTINUOUS
 62
     7
100
AcDbCircle
 10
235.0000000000531
 20
215.0000000000724
 30
0.0
 40
76.49999999990311
210
0.0
220
0.0
230
-1.0
100
AcDbArc
 50
321.0452471313731
 51
327.1631320954411
  0
ARC
  5
76
330
1F
100
AcDbEntity
  8
0
  6
CONTINUOUS
 62
     7
100
AcDbCircle
 10
-292.3377274754012
 20
162.8594686645947
 30
0.0
 40
0.9999999999987241
100
AcDbArc
 50
42.282072111339
 51
130.6184124899822
  0
ARC
  5
77
330
1F
100
AcDbEntity
  8
0
  6
CONTINUOUS
 62
     7
100
AcDbCircle
 10
-235.000000000053
 20
215.0000000000724
 30
0.0
 40
79.74999999992028
100
AcDbArc
 50
149.1808623999294
 51
212.0557633765109
  0
ARC
  5
78
330
1F
100
AcDbEntity
  8
0
  6
CONTINUOUS
 62
     7
100
AcDbCircle
 10
-235.000000000053
 20
215.0000000000724
 30
0.0
 40
79.74999999992028
100
AcDbArc
 50
219.7202281217173
 51
221.5165430871142
  0
ARC
  5
79
330
1F
100
AcDbEntity
  8
0
  6
CONTINUOUS
 62
     7
100
AcDbCircle
 10
-235.000000000053
 20
215.0000000000724
 30
0.0
 40
79.74999999992028
100
AcDbArc
 50
239.7201242883757
 51
241.5168062406074
  0
ARC
  5
7A
330
1F
100
AcDbEntity
  8
0
  6
CONTINUOUS
 62
     7
100
AcDbCircle
 10
-235.000000000053
 20
215.0000000000724
 30
0.0
 40
79.74999999992028
100
AcDbArc
 50
229.7199722972814
 51
231.516805934893
  0
ARC
  5
7B
330
1F
100
AcDbEntity
  8
0
  6
CONTINUOUS
 62
     7
100
AcDbCircle
 10
-235.000000000053
 20
215.0000000000724
 30
0.0
 40
79.74999999992028
100
AcDbArc
 50
129.7202281217173
 51
131.5165430871143
  0
ARC
  5
7C
330
1F
100
AcDbEntity
  8
0
  6
CONTINUOUS
 62
     7
100
AcDbCircle
 10
-235.000000000053
 20
215.0000000000724
 30
0.0
 40
79.74999999992028
100
AcDbArc
 50
249.181333632098
 51
292.0559899909316
  0
ARC
  5
7D
330
1F
100
AcDbEntity
  8
0
  6
CONTINUOUS
 62
     7
100
AcDbCircle
 10
235.0000000000531
 20
215.0000000000724
 30
0.0
 40
76.49999999990311
210
0.0
220
0.0
230
-1.0
100
AcDbArc
 50
31.60004292459309
 51
37.71792788866114
  0
ARC
  5
7E
330
1F
100
AcDbEntity
  8
0
  6
CONTINUOUS
 62
     7
100
AcDbCircle
 10
-235.000000000053
 20
215.0000000000724
 30
0.0
 40
79.74999999992022
100
AcDbArc
 50
69.18133363160725
 51
112.0559899914298
  0
ARC
  5
7F
330
1F
100
AcDbEntity
  8
0
  6
CONTINUOUS
 62
     7
100
AcDbCircle
 10
-235.000000000053
 20
215.0000000000724
 30
0.0
 40
89.99999999990999
100
AcDbArc
 50
171.6184124899828
 51
173.6184124899828
  0
ARC
  5
80
330
1F
100
AcDbEntity
  8
0
  6
CONTINUOUS
 62
     7
100
AcDbCircle
 10
-235.000000000053
 20
215.0000000000724
 30
0.0
 40
92.49999999990743
100
AcDbArc
 50
266.8023809030981
 51
268.5852256246481
  0
LINE
  5
81
330
1F
100
AcDbEntity
  8
0
  6
CONTINUOUS
 62
     7
100
AcDbLine
 10
-61.88711403116426
 20
315.656042997483
 30
0.0
 11
-61.88711403116426
 21
315.6355990005854
 31
0.0
  0
ARC
  5
82
330
1F
100
AcDbEntity
  8
0
  6
CONTINUOUS
 62
     7
100
AcDbCircle
 10
-235.000000000053
 20
215.0000000000724
 30
0.0
 40
92.49999999990754
100
AcDbArc
 50
272.6227122468499
 51
272.8023809026025
  0
LINE
  5
83
330
1F
100
AcDbEntity
  8
0
  6
CONTINUOUS
 62
     7
100
AcDbLine
 10
-301.3606883488551
 20
173.401590237081
 30
0.0
 11
-300.6262020309143
 21
173.8362828818649
 31
0.0
  0
LINE
  5
84
330
1F
100
AcDbEntity
  8
0
  6
CONTINUOUS
 62
     7
100
AcDbLine
 10
-315.6018658091934
 20
260.3826974526061
 30
0.0
 11
-315.8197086897266
 21
260.505353391649
 31
0.0
  0
ARC
  5
85
330
1F
100
AcDbEntity
  8
0
  6
CONTINUOUS
 62
     7
100
AcDbCircle
 10
-235.000000000053
 20
215.0000000000724
 30
0.0
 40
89.99999999990999
100
AcDbArc
 50
11.61841248949046
 51
13.61841248949085
  0
ARC
  5
86
330
1F
100
AcDbEntity
  8
0
  6
CONTINUOUS
 62
     7
100
AcDbCircle
 10
-235.000000000053
 20
215.0000000000724
 30
0.0
 40
92.49999999990754
100
AcDbArc
 50
191.6184124899829
 51
193.6184124899829
  0
ARC
  5
87
330
1F
100
AcDbEntity
  8
0
  6
CONTINUOUS
 62
     7
100
AcDbCircle
 10
-235.000000000053
 20
215.0000000000724
 30
0.0
 40
82.74999999991728
100
AcDbArc
 50
309.7527897217981
 51
311.4839814860331
  0
ARC
  5
88
330
1F
100
AcDbEntity
  8
0
  6
CONTINUOUS
 62
     7
100
AcDbCircle
 10
-235.000000000053
 20
215.0000000000724
 30
0.0
 40
82.74999999991722
100
AcDbArc
 50
39.75278972180966
 51
41.48398148604473
  0
ARC
  5
89
330
1F
100
AcDbEntity
  8
0
  6
CONTINUOUS
 62
     7
100
AcDbCircle
 10
-235.000000000053
 20
215.0000000000724
 30
0.0
 40
82.74999999991722
100
AcDbArc
 50
329.2329964792791
 51
0.0
  0
ARC
  5
8A
330
1F
100
AcDbEntity
  8
0
  6
CONTINUOUS
 62
     7
100
AcDbCircle
 10
-235.000000000053
 20
215.0000000000724
 30
0.0
 40
89.99999999990999
100
AcDbArc
 50
149.3450681285757
 51
161.6184124899828
  0
ARC
  5
8B
330
1F
100
AcDbEntity
  8
0
  6
CONTINUOUS
 62
     7
100
AcDbCircle
 10
-235.000000000053
 20
215.0000000000724
 30
0.0
 40
89.99999999990999
100
AcDbArc
 50
276.6184124894869
 51
291.8917568508917
  0
ARC
  5
8C
330
1F
100
AcDbEntity
  8
0
  6
CONTINUOUS
 62
     7
100
AcDbCircle
 10
-235.000000000053
 20
215.0000000000724
 30
0.0
 40
89.99999999990999
100
AcDbArc
 50
86.61841248948906
 51
88.61841248948865
  0
ARC
  5
8D
330
1F
100
AcDbEntity
  8
0
  6
CONTINUOUS
 62
     7
100
AcDbCircle
 10
-235.000000000053
 20
215.0000000000724
 30
0.0
 40
82.74999999991722
100
AcDbArc
 50
49.75254003227442
 51
51.48422683733268
  0
ARC
  5
8E
330
1F
100
AcDbEntity
  8
0
  6
CONTINUOUS
 62
     7
100
AcDbCircle
 10
-235.000000000053
 20
215.0000000000724
 30
0.0
 40
82.74999999991722
100
AcDbArc
 50
149.2329964797792
 51
212.0036587591426
  0
ARC
  5
8F
330
1F
100
AcDbEntity
  8
0
  6
CONTINUOUS
 62
     7
100
AcDbCircle
 10
-235.000000000053
 20
215.0000000000724
 30
0.0
 40
92.49999999990754
100
AcDbArc
 50
329.3794882798326
 51
341.6184124894845
  0
LINE
  5
90
330
1F
100
AcDbEntity
  8
0
  6
CONTINUOUS
 62
     7
100
AcDbLine
 10
-142.6947997132708
 20
221.0000000000664
 30
0.0
 11
-145.2002227175682
 21
221.0000000000668
 31
0.0
  0
ARC
  5
91
330
1F
100
AcDbEntity
  8
0
  6
CONTINUOUS
 62
     7
100
AcDbCircle
 10
-235.000000000053
 20
215.0000000000724
 30
0.0
 40
82.74999999991728
100
AcDbArc
 50
119.752708088282
 51
121.4842408547523
  0
ARC
  5
92
330
1F
100
AcDbEntity
  8
0
  6
CONTINUOUS
 62
     7
100
AcDbCircle
 10
-235.000000000053
 20
215.0000000000724
 30
0.0
 40
92.49999999990749
100
AcDbArc
 50
276.659561983082
 51
276.9162032936475
  0
ARC
  5
93
330
1F
100
AcDbEntity
  8
0
  6
CONTINUOUS
 62
     7
100
AcDbCircle
 10
-235.000000000053
 20
215.0000000000724
 30
0.0
 40
89.99999999990999
100
AcDbArc
 50
69.34506812808473
 51
84.6184124894895
  0
ARC
  5
94
330
1F
100
AcDbEntity
  8
0
  6
CONTINUOUS
 62
     7
100
AcDbCircle
 10
-235.000000000053
 20
215.0000000000724
 30
0.0
 40
89.99999999990999
100
AcDbArc
 50
3.822553729274312
 51
5.618412489489233
  0
ARC
  5
95
330
1F
100
AcDbEntity
  8
0
  6
CONTINUOUS
 62
     7
100
AcDbCircle
 10
-235.000000000053
 20
215.0000000000724
 30
0.0
 40
92.49999999990749
100
AcDbArc
 50
355.6184124894872
 51
356.2809059046364
  0
ARC
  5
96
330
1F
100
AcDbEntity
  8
0
  6
CONTINUOUS
 62
     7
100
AcDbCircle
 10
-235.000000000053
 20
215.0000000000724
 30
0.0
 40
79.74999999992028
100
AcDbArc
 50
0.0
 51
32.05576337602218
  0
ARC
  5
97
330
1F
100
AcDbEntity
  8
0
  6
CONTINUOUS
 62
     7
100
AcDbCircle
 10
-235.000000000053
 20
215.0000000000724
 30
0.0
 40
82.74999999991728
100
AcDbArc
 50
319.7525400322628
 51
321.4842268373211
  0
ARC
  5
98
330
1F
100
AcDbEntity
  8
0
  6
CONTINUOUS
 62
     7
100
AcDbCircle
 10
-235.000000000053
 20
215.0000000000724
 30
0.0
 40
79.74999999992028
100
AcDbArc
 50
119.7201242883758
 51
121.5168062406075
  0
ARC
  5
99
330
1F
100
AcDbEntity
  8
0
  6
CONTINUOUS
 62
     7
100
AcDbCircle
 10
-235.000000000053
 20
215.0000000000724
 30
0.0
 40
82.74999999991728
100
AcDbArc
 50
229.7525400327631
 51
231.4842268378212
  0
ARC
  5
9A
330
1F
100
AcDbEntity
  8
0
  6
CONTINUOUS
 62
     7
100
AcDbCircle
 10
-235.000000000053
 20
215.0000000000724
 30
0.0
 40
89.99999999991005
100
AcDbArc
 50
199.618412489983
 51
211.8917568513901
  0
ARC
  5
9B
330
1F
100
AcDbEntity
  8
0
  6
CONTINUOUS
 62
     7
100
AcDbCircle
 10
-235.000000000053
 20
215.0000000000724
 30
0.0
 40
89.99999999990999
100
AcDbArc
 50
355.6184124894872
 51
356.1774462707257
  0
ARC
  5
9C
330
1F
100
AcDbEntity
  8
0
  6
CONTINUOUS
 62
     7
100
AcDbCircle
 10
-235.000000000053
 20
215.0000000000724
 30
0.0
 40
92.49999999990749
100
AcDbArc
 50
343.6184124894849
 51
345.6184124894852
  0
ARC
  5
9D
330
1F
100
AcDbEntity
  8
0
  6
CONTINUOUS
 62
     7
100
AcDbCircle
 10
-235.000000000053
 20
215.0000000000724
 30
0.0
 40
92.49999999990754
100
AcDbArc
 50
199.618412489983
 51
211.857336699633
  0
ARC
  5
9E
330
1F
100
AcDbEntity
  8
0
  6
CONTINUOUS
 62
     7
100
AcDbCircle
 10
-235.000000000053
 20
215.0000000000724
 30
0.0
 40
92.49999999990754
100
AcDbArc
 50
86.80238090260387
 51
88.43417646434173
  0
ARC
  5
9F
330
1F
100
AcDbEntity
  8
0
  6
CONTINUOUS
 62
     7
100
AcDbCircle
 10
-235.000000000053
 20
215.0000000000724
 30
0.0
 40
82.74999999991728
100
AcDbArc
 50
0.0
 51
32.00365875865384
  0
ARC
  5
A0
330
1F
100
AcDbEntity
  8
0
  6
CONTINUOUS
 62
     7
100
AcDbCircle
 10
-235.000000000053
 20
215.0000000000724
 30
0.0
 40
92.49999999990749
100
AcDbArc
 50
149.3794882803328
 51
161.6184124899829
  0
LINE
  5
A1
330
1F
100
AcDbEntity
  8
0
  6
CONTINUOUS
 62
     7
100
AcDbLine
 10
-314.818646390183
 20
167.7607558441452
 30
0.0
 11
-314.6035017907805
 21
167.8880853431991
 31
0.0
  0
ARC
  5
A2
330
1F
100
AcDbEntity
  8
0
  6
CONTINUOUS
 62
     7
100
AcDbCircle
 10
-235.0000000000531
 20
215.0000000000724
 30
0.0
 40
83.49999999991653
100
AcDbArc
 50
270.6184124894882
 51
272.3848551929132
  0
ARC
  5
A3
330
1F
100
AcDbEntity
  8
0
  6
CONTINUOUS
 62
     7
100
AcDbCircle
 10
-235.0000000000531
 20
215.0000000000724
 30
0.0
 40
83.49999999991647
100
AcDbArc
 50
274.851969786062
 51
276.3848551929125
  0
LWPOLYLINE
  5
A4
330
1F
100
AcDbEntity
  8
0
  6
CONTINUOUS
 62
     7
100
AcDbPolyline
 90
       24
 70
     0
 43
0.0
 10
58.34069389284813
 20
314.5934857935852
 10
58.36876005132924
 20
314.5462712652061
 10
58.41338171401383
 20
314.477013823291
 10
58.45923967105499
 20
314.41207756479
 10
58.50776519425798
 20
314.3491129682644
 10
58.55923875531244
 20
314.2878171903759
 10
58.61323720804928
 20
314.22874258677
 10
58.67092004532331
 20
314.1707878532584
 10
58.73103213435182
 20
314.1153666569172
 10
58.79393392437449
 20
314.0622034134848
 10
58.85907332744161
 20
314.0118114373509
 10
58.92393060148587
 20
313.9659092700951
 10
58.99064589776881
 20
313.9227539593464
 10
59.05958617188295
 20
313.8821530976547
 10
59.13017056741499
 20
313.844485874046
 10
59.20386003054939
 20
313.809101519658
 10
59.2789976253768
 20
313.7769155750196
 10
59.35601144707974
 20
313.7477901463492
 10
59.43420565015772
 20
313.7220257825717
 10
59.51062869842288
 20
313.7004017891976
 10
59.5878793926185
 20
313.6819882414548
 10
59.66636922357754
 20
313.6667251662864
 10
59.74542679364397
 20
313.6547754195945
 10
59.75333127703738
 20
313.6537670963613
210
0.0
220
0.0
230
-1.0
  0
LWPOLYLINE
  5
A5
330
1F
100
AcDbEntity
  8
0
  6
CONTINUOUS
 62
     7
100
AcDbPolyline
 90
       39
 70
     0
 43
0.0
 10
-59.48711403116663
 20
116.0024169246636
 10
-59.48643934315562
 20
115.9696148248291
 10
-59.48441625399031
 20
115.9368505940832
 10
-59.48101732642918
 20
115.9039562223495
 10
-59.47625684518165
 20
115.8712133143885
 10
-59.46999307099415
 20
115.8379796044358
 10
-59.46232432570647
 20
115.8050235219167
 10
-59.45318965742757
 20
115.7721673156947
 10
-59.44265651158148
 20
115.7397147783201
 10
-59.4311708487687
 20
115.708810867189
 10
-59.4184155153642
 20
115.6783937866208
 10
-59.40430761386378
 20
115.6483096793373
 10
-59.3889568729164
 20
115.6188265594611
 10
-59.37200952919741
 20
115.589369876043
 10
-59.35382141678552
 20
115.5606505170048
 10
-59.33427455122592
 20
115.5325168495412
 10
-59.31353754644669
 20
115.5052390133972
 10
-59.29258305498358
 20
115.4799501956326
 10
-59.2706066948529
 20
115.455538521836
 10
-59.2474815097293
 20
115.4318862142726
 10
-59.22339883570793
 20
115.4092075882351
 10
-59.1978429120194
 20
115.3870805399105
 10
-59.17137808954148
 20
115.3660517490833
 10
-59.14384692620494
 20
115.3460174567101
 10
-59.11549403940541
 20
115.3271728218684
 10
-59.08748815285797
 20
115.3101978512555
 10
-59.05881887081316
 20
115.2943840173702
 10
-59.02933069417621
 20
115.2796615594236
 10
-58.99927151455081
 20
115.2661671539857
 10
-58.96802831325304
 20
115.253673821596
 10
-58.9363005483069
 20
115.2425061210965
 10
-58.90391039900283
 20
115.2326174062829
 10
-58.8711461197482
 20
115.2241085996976
 10
-58.84107392636611
 20
115.217581644367
 10
-58.81077562800336
 20
115.2122134504393
 10
-58.78031913656129
 20
115.2080145180505
 10
-58.74931906700282
 20
115.2049567463595
 10
-58.7182270754526
 20
115.2031055609721
 10
-58.6871140311675
 20
115.2024635226362
  0
LWPOLYLINE
  5
A6
330
1F
100
AcDbEntity
  8
0
  6
CONTINUOUS
 62
     7
100
AcDbPolyline
 90
       39
 70
     0
 43
0.0
 10
-61.28711403116521
 20
115.2024635226362
 10
-61.25427215635387
 20
115.203176033369
 10
-61.22146979698767
 20
115.2052352226608
 10
-61.18853876625996
 20
115.2086686930878
 10
-61.1557609988877
 20
115.2134618472389
 10
-61.12249360111505
 20
115.219757006656
 10
-61.08950583487865
 20
115.2274550675219
 10
-61.05661979987337
 20
115.2366171169848
 10
-61.02413958318775
 20
115.2471754367226
 10
-60.99321102979854
 20
115.258683271273
 10
-60.96277140490297
 20
115.2714586330079
 10
-60.93266675780701
 20
115.285584499052
 10
-60.90316530348777
 20
115.3009509619158
 10
-60.87369219710664
 20
115.3179120247245
 10
-60.84495878471735
 20
115.3361114574273
 10
-60.81681338443706
 20
115.35566727785
 10
-60.78952627056
 20
115.3764107630793
 10
-60.76423088443078
 20
115.3973691289686
 10
-60.73981492516889
 20
115.4193470723298
 10
-60.71616061878776
 20
115.4424715314842
 10
-60.69348232006983
 20
115.4665511544778
 10
-60.6713580107136
 20
115.4921015619451
 10
-60.65033438186257
 20
115.5185584563656
 10
-60.6303077318448
 20
115.5460792072244
 10
-60.61147317350402
 20
115.5744192689742
 10
-60.5945101792944
 20
115.6024105597947
 10
-60.57871053584402
 20
115.6310630612025
 10
-60.56400457984829
 20
115.6605321616921
 10
-60.55052886598283
 20
115.6905701139482
 10
-60.53805685655406
 20
115.7217894459848
 10
-60.52691268962796
 20
115.7534911801762
 10
-60.51704987182049
 20
115.785852971346
 10
-60.50856911250474
 20
115.818586800912
 10
-60.50206949028563
 20
115.8486295309671
 10
-60.49673033360347
 20
115.8788967162931
 10
-60.4925620767105
 20
115.9093205154351
 10
-60.48953703915505
 20
115.9402858689822
 10
-60.48772019676657
 20
115.9713416006773
 10
-60.48711403116569
 20
116.0024169246635
  0
LWPOLYLINE
  5
A7
330
1F
100
AcDbEntity
  8
0
  6
CONTINUOUS
 62
     7
100
AcDbPolyline
 90
       63
 70
     0
 43
0.0
 10
-61.88711403116226
 20
315.6356018482633
 10
-61.88588600729555
 20
315.5673984748602
 10
-61.88135597240046
 20
315.487963665231
 10
-61.87328722415314
 20
315.4070721092085
 10
-61.8617591393163
 20
315.3266007158067
 10
-61.84666668229238
 20
315.246110621944
 10
-61.82811243713216
 20
315.1663428012342
 10
-61.80695574281819
 20
315.0901959494934
 10
-61.78264346355272
 20
315.014991523005
 10
-61.75501386326521
 20
314.9403520742943
 10
-61.72427671787367
 20
314.8669358919534
 10
-61.68971495652242
 20
314.7933225535923
 10
-61.65203005417325
 20
314.7212587481316
 10
-61.61097788680087
 20
314.6503673871389
 10
-61.56690404518356
 20
314.5813153760996
 10
-61.52159451149281
 20
314.5165626031186
 10
-61.47362735420375
 20
314.4537528371437
 10
-61.42272321338255
 20
314.3925813117306
 10
-61.36929673813624
 20
314.3335956697089
 10
-61.3121968177413
 20
314.2756930582854
 10
-61.25266332900176
 20
314.220284375607
 10
-61.19033900227105
 20
314.1670950551054
 10
-61.12577266404268
 20
314.1166410376485
 10
-61.06145773642535
 20
314.0706420451191
 10
-60.99528112825197
 20
314.0273599176726
 10
-60.92687916881673
 20
313.9866014377299
 10
-60.85682783585783
 20
313.9487464657531
 10
-60.78367561564263
 20
313.913138615553
 10
-60.70906472714005
 20
313.8806965204011
 10
-60.63256719220583
 20
313.8512793580512
 10
-60.55486950868705
 20
313.8251888928288
 10
-60.47890166071407
 20
313.8032176122825
 10
-60.40208003496456
 20
313.7844256010565
 10
-60.32399414595485
 20
313.7687510283849
 10
-60.24531182600751
 20
313.7563607679375
 10
-60.16444579422714
 20
313.7471198071098
 10
-60.08325304550105
 20
313.7413491701871
 10
-60.00128486838246
 20
313.7390593250989
 10
-59.91929196686247
 20
313.740306823719
 10
-59.84030231375753
 20
313.7448643761196
 10
-59.76156987238618
 20
313.7527048294011
 10
-59.68268892567247
 20
313.7639058237449
 10
-59.60434527337532
 20
313.7784016541736
 10
-59.52499510417913
 20
313.7965923843465
 10
-59.44649298384147
 20
313.818162978826
 10
-59.36841605390314
 20
313.8432729158919
 10
-59.29148769384535
 20
313.87172703951
 10
-59.21848058850509
 20
313.9023075550384
 10
-59.14680230655295
 20
313.9359009489787
 10
-59.07609768398581
 20
313.9727156516025
 10
-59.00699422025407
 20
314.0124609880062
 10
-58.93816983118172
 20
314.0560277634432
 10
-58.87127203683112
 20
314.1025002637301
 10
-58.80595635722813
 20
314.1521685324928
 10
-58.7428420964991
 20
314.204605841413
 10
-58.69998566144935
 20
314.2429551767286
 10
-58.65830729825011
 20
314.282582075127
 10
-58.61770020882362
 20
314.3236021869361
 10
-58.57835493882563
 20
314.3658353770833
 10
-58.53989014553501
 20
314.4097353576159
 10
-58.50278804260678
 20
314.4547954682508
 10
-58.46695247542505
 20
314.5011498226384
 10
-58.4325583457046
 20
314.5485876204986
  0
LWPOLYLINE
  5
A8
330
1F
100
AcDbEntity
  8
0
  6
CONTINUOUS
 62
     7
100
AcDbPolyline
 90
       39
 70
     0
 43
0.0
 10
-60.48711403116575
 20
113.4025683680746
 10
-60.48778871917676
 20
113.4354461919503
 10
-60.48981180834245
 20
113.4682828586285
 10
-60.49321073590319
 20
113.501246712052
 10
-60.49797121715073
 20
113.5340555203921
 10
-60.50423499133867
 20
113.5673527305014
 10
-60.5119037366259
 20
113.6003683375474
 10
-60.52103840490513
 20
113.6332803702798
 10
-60.53157155075134
 20
113.6657844824958
 10
-60.54305721356401
 20
113.6967340751233
 10
-60.55581254696851
 20
113.7271926982844
 10
-60.56992044846904
 20
113.7573143781538
 10
-60.58527118941625
 20
113.7868307301463
 10
-60.6022185331353
 20
113.8163168260235
 10
-60.62040664554696
 20
113.8450609444668
 10
-60.63995351110657
 20
113.8732147987673
 10
-60.66069051588596
 20
113.9005080115674
 10
-60.68164500734891
 20
113.9258070192764
 10
-60.70362136747948
 20
113.9502244196685
 10
-60.72674655260346
 20
113.9738779692604
 10
-60.75082922662445
 20
113.996553298752
 10
-60.77638515031297
 20
114.01867229177
 10
-60.80284997279101
 20
114.0396883094992
 10
-60.83038113612754
 20
114.0597049841581
 10
-60.85873402292729
 20
114.0785272718675
 10
-60.88673990947474
 20
114.0954763135706
 10
-60.91540919151955
 20
114.1112599260077
 10
-60.94489736815628
 20
114.1259476668832
 10
-60.97495654778168
 20
114.1394031193242
 10
-61.00619974907934
 20
114.1518523528662
 10
-61.03792751402553
 20
114.1629716879798
 10
-61.07031766332965
 20
114.1728074598129
 10
-61.10308194258451
 20
114.1812591838933
 10
-61.13315413596665
 20
114.1877307158281
 10
-61.16345243432946
 20
114.1930402132804
 10
-61.19390892577109
 20
114.1971773090962
 10
-61.2249089953299
 20
114.2001692601148
 10
-61.25600098688011
 20
114.2019515478516
 10
-61.28711403116521
 20
114.202521770102
  0
LWPOLYLINE
  5
A9
330
1F
100
AcDbEntity
  8
0
  6
CONTINUOUS
 62
     7
100
AcDbPolyline
 90
       29
 70
     0
 43
0.0
 10
58.33151760997923
 20
314.5924626169981
 10
58.33990348033774
 20
314.5776999546667
 10
58.38119930702551
 20
314.5091311399221
 10
58.42533900380015
 20
314.4423570771477
 10
58.47329780688454
 20
314.3761088241527
 10
58.52405481017308
 20
314.3119812454941
 10
58.57792121730782
 20
314.2496488411824
 10
58.6344285218271
 20
314.1897075932821
 10
58.6913520976548
 20
314.1342500982298
 10
58.75053379931167
 20
314.0812204779949
 10
58.81230664935572
 20
314.0303699702616
 10
58.87615780305116
 20
313.9821617020588
 10
58.9434304363845
 20
313.9357237429296
 10
59.01263308764959
 20
313.8922172976891
 10
59.0841692613882
 20
313.8514386385617
 10
59.15740113958378
 20
313.8137926657965
 10
59.22954356044735
 20
313.7805065590134
 10
59.3030101490753
 20
313.7502617311515
 10
59.37819538156347
 20
313.7229362705316
 10
59.4544572583407
 20
313.6987969050332
 10
59.53334877332611
 20
313.677470502351
 10
59.61307386341402
 20
313.659553779804
 10
59.69408070888093
 20
313.6449883951308
 10
59.7756356073153
 20
313.6339422090195
 10
59.85469910541358
 20
313.6266424655626
 10
59.93399567356921
 20
313.6226503506672
 10
60.01393940755501
 20
313.6219827342264
 10
60.0938387807517
 20
313.6246773898188
 10
60.0996197936664
 20
313.6250031389715
210
0.0
220
0.0
230
-1.0
  0
LWPOLYLINE
  5
AA
330
1F
100
AcDbEntity
  8
0
  6
CONTINUOUS
 62
     7
100
AcDbPolyline
 90
       39
 70
     0
 43
0.0
 10
-58.6871140311675
 20
114.202521770102
 10
-58.71995590597862
 20
114.2018849834103
 10
-58.75275826534493
 20
114.1998982300509
 10
-58.78568929607248
 20
114.1965342413137
 10
-58.81846706344501
 20
114.1918069875418
 10
-58.85173446121766
 20
114.1855753282812
 10
-58.88472222745384
 20
114.1779367919423
 10
-58.91760826245934
 20
114.1688305689896
 10
-58.9500884791449
 20
114.1583238240931
 10
-58.98101703253406
 20
114.1468616710394
 10
-59.01145665742952
 20
114.1341278518972
 10
-59.04156130452548
 20
114.1200395584391
 10
-59.0710627588446
 20
114.1047063276917
 10
-59.10053586522596
 20
114.087774677342
 10
-59.12926927761514
 20
114.0696000040443
 10
-59.15741467789559
 20
114.0500643704586
 10
-59.18470179177271
 20
114.0293362618853
 10
-59.20999717790171
 20
114.0083880859403
 10
-59.23441313716382
 20
113.9864158691747
 10
-59.25806744354484
 20
113.9632926520487
 10
-59.28074574226289
 20
113.9392097325093
 10
-59.3028700516191
 20
113.9136512697354
 10
-59.32389368047014
 20
113.8871816022169
 10
-59.34392033048791
 20
113.8596432336437
 10
-59.3627548888287
 20
113.8312808247616
 10
-59.3797178830383
 20
113.8032636050313
 10
-59.3955175264887
 20
113.7745808821755
 10
-59.41022348248415
 20
113.7450770646147
 10
-59.42369919634977
 20
113.7150001593618
 10
-59.43617120577843
 20
113.6837367284774
 10
-59.44731537270448
 20
113.6519866289002
 10
-59.45717819051216
 20
113.61957189475
 10
-59.46565894982763
 20
113.5867809826788
 10
-59.47215857204696
 20
113.5566828292278
 10
-59.47749772872929
 20
113.5263569474265
 10
-59.48166598562193
 20
113.4958713117116
 10
-59.4846910231776
 20
113.4648401374921
 10
-59.48650786556614
 20
113.4337155081463
 10
-59.48711403116668
 20
113.4025683680746
  0
ARC
  5
AB
330
1F
100
AcDbEntity
  8
0
  6
CONTINUOUS
 62
     7
100
AcDbCircle
 10
-235.0000000000531
 20
215.0000000000724
 30
0.0
 40
88.74999999991122
100
AcDbArc
 50
299.166710329375
 51
302.0701146495909
  0
ARC
  5
AC
330
1F
100
AcDbEntity
  8
0
  6
CONTINUOUS
 62
     7
100
AcDbCircle
 10
-235.0000000000531
 20
215.0000000000724
 30
0.0
 40
88.74999999991128
100
AcDbArc
 50
309.1667103293742
 51
312.0701146495903
  0
ARC
  5
AD
330
1F
100
AcDbEntity
  8
0
  6
CONTINUOUS
 62
     7
100
AcDbCircle
 10
235.0000000000531
 20
215.0000000000724
 30
0.0
 40
84.99999999991503
210
0.0
220
0.0
230
-1.0
100
AcDbArc
 50
140.8807760612806
 51
147.3824919463847
  0
LINE
  5
AE
330
1F
100
AcDbEntity
  8
0
  6
CONTINUOUS
 62
     7
100
AcDbLine
 10
-231.5254349587763
 20
131.5723223519445
 30
0.0
 11
-231.4124584995178
 21
127.5735763858893
 31
0.0
  0
LINE
  5
AF
330
1F
100
AcDbEntity
  8
0
  6
CONTINUOUS
 62
     7
100
AcDbLine
 10
-152.8062884695363
 20
200.2879714240593
 30
0.0
 11
-148.85945228145
 21
199.6358847075918
 31
0.0
  0
LINE
  5
B0
330
1F
100
AcDbEntity
  8
0
  6
CONTINUOUS
 62
     7
100
AcDbLine
 10
-153.9283870687217
 20
234.9910874316178
 30
0.0
 11
-150.0575452349857
 21
236.0006994757123
 31
0.0
  0
LINE
  5
B1
330
1F
100
AcDbEntity
  8
0
  6
CONTINUOUS
 62
     7
100
AcDbLine
 10
-215.6834285627695
 20
113.4025683680746
 30
0.0
 11
-215.6920630623813
 21
114.202521770102
 31
0.0
  0
LINE
  5
B2
330
1F
100
AcDbEntity
  8
0
  6
CONTINUOUS
 62
     7
100
AcDbLine
 10
-227.5457814540027
 20
127.8180946191255
 30
0.0
 11
-227.9374304269633
 21
131.7992180866117
 31
0.0
  0
LINE
  5
B3
330
1F
100
AcDbEntity
  8
0
  6
CONTINUOUS
 62
     7
100
AcDbLine
 10
-142.2869988500553
 20
217.6195262434408
 30
0.0
 11
-151.5333089377908
 21
217.3582796908677
 31
0.0
  0
LINE
  5
B4
330
1F
100
AcDbEntity
  8
0
  6
CONTINUOUS
 62
     7
100
AcDbLine
 10
-154.0327674548683
 20
194.5902657059346
 30
0.0
 11
-150.141032831285
 21
193.6644500650077
 31
0.0
  0
ARC
  5
B5
330
1F
100
AcDbEntity
  8
0
  6
CONTINUOUS
 62
     7
100
AcDbCircle
 10
235.0000000000531
 20
215.0000000000724
 30
0.0
 40
84.99999999991498
210
0.0
220
0.0
230
-1.0
100
AcDbArc
 50
130.8807760612804
 51
137.8823989597312
  0
LINE
  5
B6
330
1F
100
AcDbEntity
  8
0
  6
CONTINUOUS
 62
     7
100
AcDbLine
 10
-151.5436155344742
 20
217.6984980854184
 30
0.0
 11
-147.5474507348274
 21
217.8812544134811
 31
0.0
  0
LINE
  5
B7
330
1F
100
AcDbEntity
  8
0
  6
CONTINUOUS
 62
     7
100
AcDbLine
 10
-254.1101587755843
 20
312.9251052175878
 30
0.0
 11
-254.109596722186
 21
312.8730331174885
 31
0.0
  0
ARC
  5
B8
330
1F
100
AcDbEntity
  8
0
  6
CONTINUOUS
 62
     7
100
AcDbCircle
 10
235.0000000000531
 20
215.0000000000724
 30
0.0
 40
84.99999999991503
210
0.0
220
0.0
230
-1.0
100
AcDbArc
 50
230.8807760612923
 51
237.8823989597424
  0
ARC
  5
B9
330
1F
100
AcDbEntity
  8
0
  6
CONTINUOUS
 62
     7
100
AcDbCircle
 10
235.0000000000531
 20
215.0000000000724
 30
0.0
 40
84.99999999991498
210
0.0
220
0.0
230
-1.0
100
AcDbArc
 50
240.8807760612914
 51
247.3824919463943
  0
ARC
  5
BA
330
1F
100
AcDbEntity
  8
0
  6
CONTINUOUS
 62
     7
100
AcDbCircle
 10
-227.6156579453581
 20
114.5738505548262
 30
0.0
 40
11.98957880826981
100
AcDbArc
 50
6.843087984288982
 51
12.04040966579544
  0
LINE
  5
BB
330
1F
100
AcDbEntity
  8
0
  6
CONTINUOUS
 62
     7
100
AcDbLine
 10
-254.3165714373365
 20
316.5974316320706
 30
0.0
 11
-254.3079369377247
 21
315.7974782300433
 31
0.0
  0
ARC
  5
BC
330
1F
100
AcDbEntity
  8
0
  6
CONTINUOUS
 62
     7
100
AcDbCircle
 10
235.0000000000531
 20
215.0000000000724
 30
0.0
 40
84.99999999991503
210
0.0
220
0.0
230
-1.0
100
AcDbArc
 50
211.3806830746388
 51
217.8823989597432
  0
ARC
  5
BD
330
1F
100
AcDbEntity
  8
0
  6
CONTINUOUS
 62
     7
100
AcDbCircle
 10
235.0000000000531
 20
215.0000000000724
 30
0.0
 40
84.99999999991503
210
0.0
220
0.0
230
-1.0
100
AcDbArc
 50
111.3806830746292
 51
117.8823989597321
  0
LINE
  5
BE
330
1F
100
AcDbEntity
  8
0
  6
CONTINUOUS
 62
     7
100
AcDbLine
 10
-215.8898412245217
 20
117.0748947825573
 30
0.0
 11
-215.8904032779201
 21
117.1269668826567
 31
0.0
  0
ARC
  5
BF
330
1F
100
AcDbEntity
  8
0
  6
CONTINUOUS
 62
     7
100
AcDbCircle
 10
-235.0000000000531
 20
215.0000000000724
 30
0.0
 40
88.74999999991122
100
AcDbArc
 50
319.166710329374
 51
322.0701146495905
  0
LINE
  5
C0
330
1F
100
AcDbEntity
  8
0
  6
CONTINUOUS
 62
     7
100
AcDbLine
 10
-149.6240354656086
 20
195.8376755117724
 30
0.0
 11
-153.5157679262938
 21
196.7635002445537
 31
0.0
  0
LINE
  5
C1
330
1F
100
AcDbEntity
  8
0
  6
CONTINUOUS
 62
     7
100
AcDbLine
 10
-225.7142782191921
 20
132.0179213867088
 30
0.0
 11
-225.3226385469196
 21
128.0367970042647
 31
0.0
  0
ARC
  5
C2
330
1F
100
AcDbEntity
  8
0
  6
CONTINUOUS
 62
     7
100
AcDbCircle
 10
-242.3843420547479
 20
315.4261494453189
 30
0.0
 40
11.98957880826981
100
AcDbArc
 50
186.843087984289
 51
192.0404096657954
  0
LINE
  5
C3
330
1F
100
AcDbEntity
  8
0
  6
CONTINUOUS
 62
     7
100
AcDbLine
 10
-215.702856186896
 20
115.2024635226362
 30
0.0
 11
-215.7114906865079
 21
116.0024169246635
 31
0.0
  0
ARC
  5
C4
330
1F
100
AcDbEntity
  8
0
  6
CONTINUOUS
 62
     7
100
AcDbCircle
 10
161.57952925555
 20
170.2179223837029
 30
0.0
 40
0.9999999999990017
210
0.0
220
0.0
230
-1.0
100
AcDbArc
 50
31.38068307463938
 51
119.3815875105068
  0
ARC
  5
C5
330
1F
100
AcDbEntity
  8
0
  6
CONTINUOUS
 62
     7
100
AcDbCircle
 10
-235.000000000053
 20
215.0000000000724
 30
0.0
 40
83.49999999991742
100
AcDbArc
 50
345.6184124894912
 51
345.8519697860659
  0
LINE
  5
C6
330
1F
100
AcDbEntity
  8
0
  6
CONTINUOUS
 62
     7
100
AcDbLine
 10
-148.85945228145
 20
199.6358847075918
 30
0.0
 11
-143.6953442332821
 21
198.6898088518734
 31
0.0
  0
ARC
  5
C7
330
1F
100
AcDbEntity
  8
0
  6
CONTINUOUS
 62
     7
100
AcDbCircle
 10
-235.000000000053
 20
215.0000000000724
 30
0.0
 40
83.4999999999183
100
AcDbArc
 50
1.61841248948801
 51
1.851969786062699
  0
LINE
  5
C8
330
1F
100
AcDbEntity
  8
0
  6
CONTINUOUS
 62
     7
100
AcDbLine
 10
-161.088905499299
 20
171.0892939059598
 30
0.0
 11
-158.4732526644404
 21
169.616556518853
 31
0.0
  0
LINE
  5
C9
330
1F
100
AcDbEntity
  8
0
  6
CONTINUOUS
 62
     7
100
AcDbLine
 10
-231.4124584995178
 20
127.5735763858893
 30
0.0
 11
-231.195417504323
 21
122.8276187803488
 31
0.0
  0
ARC
  5
CA
330
1F
100
AcDbEntity
  8
0
  6
CONTINUOUS
 62
     7
100
AcDbCircle
 10
-235.0000000000531
 20
215.0000000000724
 30
0.0
 40
88.74999999991122
100
AcDbArc
 50
59.16671032938533
 51
62.07011464960141
  0
ARC
  5
CB
330
1F
100
AcDbEntity
  8
0
  6
CONTINUOUS
 62
     7
100
AcDbCircle
 10
235.0000000000531
 20
215.0000000000724
 30
0.0
 40
83.49999999991653
210
0.0
220
0.0
230
-1.0
100
AcDbArc
 50
184.6151448070875
 51
186.1480302139385
  0
LINE
  5
CC
330
1F
100
AcDbEntity
  8
0
  6
CONTINUOUS
 62
     7
100
AcDbLine
 10
-147.5056338459915
 20
214.0070794189161
 30
0.0
 11
-151.5048124007022
 21
214.1035359838746
 31
0.0
  0
LINE
  5
CD
330
1F
100
AcDbEntity
  8
0
  6
CONTINUOUS
 62
     7
100
AcDbLine
 10
-144.8576304987522
 20
236.8384001399713
 30
0.0
 11
-153.8475703142459
 21
234.6604464872052
 31
0.0
  0
ARC
  5
CE
330
1F
100
AcDbEntity
  8
0
  6
CONTINUOUS
 62
     7
100
AcDbCircle
 10
235.0000000000531
 20
215.0000000000724
 30
0.0
 40
83.49999999991647
210
0.0
220
0.0
230
-1.0
100
AcDbArc
 50
172.615144807085
 51
174.148030213936
  0
LINE
  5
CF
330
1F
100
AcDbEntity
  8
0
  6
CONTINUOUS
 62
     7
100
AcDbLine
 10
-143.5538429943456
 20
230.4971890634727
 30
0.0
 11
-152.6738101350765
 21
228.951647297042
 31
0.0
  0
ARC
  5
D0
330
1F
100
AcDbEntity
  8
0
  6
CONTINUOUS
 62
     7
100
AcDbCircle
 10
235.0000000000531
 20
215.0000000000724
 30
0.0
 40
83.49999999991653
210
0.0
220
0.0
230
-1.0
100
AcDbArc
 50
168.6151448070843
 51
170.1480302139352
  0
LINE
  5
D1
330
1F
100
AcDbEntity
  8
0
  6
CONTINUOUS
 62
     7
100
AcDbLine
 10
-151.9351488033681
 20
223.5135477714624
 30
0.0
 11
-147.9614668973268
 21
223.9746172792194
 31
0.0
  0
ARC
  5
D2
330
1F
100
AcDbEntity
  8
0
  6
CONTINUOUS
 62
     7
100
AcDbCircle
 10
235.0000000000531
 20
215.0000000000724
 30
0.0
 40
83.49999999991647
210
0.0
220
0.0
230
-1.0
100
AcDbArc
 50
176.615144807086
 51
178.1480302139369
  0
ARC
  5
D3
330
1F
100
AcDbEntity
  8
0
  6
CONTINUOUS
 62
     7
100
AcDbCircle
 10
235.0000000000531
 20
215.0000000000724
 30
0.0
 40
84.99999999991503
210
0.0
220
0.0
230
-1.0
100
AcDbArc
 50
120.8807760612811
 51
127.8823989597313
  0
LINE
  5
D4
330
1F
100
AcDbEntity
  8
0
  6
CONTINUOUS
 62
     7
100
AcDbLine
 10
-215.8380260690833
 20
112.2744185843891
 30
0.0
 11
-215.8385881224816
 21
112.3264906844884
 31
0.0
  0
LINE
  5
D5
330
1F
100
AcDbEntity
  8
0
  6
CONTINUOUS
 62
     7
100
AcDbLine
 10
-217.9108263835188
 20
114.1785729863522
 30
0.0
 11
-217.4493547965183
 21
114.183553996782
 31
0.0
  0
LINE
  5
D6
330
1F
100
AcDbEntity
  8
0
  6
CONTINUOUS
 62
     7
100
AcDbLine
 10
-254.3079369377247
 20
315.7974782300433
 30
0.0
 11
-253.9529680640222
 21
315.801309676468
 31
0.0
  0
ARC
  5
D7
330
1F
100
AcDbEntity
  8
0
  6
CONTINUOUS
 62
     7
100
AcDbCircle
 10
-242.3843420547479
 20
315.4261494453189
 30
0.0
 40
11.98957880826979
100
AcDbArc
 50
169.196415313181
 51
174.3937369946875
  0
LINE
  5
D8
330
1F
100
AcDbEntity
  8
0
  6
CONTINUOUS
 62
     7
100
AcDbLine
 10
-224.36775568153
 20
123.366120038124
 30
0.0
 11
-225.3760928212449
 21
132.0564625146258
 31
0.0
  0
ARC
  5
D9
330
1F
100
AcDbEntity
  8
0
  6
CONTINUOUS
 62
     7
100
AcDbCircle
 10
235.0000000000531
 20
215.0000000000724
 30
0.0
 40
83.49999999991653
210
0.0
220
0.0
230
-1.0
100
AcDbArc
 50
180.6151448070868
 51
182.1480302139377
  0
LINE
  5
DA
330
1F
100
AcDbEntity
  8
0
  6
CONTINUOUS
 62
     7
100
AcDbLine
 10
-151.9802489846979
 20
206.0573526665583
 30
0.0
 11
-147.9975398212821
 21
205.6821717754851
 31
0.0
  0
LINE
  5
DB
330
1F
100
AcDbEntity
  8
0
  6
CONTINUOUS
 62
     7
100
AcDbLine
 10
-150.0575452349856
 20
236.0006994757123
 30
0.0
 11
-144.9550940671566
 21
237.2368481471284
 31
0.0
  0
ARC
  5
DC
330
1F
100
AcDbEntity
  8
0
  6
CONTINUOUS
 62
     7
100
AcDbCircle
 10
203.6475937156983
 20
295.0813749893016
 30
0.0
 40
0.9999999999989462
210
0.0
220
0.0
230
-1.0
100
AcDbArc
 50
291.380683074631
 51
19.38158751051583
  0
ARC
  5
DD
330
1F
100
AcDbEntity
  8
0
  6
CONTINUOUS
 62
     7
100
AcDbCircle
 10
235.000000000053
 20
215.0000000000724
 30
0.0
 40
83.49999999991647
210
0.0
220
0.0
230
-1.0
100
AcDbArc
 50
263.3815875105105
 51
263.6151448070852
  0
LINE
  5
DE
330
1F
100
AcDbEntity
  8
0
  6
CONTINUOUS
 62
     7
100
AcDbLine
 10
-230.7857116359518
 20
122.8476676925622
 30
0.0
 11
-231.1853848702837
 21
131.5871789747781
 31
0.0
  0
ARC
  5
DF
330
1F
100
AcDbEntity
  8
0
  6
CONTINUOUS
 62
     7
100
AcDbCircle
 10
-235.000000000053
 20
215.0000000000724
 30
0.0
 40
83.49999999991769
100
AcDbArc
 50
349.6184124894905
 51
349.8519697860653
  0
LINE
  5
E0
330
1F
100
AcDbEntity
  8
0
  6
CONTINUOUS
 62
     7
100
AcDbLine
 10
-217.4601479210332
 20
115.1834957493162
 30
0.0
 11
-217.9216195080335
 21
115.1785147388864
 31
0.0
  0
ARC
  5
E1
330
1F
100
AcDbEntity
  8
0
  6
CONTINUOUS
 62
     7
100
AcDbCircle
 10
-235.0000000000531
 20
215.0000000000724
 30
0.0
 40
88.74999999991122
100
AcDbArc
 50
49.16671032938596
 51
52.07011464960217
  0
LINE
  5
E2
330
1F
100
AcDbEntity
  8
0
  6
CONTINUOUS
 62
     7
100
AcDbLine
 10
-215.6920630623813
 20
114.202521770102
 30
0.0
 11
-216.0470319360838
 21
114.1986903236772
 31
0.0
  0
LINE
  5
E3
330
1F
100
AcDbEntity
  8
0
  6
CONTINUOUS
 62
     7
100
AcDbLine
 10
-147.6495030860418
 20
220.1127965789337
 30
0.0
 11
-151.6456683126323
 21
219.9300495866982
 31
0.0
  0
ARC
  5
E4
330
1F
100
AcDbEntity
  8
0
  6
CONTINUOUS
 62
     7
100
AcDbCircle
 10
235.0000000000531
 20
215.0000000000724
 30
0.0
 40
83.49999999991641
210
0.0
220
0.0
230
-1.0
100
AcDbArc
 50
164.6151448070835
 51
166.1480302139344
  0
LINE
  5
E5
330
1F
100
AcDbEntity
  8
0
  6
CONTINUOUS
 62
     7
100
AcDbLine
 10
-234.0556016050123
 20
127.5050966533281
 30
0.0
 11
-234.0987741030713
 21
131.5048636634625
 31
0.0
  0
LINE
  5
E6
330
1F
100
AcDbEntity
  8
0
  6
CONTINUOUS
 62
     7
100
AcDbLine
 10
-150.6213312022255
 20
238.162259213893
 30
0.0
 11
-154.4921753946032
 21
237.1526562128487
 31
0.0
  0
ARC
  5
E7
330
1F
100
AcDbEntity
  8
0
  6
CONTINUOUS
 62
     7
100
AcDbCircle
 10
235.0000000000531
 20
215.0000000000724
 30
0.0
 40
84.99999999991498
210
0.0
220
0.0
230
-1.0
100
AcDbArc
 50
220.8807760612923
 51
227.882398959743
  0
LINE
  5
E8
330
1F
100
AcDbEntity
  8
0
  6
CONTINUOUS
 62
     7
100
AcDbLine
 10
-204.5909230677637
 20
295.4132329913589
 30
0.0
 11
-203.594763218973
 21
298.2448863457698
 31
0.0
  0
LINE
  5
E9
330
1F
100
AcDbEntity
  8
0
  6
CONTINUOUS
 62
     7
100
AcDbLine
 10
-217.9216195080335
 20
115.1785147388865
 30
0.0
 11
-217.9108263835188
 21
114.1785729863522
 31
0.0
  0
LINE
  5
EA
330
1F
100
AcDbEntity
  8
0
  6
CONTINUOUS
 62
     7
100
AcDbLine
 10
-217.4493547965183
 20
114.183553996782
 30
0.0
 11
-216.0470319360838
 21
114.1986903236772
 31
0.0
  0
LINE
  5
EB
330
1F
100
AcDbEntity
  8
0
  6
CONTINUOUS
 62
     7
100
AcDbLine
 10
-254.29714381321
 20
314.7975364775088
 30
0.0
 11
-254.2885093135982
 21
313.9975830754815
 31
0.0
  0
LINE
  5
EC
330
1F
100
AcDbEntity
  8
0
  6
CONTINUOUS
 62
     7
100
AcDbLine
 10
-143.7683702379518
 20
198.2861664801935
 30
0.0
 11
-152.8669424783771
 21
199.9530447557609
 31
0.0
  0
ARC
  5
ED
330
1F
100
AcDbEntity
  8
0
  6
CONTINUOUS
 62
     7
100
AcDbCircle
 10
235.000000000053
 20
215.0000000000724
 30
0.0
 40
83.49999999991647
210
0.0
220
0.0
230
-1.0
100
AcDbArc
 50
267.3815875105113
 51
267.615144807086
  0
ARC
  5
EE
330
1F
100
AcDbEntity
  8
0
  6
CONTINUOUS
 62
     7
100
AcDbCircle
 10
-235.000000000053
 20
215.0000000000724
 30
0.0
 40
83.49999999991809
100
AcDbArc
 50
13.6184124894856
 51
13.85196978606026
  0
LINE
  5
EF
330
1F
100
AcDbEntity
  8
0
  6
CONTINUOUS
 62
     7
100
AcDbLine
 10
-150.141032831285
 20
193.6644500650077
 30
0.0
 11
-145.0554992063649
 21
192.3604488350508
 31
0.0
  0
LINE
  5
F0
330
1F
100
AcDbEntity
  8
0
  6
CONTINUOUS
 62
     7
100
AcDbLine
 10
-233.3003929627459
 20
302.4834917908293
 30
0.0
 11
-233.1858439898834
 21
307.2330284966562
 31
0.0
  0
LINE
  5
F1
330
1F
100
AcDbEntity
  8
0
  6
CONTINUOUS
 62
     7
100
AcDbLine
 10
-146.9823462272826
 20
185.7518355394389
 30
0.0
 11
-155.7603871695804
 21
188.6687683832216
 31
0.0
  0
ARC
  5
F2
330
1F
100
AcDbEntity
  8
0
  6
CONTINUOUS
 62
     7
100
AcDbCircle
 10
-235.000000000053
 20
215.0000000000724
 30
0.0
 40
83.49999999991725
100
AcDbArc
 50
341.6184124894919
 51
341.8519697860666
  0
LINE
  5
F3
330
1F
100
AcDbEntity
  8
0
  6
CONTINUOUS
 62
     7
100
AcDbLine
 10
-147.7880283629406
 20
207.906199668162
 30
0.0
 11
-151.7707366498492
 21
208.281389863626
 31
0.0
  0
LINE
  5
F4
330
1F
100
AcDbEntity
  8
0
  6
CONTINUOUS
 62
     7
100
AcDbLine
 10
-147.9975398212821
 20
205.6821717754851
 30
0.0
 11
-142.7800163651833
 21
205.0986304804754
 31
0.0
  0
ARC
  5
F5
330
1F
100
AcDbEntity
  8
0
  6
CONTINUOUS
 62
     7
100
AcDbCircle
 10
-235.000000000053
 20
215.0000000000724
 30
0.0
 40
83.49999999991653
100
AcDbArc
 50
88.61841248948778
 51
88.85196978606245
  0
ARC
  5
F6
330
1F
100
AcDbEntity
  8
0
  6
CONTINUOUS
 62
     7
100
AcDbCircle
 10
235.000000000053
 20
215.0000000000724
 30
0.0
 40
83.49999999991647
210
0.0
220
0.0
230
-1.0
100
AcDbArc
 50
265.1480302139363
 51
265.3815875105109
  0
ARC
  5
F7
330
1F
100
AcDbEntity
  8
0
  6
CONTINUOUS
 62
     7
100
AcDbCircle
 10
235.0000000000531
 20
215.0000000000724
 30
0.0
 40
83.49999999991647
210
0.0
220
0.0
230
-1.0
100
AcDbArc
 50
89.38158751051179
 51
91.14803021393674
  0
LINE
  5
F8
330
1F
100
AcDbEntity
  8
0
  6
CONTINUOUS
 62
     7
100
AcDbLine
 10
-151.8360377391729
 20
187.7969600770656
 30
0.0
 11
-146.8538547461247
 21
186.141386435784
 31
0.0
  0
LINE
  5
F9
330
1F
100
AcDbEntity
  8
0
  6
CONTINUOUS
 62
     7
100
AcDbLine
 10
-142.3301141475
 20
211.1458131787087
 30
0.0
 11
-151.572124326865
 21
211.5301929964729
 31
0.0
  0
ARC
  5
FA
330
1F
100
AcDbEntity
  8
0
  6
CONTINUOUS
 62
     7
100
AcDbCircle
 10
-235.000000000053
 20
215.0000000000724
 30
0.0
 40
83.49999999991647
100
AcDbArc
 50
84.61841248948699
 51
84.85196978606163
  0
LINE
  5
FB
330
1F
100
AcDbEntity
  8
0
  6
CONTINUOUS
 62
     7
100
AcDbLine
 10
-227.2019932219218
 20
302.1518278080589
 30
0.0
 11
-226.7564123520832
 21
306.8818043487634
 31
0.0
  0
LINE
  5
FC
330
1F
100
AcDbEntity
  8
0
  6
CONTINUOUS
 62
     7
100
AcDbLine
 10
-226.3481493515556
 20
306.8420277242344
 30
0.0
 11
-227.1686705956872
 21
298.1319450016563
 31
0.0
  0
LINE
  5
FD
330
1F
100
AcDbEntity
  8
0
  6
CONTINUOUS
 62
     7
100
AcDbLine
 10
-148.4953108391892
 20
201.8398801995585
 30
0.0
 11
-152.442145503862
 21
202.4919761366095
 31
0.0
  0
ARC
  5
FE
330
1F
100
AcDbEntity
  8
0
  6
CONTINUOUS
 62
     7
100
AcDbCircle
 10
-235.000000000053
 20
215.0000000000724
 30
0.0
 40
83.4999999999183
100
AcDbArc
 50
5.618412489487138
 51
5.851969786061869
  0
LINE
  5
FF
330
1F
100
AcDbEntity
  8
0
  6
CONTINUOUS
 62
     7
100
AcDbLine
 10
-151.7293955271809
 20
241.8748289428631
 30
0.0
 11
-146.7256030462899
 21
243.463895419164
 31
0.0
  0
LINE
  5
100
330
1F
100
AcDbEntity
  8
0
  6
CONTINUOUS
 62
     7
100
AcDbLine
 10
-147.5594946016488
 20
211.7738543658636
 30
0.0
 11
-142.3139749874331
 21
211.5556905860952
 31
0.0
  0
LINE
  5
101
330
1F
100
AcDbEntity
  8
0
  6
CONTINUOUS
 62
     7
100
AcDbLine
 10
-147.5474507348274
 20
217.8812544134811
 30
0.0
 11
-142.2994906067778
 21
218.0295310209586
 31
0.0
  0
LINE
  5
102
330
1F
100
AcDbEntity
  8
0
  6
CONTINUOUS
 62
     7
100
AcDbLine
 10
-148.7995260440202
 20
230.0242567116987
 30
0.0
 11
-143.623274818446
 21
230.9014651861605
 31
0.0
  0
LINE
  5
103
330
1F
100
AcDbEntity
  8
0
  6
CONTINUOUS
 62
     7
100
AcDbLine
 10
-225.3226385469196
 20
128.0367970042647
 30
0.0
 11
-224.7750649855791
 21
123.3175403274033
 31
0.0
  0
LINE
  5
104
330
1F
100
AcDbEntity
  8
0
  6
CONTINUOUS
 62
     7
100
AcDbLine
 10
-151.5586733816901
 20
211.8703015879544
 30
0.0
 11
-147.5594946016488
 21
211.7738543658636
 31
0.0
  0
ARC
  5
105
330
1F
100
AcDbEntity
  8
0
  6
CONTINUOUS
 62
     7
100
AcDbCircle
 10
-235.000000000053
 20
215.0000000000724
 30
0.0
 40
83.49999999991797
100
AcDbArc
 50
353.6184124894896
 51
353.8519697860643
  0
LINE
  5
106
330
1F
100
AcDbEntity
  8
0
  6
CONTINUOUS
 62
     7
100
AcDbLine
 10
-142.695571974735
 20
224.080477239629
 30
0.0
 11
-151.9011348775295
 21
223.1748770836626
 31
0.0
  0
ARC
  5
107
330
1F
100
AcDbEntity
  8
0
  6
CONTINUOUS
 62
     7
100
AcDbCircle
 10
235.0000000000531
 20
215.0000000000724
 30
0.0
 40
83.49999999991647
210
0.0
220
0.0
230
-1.0
100
AcDbArc
 50
93.6151448070856
 51
95.14803021393587
  0
LINE
  5
108
330
1F
100
AcDbEntity
  8
0
  6
CONTINUOUS
 62
     7
100
AcDbLine
 10
-151.1687032092776
 20
189.9288277427031
 30
0.0
 11
-154.9863733366227
 21
191.1238707461802
 31
0.0
  0
ARC
  5
109
330
1F
100
AcDbEntity
  8
0
  6
CONTINUOUS
 62
     7
100
AcDbCircle
 10
-235.000000000053
 20
215.0000000000724
 30
0.0
 40
83.49999999991797
100
AcDbArc
 50
17.61841248948488
 51
17.85196978605955
  0
LINE
  5
10A
330
1F
100
AcDbEntity
  8
0
  6
CONTINUOUS
 62
     7
100
AcDbLine
 10
-155.6537106583629
 20
188.9919941617116
 30
0.0
 11
-151.8360377391729
 21
187.7969600770656
 31
0.0
  0
LINE
  5
10B
330
1F
100
AcDbEntity
  8
0
  6
CONTINUOUS
 62
     7
100
AcDbLine
 10
-146.6005825662901
 20
243.0732167261769
 30
0.0
 11
-155.4166969734308
 21
240.2734619583444
 31
0.0
  0
LINE
  5
10C
330
1F
100
AcDbEntity
  8
0
  6
CONTINUOUS
 62
     7
100
AcDbLine
 10
-227.5076091120867
 20
298.1631774211401
 30
0.0
 11
-227.2019932219218
 21
302.1518278080588
 31
0.0
  0
LINE
  5
10D
330
1F
100
AcDbEntity
  8
0
  6
CONTINUOUS
 62
     7
100
AcDbLine
 10
-227.1632411425131
 20
123.0826027442232
 30
0.0
 11
-227.5457814540027
 21
127.8180946191255
 31
0.0
  0
ARC
  5
10E
330
1F
100
AcDbEntity
  8
0
  6
CONTINUOUS
 62
     7
100
AcDbCircle
 10
235.0000000000531
 20
215.0000000000724
 30
0.0
 40
83.49999999991647
210
0.0
220
0.0
230
-1.0
100
AcDbArc
 50
160.6151448070829
 51
162.1480302139337
  0
LINE
  5
10F
330
1F
100
AcDbEntity
  8
0
  6
CONTINUOUS
 62
     7
100
AcDbLine
 10
-142.8247078136739
 20
204.6908773247487
 30
0.0
 11
-152.0173919400783
 21
205.7190108530154
 31
0.0
  0
ARC
  5
110
330
1F
100
AcDbEntity
  8
0
  6
CONTINUOUS
 62
     7
100
AcDbCircle
 10
235.0000000000531
 20
215.0000000000724
 30
0.0
 40
83.49999999991653
210
0.0
220
0.0
230
-1.0
100
AcDbArc
 50
188.6151448070883
 51
190.1480302139393
  0
LINE
  5
111
330
1F
100
AcDbEntity
  8
0
  6
CONTINUOUS
 62
     7
100
AcDbLine
 10
-152.7313656776426
 20
229.2871203085434
 30
0.0
 11
-148.7995260440202
 21
230.0242567116987
 31
0.0
  0
LINE
  5
112
330
1F
100
AcDbEntity
  8
0
  6
CONTINUOUS
 62
     7
100
AcDbLine
 10
-155.5203812087122
 20
240.5976599862221
 30
0.0
 11
-151.7293955271809
 21
241.8748289428631
 31
0.0
  0
LINE
  5
113
330
1F
100
AcDbEntity
  8
0
  6
CONTINUOUS
 62
     7
100
AcDbLine
 10
-149.2111558718568
 20
232.2198787200181
 30
0.0
 11
-153.1429972275641
 21
231.4827515024151
 31
0.0
  0
LINE
  5
114
330
1F
100
AcDbEntity
  8
0
  6
CONTINUOUS
 62
     7
100
AcDbLine
 10
-148.2189351666162
 20
226.1936047079558
 30
0.0
 11
-152.1926181497955
 21
225.7325444835024
 31
0.0
  0
ARC
  5
115
330
1F
100
AcDbEntity
  8
0
  6
CONTINUOUS
 62
     7
100
AcDbCircle
 10
-235.000000000053
 20
215.0000000000724
 30
0.0
 40
83.4999999999183
100
AcDbArc
 50
9.618412489486346
 51
9.851969786061057
  0
LINE
  5
116
330
1F
100
AcDbEntity
  8
0
  6
CONTINUOUS
 62
     7
100
AcDbLine
 10
-233.327030201973
 20
298.4832388689663
 30
0.0
 11
-233.3003929627459
 21
302.4834917908293
 31
0.0
  0
ARC
  5
117
330
1F
100
AcDbEntity
  8
0
  6
CONTINUOUS
 62
     7
100
AcDbCircle
 10
-235.000000000053
 20
215.0000000000724
 30
0.0
 40
83.49999999991809
100
AcDbArc
 50
357.6184124894888
 51
357.8519697860635
  0
ARC
  5
118
330
1F
100
AcDbEntity
  8
0
  6
CONTINUOUS
 62
     7
100
AcDbCircle
 10
235.0000000000531
 20
215.0000000000724
 30
0.0
 40
83.49999999991653
210
0.0
220
0.0
230
-1.0
100
AcDbArc
 50
192.6151448070891
 51
194.14803021394
  0
LINE
  5
119
330
1F
100
AcDbEntity
  8
0
  6
CONTINUOUS
 62
     7
100
AcDbLine
 10
-232.7758008204412
 20
307.2218277532623
 30
0.0
 11
-232.9867386593149
 21
298.4757256858068
 31
0.0
  0
LINE
  5
11A
330
1F
100
AcDbEntity
  8
0
  6
CONTINUOUS
 62
     7
100
AcDbLine
 10
-235.9443983950937
 20
302.4949033468171
 30
0.0
 11
-235.9012258970348
 21
298.4951363366826
 31
0.0
  0
LINE
  5
11B
330
1F
100
AcDbEntity
  8
0
  6
CONTINUOUS
 62
     7
100
AcDbLine
 10
-152.4425909252631
 20
243.9917955091404
 30
0.0
 11
-156.2335795905018
 21
242.7146354089908
 31
0.0
  0
LINE
  5
11C
330
1F
100
AcDbEntity
  8
0
  6
CONTINUOUS
 62
     7
100
AcDbLine
 10
-147.9614668973268
 20
223.9746172792194
 30
0.0
 11
-142.736633789664
 21
224.488611885216
 31
0.0
  0
ARC
  5
11D
330
1F
100
AcDbEntity
  8
0
  6
CONTINUOUS
 62
     7
100
AcDbCircle
 10
235.0000000000531
 20
215.0000000000724
 30
0.0
 40
83.49999999991647
210
0.0
220
0.0
230
-1.0
100
AcDbArc
 50
196.6151448070898
 51
198.1480302139407
  0
LINE
  5
11E
330
1F
100
AcDbEntity
  8
0
  6
CONTINUOUS
 62
     7
100
AcDbLine
 10
-145.1565039918597
 20
191.9628837524784
 30
0.0
 11
-154.1166370169355
 21
194.2603859119419
 31
0.0
  0
LINE
  5
11F
330
1F
100
AcDbEntity
  8
0
  6
CONTINUOUS
 62
     7
100
AcDbLine
 10
-229.4293388635021
 20
302.3224927180797
 30
0.0
 11
-229.7349640719376
 21
298.3338430451506
 31
0.0
  0
LINE
  5
120
330
1F
100
AcDbEntity
  8
0
  6
CONTINUOUS
 62
     7
100
AcDbLine
 10
-152.237055556728
 20
226.0700057387466
 30
0.0
 11
-143.0687054237847
 21
227.2963237397377
 31
0.0
  0
LINE
  5
121
330
1F
100
AcDbEntity
  8
0
  6
CONTINUOUS
 62
     7
100
AcDbLine
 10
-151.6664573650839
 20
220.2697886000952
 30
0.0
 11
-142.4348972528269
 21
220.8535675767445
 31
0.0
  0
ARC
  5
122
330
1F
100
AcDbEntity
  8
0
  6
CONTINUOUS
 62
     7
100
AcDbCircle
 10
222.6232712903779
 20
319.1396494445809
 30
0.0
 40
1.499999999998447
210
0.0
220
0.0
230
-1.0
100
AcDbArc
 50
89.38158751051179
 51
179.3815875105118
  0
ARC
  5
123
330
1F
100
AcDbEntity
  8
0
  6
CONTINUOUS
 62
     7
100
AcDbCircle
 10
-235.000000000053
 20
215.0000000000724
 30
0.0
 40
92.74999999990729
100
AcDbArc
 50
272.6742376167267
 51
274.5625873622484
  0
ARC
  5
124
330
1F
100
AcDbEntity
  8
0
  6
CONTINUOUS
 62
     7
100
AcDbCircle
 10
-235.000000000053
 20
215.0000000000724
 30
0.0
 40
83.49999999991725
100
AcDbArc
 50
19.3848551929098
 51
19.61841248948453
  0
LINE
  5
125
330
1F
100
AcDbEntity
  8
0
  6
CONTINUOUS
 62
     7
100
AcDbLine
 10
-179.6614660601814
 20
284.3845023141237
 30
0.0
 11
-181.4193844801915
 21
282.2429746553983
 31
0.0
  0
ARC
  5
126
330
1F
100
AcDbEntity
  8
0
  6
CONTINUOUS
 62
     7
100
AcDbCircle
 10
-235.000000000053
 20
215.0000000000724
 30
0.0
 40
83.49999999991647
100
AcDbArc
 50
86.38485519291275
 51
86.6184124894874
  0
LINE
  5
127
330
1F
100
AcDbEntity
  8
0
  6
CONTINUOUS
 62
     7
100
AcDbLine
 10
-192.2893687106977
 20
140.3789441589144
 30
0.0
 11
-190.8782344825514
 21
137.9945955949137
 31
0.0
  0
LINE
  5
128
330
1F
100
AcDbEntity
  8
0
  6
CONTINUOUS
 62
     7
100
AcDbLine
 10
-176.2790397557141
 20
148.4536903505841
 30
0.0
 11
-178.082773467195
 21
150.5567744151345
 31
0.0
  0
LINE
  5
129
330
1F
100
AcDbEntity
  8
0
  6
CONTINUOUS
 62
     7
100
AcDbLine
 10
-144.4960908237411
 20
194.711951208105
 30
0.0
 11
-149.6240354656086
 21
195.8376755117724
 31
0.0
  0
LINE
  5
12A
330
1F
100
AcDbEntity
  8
0
  6
CONTINUOUS
 62
     7
100
AcDbLine
 10
-143.0152230391692
 20
226.8896302481382
 30
0.0
 11
-148.2189351666162
 21
226.1936047079558
 31
0.0
  0
ARC
  5
12B
330
1F
100
AcDbEntity
  8
0
  6
CONTINUOUS
 62
     7
100
AcDbCircle
 10
-235.000000000053
 20
215.0000000000724
 30
0.0
 40
83.49999999991809
100
AcDbArc
 50
3.38485519291298
 51
3.618412489487688
  0
LINE
  5
12C
330
1F
100
AcDbEntity
  8
0
  6
CONTINUOUS
 62
     7
100
AcDbLine
 10
-201.805239927954
 20
132.452390078649
 30
0.0
 11
-202.8622889024718
 21
135.2618816037045
 31
0.0
  0
ARC
  5
12D
330
1F
100
AcDbEntity
  8
0
  6
CONTINUOUS
 62
     7
100
AcDbCircle
 10
-235.000000000053
 20
215.0000000000724
 30
0.0
 40
83.49999999991786
100
AcDbArc
 50
7.384855192912089
 51
7.618412489486794
  0
LINE
  5
12E
330
1F
100
AcDbEntity
  8
0
  6
CONTINUOUS
 62
     7
100
AcDbLine
 10
-230.0747042704196
 20
298.3546127216351
 30
0.0
 11
-229.5586603689152
 21
307.0880252756108
 31
0.0
  0
LINE
  5
12F
330
1F
100
AcDbEntity
  8
0
  6
CONTINUOUS
 62
     7
100
AcDbLine
 10
-168.4536903505788
 20
273.7209602444236
 30
0.0
 11
-170.5567744151287
 21
271.9172265329421
 31
0.0
  0
LINE
  5
130
330
1F
100
AcDbEntity
  8
0
  6
CONTINUOUS
 62
     7
100
AcDbLine
 10
-151.501851816499
 20
214.4438975811018
 30
0.0
 11
-142.2520569578418
 21
214.3822934209164
 31
0.0
  0
LINE
  5
131
330
1F
100
AcDbEntity
  8
0
  6
CONTINUOUS
 62
     7
100
AcDbLine
 10
-147.4973042398032
 20
245.7545238082659
 30
0.0
 11
-152.4425909252631
 21
243.9917955091404
 31
0.0
  0
LINE
  5
132
330
1F
100
AcDbEntity
  8
0
  6
CONTINUOUS
 62
     7
100
AcDbLine
 10
-144.0686720129337
 20
233.277201385357
 30
0.0
 11
-149.2111558718568
 21
232.219878720018
 31
0.0
  0
LINE
  5
133
330
1F
100
AcDbEntity
  8
0
  6
CONTINUOUS
 62
     7
100
AcDbLine
 10
-142.2556958544831
 20
213.9721145331069
 30
0.0
 11
-147.5056338459915
 21
214.007079418916
 31
0.0
  0
LINE
  5
134
330
1F
100
AcDbEntity
  8
0
  6
CONTINUOUS
 62
     7
100
AcDbLine
 10
-153.2108664943979
 20
231.8162909221924
 30
0.0
 11
-144.1503936210171
 21
233.6791734494928
 31
0.0
  0
LINE
  5
135
330
1F
100
AcDbEntity
  8
0
  6
CONTINUOUS
 62
     7
100
AcDbLine
 10
-154.5831458690924
 20
237.4806488266332
 30
0.0
 11
-145.6746919683573
 21
239.971020103827
 31
0.0
  0
ARC
  5
136
330
1F
100
AcDbEntity
  8
0
  6
CONTINUOUS
 62
     7
100
AcDbCircle
 10
-171.2077925971243
 20
272.6762886692058
 30
0.0
 40
0.9999999999989462
100
AcDbArc
 50
222.1176010402689
 51
310.6184124894836
  0
LINE
  5
137
330
1F
100
AcDbEntity
  8
0
  6
CONTINUOUS
 62
     7
100
AcDbLine
 10
-191.7315856290843
 20
289.2990196289112
 30
0.0
 11
-190.3722463152563
 21
291.7132720006362
 31
0.0
  0
LINE
  5
138
330
1F
100
AcDbEntity
  8
0
  6
CONTINUOUS
 62
     7
100
AcDbLine
 10
-179.4870407059935
 20
280.6567692657012
 30
0.0
 11
-177.7291222859834
 21
282.798296924427
 31
0.0
  0
ARC
  5
139
330
1F
100
AcDbEntity
  8
0
  6
CONTINUOUS
 62
     7
100
AcDbCircle
 10
177.3237113309316
 20
151.2077925971301
 30
0.0
 40
0.9999999999990017
210
0.0
220
0.0
230
-1.0
100
AcDbArc
 50
319.3815875105066
 51
47.88239895974255
  0
ARC
  5
13A
330
1F
100
AcDbEntity
  8
0
  6
CONTINUOUS
 62
     7
100
AcDbCircle
 10
-235.000000000053
 20
215.0000000000724
 30
0.0
 40
83.4999999999183
100
AcDbArc
 50
355.3848551929145
 51
355.6184124894892
  0
LINE
  5
13B
330
1F
100
AcDbEntity
  8
0
  6
CONTINUOUS
 62
     7
100
AcDbLine
 10
-145.5651292762662
 20
239.5757278346448
 30
0.0
 11
-150.6213312022255
 21
238.162259213893
 31
0.0
  0
ARC
  5
13C
330
1F
100
AcDbEntity
  8
0
  6
CONTINUOUS
 62
     7
100
AcDbCircle
 10
190.8602141068277
 20
288.8083958726601
 30
0.0
 40
0.9999999999989462
210
0.0
220
0.0
230
-1.0
100
AcDbArc
 50
300.8807760612806
 51
29.38158751051657
  0
LINE
  5
13D
330
1F
100
AcDbEntity
  8
0
  6
CONTINUOUS
 62
     7
100
AcDbLine
 10
-146.1317765406601
 20
188.4481383110889
 30
0.0
 11
-151.1687032092776
 21
189.9288277427031
 31
0.0
  0
LINE
  5
13E
330
1F
100
AcDbEntity
  8
0
  6
CONTINUOUS
 62
     7
100
AcDbLine
 10
-156.3472080736391
 20
243.0354832697377
 30
0.0
 11
-147.6341742374796
 21
246.1412104582935
 31
0.0
  0
LINE
  5
13F
330
1F
100
AcDbEntity
  8
0
  6
CONTINUOUS
 62
     7
100
AcDbLine
 10
-192.5506751208977
 20
292.9398313912642
 30
0.0
 11
-193.9100144347257
 21
290.5255790195391
 31
0.0
  0
ARC
  5
140
330
1F
100
AcDbEntity
  8
0
  6
CONTINUOUS
 62
     7
100
AcDbCircle
 10
-235.0000000000529
 20
215.0000000000727
 30
0.0
 40
92.74999999990722
100
AcDbArc
 50
351.3650166611753
 51
353.8718083177977
  0
LINE
  5
141
330
1F
100
AcDbEntity
  8
0
  6
CONTINUOUS
 62
     7
100
AcDbLine
 10
-152.3918445529269
 20
202.8286133244852
 30
0.0
 11
-143.2406417039937
 21
201.480286058028
 31
0.0
  0
LINE
  5
142
330
1F
100
AcDbEntity
  8
0
  6
CONTINUOUS
 62
     7
100
AcDbLine
 10
-158.4732526644404
 20
169.616556518853
 30
0.0
 11
-155.1803306903834
 21
167.7624842813649
 31
0.0
  0
ARC
  5
143
330
1F
100
AcDbEntity
  8
0
  6
CONTINUOUS
 62
     7
100
AcDbCircle
 10
194.7813859569822
 20
291.0162027757901
 30
0.0
 40
0.9999999999989462
210
0.0
220
0.0
230
-1.0
100
AcDbArc
 50
209.3815875105165
 51
297.8823989597316
  0
ARC
  5
144
330
1F
100
AcDbEntity
  8
0
  6
CONTINUOUS
 62
     7
100
AcDbCircle
 10
-235.000000000053
 20
215.0000000000724
 30
0.0
 40
83.49999999991819
100
AcDbArc
 50
359.3848551929137
 51
359.6184124894884
  0
LINE
  5
145
330
1F
100
AcDbEntity
  8
0
  6
CONTINUOUS
 62
     7
100
AcDbLine
 10
-165.615497686016
 20
159.6614660601891
 30
0.0
 11
-167.7570253447412
 21
161.4193844801997
 31
0.0
  0
LINE
  5
146
330
1F
100
AcDbEntity
  8
0
  6
CONTINUOUS
 62
     7
100
AcDbLine
 10
-143.301331054908
 20
201.0746054394879
 30
0.0
 11
-148.4953108391892
 21
201.8398801995585
 31
0.0
  0
ARC
  5
147
330
1F
100
AcDbEntity
  8
0
  6
CONTINUOUS
 62
     7
100
AcDbCircle
 10
167.1225431888626
 20
162.1923219898791
 30
0.0
 40
0.9999999999989462
210
0.0
220
0.0
230
-1.0
100
AcDbArc
 50
309.3815875105059
 51
37.88239895974267
  0
LINE
  5
148
330
1F
100
AcDbEntity
  8
0
  6
CONTINUOUS
 62
     7
100
AcDbLine
 10
-154.8897110697492
 20
191.4502312647618
 30
0.0
 11
-146.0152179846555
 21
188.8414245485748
 31
0.0
  0
LINE
  5
149
330
1F
100
AcDbEntity
  8
0
  6
CONTINUOUS
 62
     7
100
AcDbLine
 10
-179.9804288078536
 20
148.9292289601455
 30
0.0
 11
-178.1766950963727
 21
146.8261448955951
 31
0.0
  0
ARC
  5
14A
330
1F
100
AcDbEntity
  8
0
  6
CONTINUOUS
 62
     7
100
AcDbCircle
 10
-235.000000000053
 20
215.0000000000724
 30
0.0
 40
83.49999999991824
100
AcDbArc
 50
351.3848551929153
 51
351.61841248949
  0
LINE
  5
14B
330
1F
100
AcDbEntity
  8
0
  6
CONTINUOUS
 62
     7
100
AcDbLine
 10
-169.343230734438
 20
159.4870407060012
 30
0.0
 11
-167.2017030757127
 21
157.7291222859906
 31
0.0
  0
ARC
  5
14C
330
1F
100
AcDbEntity
  8
0
  6
CONTINUOUS
 62
     7
100
AcDbCircle
 10
-235.000000000053
 20
215.0000000000724
 30
0.0
 40
83.49999999991809
100
AcDbArc
 50
347.3848551929161
 51
347.6184124894908
  0
ARC
  5
14D
330
1F
100
AcDbEntity
  8
0
  6
CONTINUOUS
 62
     7
100
AcDbCircle
 10
180.739490944117
 20
148.2782107781499
 30
0.0
 40
0.9999999999990017
210
0.0
220
0.0
230
-1.0
100
AcDbArc
 50
50.88077606129225
 51
139.3815875105064
  0
LINE
  5
14E
330
1F
100
AcDbEntity
  8
0
  6
CONTINUOUS
 62
     7
100
AcDbLine
 10
-153.4421068827898
 20
197.0958085841961
 30
0.0
 11
-144.4072504596201
 21
195.1124101339342
 31
0.0
  0
ARC
  5
14F
330
1F
100
AcDbEntity
  8
0
  6
CONTINUOUS
 62
     7
100
AcDbCircle
 10
169.9777128903167
 20
158.7141031963218
 30
0.0
 40
0.9999999999990572
210
0.0
220
0.0
230
-1.0
100
AcDbArc
 50
40.88077606129291
 51
129.3815875105082
  0
LINE
  5
150
330
1F
100
AcDbEntity
  8
0
  6
CONTINUOUS
 62
     7
100
AcDbLine
 10
-142.4099146524807
 20
220.444134027492
 30
0.0
 11
-147.6495030860418
 21
220.1127965789337
 31
0.0
  0
ARC
  5
151
330
1F
100
AcDbEntity
  8
0
  6
CONTINUOUS
 62
     7
100
AcDbCircle
 10
201.9263424823933
 20
135.6140240446854
 30
0.0
 40
0.9999999999990017
210
0.0
220
0.0
230
-1.0
100
AcDbArc
 50
339.3815875105075
 51
67.38249194639286
  0
LINE
  5
152
330
1F
100
AcDbEntity
  8
0
  6
CONTINUOUS
 62
     7
100
AcDbLine
 10
-168.9292289601399
 20
270.0195711922833
 30
0.0
 11
-166.8261448955901
 21
271.8233049037644
 31
0.0
  0
ARC
  5
153
330
1F
100
AcDbEntity
  8
0
  6
CONTINUOUS
 62
     7
100
AcDbCircle
 10
-235.000000000053
 20
215.0000000000724
 30
0.0
 40
83.49999999991792
100
AcDbArc
 50
343.3848551929168
 51
343.6184124894915
  0
LINE
  5
154
330
1F
100
AcDbEntity
  8
0
  6
CONTINUOUS
 62
     7
100
AcDbLine
 10
-227.6075584446195
 20
122.8219450822209
 30
0.0
 11
-227.5722088490639
 21
123.0508809463977
 31
0.0
  0
LINE
  5
155
330
1F
100
AcDbEntity
  8
0
  6
CONTINUOUS
 62
     7
100
AcDbLine
 10
-235.9443983950937
 20
302.4949033468171
 30
0.0
 11
-236.106295262815
 21
317.4940296348303
 31
0.0
  0
LINE
  5
156
330
1F
100
AcDbEntity
  8
0
  6
CONTINUOUS
 62
     7
100
AcDbLine
 10
-142.5533179836576
 20
207.505102793394
 30
0.0
 11
-147.7880283629406
 21
207.906199668162
 31
0.0
  0
LINE
  5
157
330
1F
100
AcDbEntity
  8
0
  6
CONTINUOUS
 62
     7
100
AcDbLine
 10
-229.1491032301754
 20
307.065138432973
 30
0.0
 11
-229.4293388635021
 21
302.3224927180797
 31
0.0
  0
ARC
  5
158
330
1F
100
AcDbEntity
  8
0
  6
CONTINUOUS
 62
     7
100
AcDbCircle
 10
182.1923219898707
 20
282.877456811277
 30
0.0
 40
0.9999999999990572
210
0.0
220
0.0
230
-1.0
100
AcDbArc
 50
219.3815875105172
 51
307.8823989597315
  0
ARC
  5
159
330
1F
100
AcDbEntity
  8
0
  6
CONTINUOUS
 62
     7
100
AcDbCircle
 10
193.1499471084396
 20
139.8696261626313
 30
0.0
 40
0.9999999999990572
210
0.0
220
0.0
230
-1.0
100
AcDbArc
 50
60.88077606129167
 51
149.3815875105072
  0
ARC
  5
15A
330
1F
100
AcDbEntity
  8
0
  6
CONTINUOUS
 62
     7
100
AcDbCircle
 10
-235.000000000053
 20
215.0000000000724
 30
0.0
 40
83.49999999991742
100
AcDbArc
 50
15.38485519291053
 51
15.61841248948521
  0
ARC
  5
15B
330
1F
100
AcDbEntity
  8
0
  6
CONTINUOUS
 62
     7
100
AcDbCircle
 10
178.7141031963143
 20
280.0222871098224
 30
0.0
 40
0.9999999999990017
210
0.0
220
0.0
230
-1.0
100
AcDbArc
 50
310.8807760612804
 51
39.38158751051724
  0
LINE
  5
15C
330
1F
100
AcDbEntity
  8
0
  6
CONTINUOUS
 62
     7
100
AcDbLine
 10
-188.7267884881969
 20
139.2678905856216
 30
0.0
 11
-190.1379227163433
 21
141.6522391496223
 31
0.0
  0
ARC
  5
15D
330
1F
100
AcDbEntity
  8
0
  6
CONTINUOUS
 62
     7
100
AcDbCircle
 10
-235.000000000053
 20
215.0000000000724
 30
0.0
 40
83.49999999991763
100
AcDbArc
 50
11.38485519291129
 51
11.61841248948596
  0
LINE
  5
15E
330
1F
100
AcDbEntity
  8
0
  6
CONTINUOUS
 62
     7
100
AcDbLine
 10
-151.7440408526598
 20
208.6207158371947
 30
0.0
 11
-142.5210753183678
 21
207.9140286694506
 31
0.0
  0
ARC
  5
15F
330
1F
100
AcDbEntity
  8
0
  6
CONTINUOUS
 62
     7
100
AcDbCircle
 10
-168.2782107781444
 20
269.2605090560197
 30
0.0
 40
0.9999999999989462
100
AcDbArc
 50
130.618412489482
 51
219.1192239387189
  0
LINE
  5
160
330
1F
100
AcDbEntity
  8
0
  6
CONTINUOUS
 62
     7
100
AcDbLine
 10
-224.36775568153
 20
123.366120038124
 30
0.0
 11
-224.2731323784228
 21
123.1265087096025
 31
0.0
  0
LINE
  5
161
330
1F
100
AcDbEntity
  8
0
  6
CONTINUOUS
 62
     7
100
AcDbLine
 10
-229.6193022308471
 20
307.5937934826774
 30
0.0
 11
-229.1491032301754
 21
307.0651384329729
 31
0.0
  0
ARC
  5
162
330
1F
100
AcDbEntity
  8
0
  6
CONTINUOUS
 62
     7
100
AcDbCircle
 10
-235.0000000000529
 20
215.0000000000727
 30
0.0
 40
92.74999999990722
100
AcDbArc
 50
19.36501666118085
 51
32.47196854423853
  0
LINE
  5
163
330
1F
100
AcDbEntity
  8
0
  6
CONTINUOUS
 62
     7
100
AcDbLine
 10
-226.2608476286547
 20
307.0805906633181
 30
0.0
 11
-226.3481493515556
 21
306.8420277242344
 31
0.0
  0
LINE
  5
164
330
1F
100
AcDbEntity
  8
0
  6
CONTINUOUS
 62
     7
100
AcDbLine
 10
-181.4193844801915
 20
282.2429746553982
 30
0.0
 11
-184.3966019596377
 21
278.6160750759291
 31
0.0
  0
LINE
  5
165
330
1F
100
AcDbEntity
  8
0
  6
CONTINUOUS
 62
     7
100
AcDbLine
 10
-224.2731323784228
 20
123.1265087096025
 30
0.0
 11
-223.8106925141956
 21
122.9274096272061
 31
0.0
  0
LINE
  5
166
330
1F
100
AcDbEntity
  8
0
  6
CONTINUOUS
 62
     7
100
AcDbLine
 10
-221.123358661577
 20
319.1558391313521
 30
0.0
 11
-221.1071689748048
 21
317.6559265025515
 31
0.0
  0
LINE
  5
167
330
1F
100
AcDbEntity
  8
0
  6
CONTINUOUS
 62
     7
100
AcDbLine
 10
-232.2611051216828
 20
307.7095515836498
 30
0.0
 11
-232.7167145596002
 21
307.4458144439193
 31
0.0
  0
ARC
  5
168
330
1F
100
AcDbEntity
  8
0
  6
CONTINUOUS
 62
     7
100
AcDbCircle
 10
189.2773443186014
 20
142.1615571459054
 30
0.0
 40
0.9999999999990572
210
0.0
220
0.0
230
-1.0
100
AcDbArc
 50
329.3815875105067
 51
57.88239895974351
  0
LINE
  5
169
330
1F
100
AcDbEntity
  8
0
  6
CONTINUOUS
 62
     7
100
AcDbLine
 10
-230.7857116359518
 20
122.8476676925622
 30
0.0
 11
-230.7700997832594
 21
122.7445332135117
 31
0.0
  0
LINE
  5
16A
330
1F
100
AcDbEntity
  8
0
  6
CONTINUOUS
 62
     7
100
AcDbLine
 10
-233.1858439898834
 20
307.2330284966562
 30
0.0
 11
-232.6733707309091
 21
307.7208137164478
 31
0.0
  0
ARC
  5
16B
330
1F
100
AcDbEntity
  8
0
  6
CONTINUOUS
 62
     7
100
AcDbCircle
 10
235.0000000000531
 20
215.0000000000724
 30
0.0
 40
96.49999999990355
210
0.0
220
0.0
230
-1.0
100
AcDbArc
 50
98.82669208061539
 51
179.3815875105118
  0
LINE
  5
16C
330
1F
100
AcDbEntity
  8
0
  6
CONTINUOUS
 62
     7
100
AcDbLine
 10
-224.2202093782635
 20
122.8785659353929
 30
0.0
 11
-224.7750649855791
 21
123.3175403274033
 31
0.0
  0
LINE
  5
16D
330
1F
100
AcDbEntity
  8
0
  6
CONTINUOUS
 62
     7
100
AcDbLine
 10
-232.7167145596002
 20
307.4458144439193
 30
0.0
 11
-232.7758008204412
 21
307.2218277532624
 31
0.0
  0
LINE
  5
16E
330
1F
100
AcDbEntity
  8
0
  6
CONTINUOUS
 62
     7
100
AcDbLine
 10
-203.594763218973
 20
298.2448863457698
 30
0.0
 11
-202.3406684048447
 21
301.8097377011885
 31
0.0
  0
ARC
  5
16F
330
1F
100
AcDbEntity
  8
0
  6
CONTINUOUS
 62
     7
100
AcDbCircle
 10
220.3783013913097
 20
111.1517649174626
 30
0.0
 40
1.499999999998503
210
0.0
220
0.0
230
-1.0
100
AcDbArc
 50
179.3815875105118
 51
269.3815875105118
  0
ARC
  5
170
330
1F
100
AcDbEntity
  8
0
  6
CONTINUOUS
 62
     7
100
AcDbCircle
 10
217.9628684555746
 20
119.0000721421985
 30
0.0
 40
0.9999999999989739
210
0.0
220
0.0
230
-1.0
100
AcDbArc
 50
359.3815875105129
 51
79.93648294040838
  0
ARC
  5
171
330
1F
100
AcDbEntity
  8
0
  6
CONTINUOUS
 62
     7
100
AcDbCircle
 10
-235.0000000000529
 20
215.0000000000727
 30
0.0
 40
92.74999999990722
100
AcDbArc
 50
7.365016661178555
 51
9.871808317801078
  0
ARC
  5
172
330
1F
100
AcDbEntity
  8
0
  6
CONTINUOUS
 62
     7
100
AcDbCircle
 10
-235.000000000053
 20
215.0000000000724
 30
0.0
 40
92.74999999990729
100
AcDbArc
 50
276.6742376167259
 51
292.471968544229
  0
ARC
  5
173
330
1F
100
AcDbEntity
  8
0
  6
CONTINUOUS
 62
     7
100
AcDbCircle
 10
-235.0000000000529
 20
215.0000000000727
 30
0.0
 40
92.74999999990722
100
AcDbArc
 50
347.3650166611745
 51
349.871808317797
  0
LINE
  5
174
330
1F
100
AcDbEntity
  8
0
  6
CONTINUOUS
 62
     7
100
AcDbLine
 10
-236.1386746363592
 20
320.4938548924329
 30
0.0
 11
-222.6394609771501
 21
320.6395620733822
 31
0.0
  0
LINE
  5
175
330
1F
100
AcDbEntity
  8
0
  6
CONTINUOUS
 62
     7
100
AcDbLine
 10
-229.5634043503703
 20
307.192226937186
 30
0.0
 11
-230.0310792316442
 21
307.6168036934632
 31
0.0
  0
ARC
  5
176
330
1F
100
AcDbEntity
  8
0
  6
CONTINUOUS
 62
     7
100
AcDbCircle
 10
-220.0389954634431
 20
311.3453078424186
 30
0.0
 40
0.9999999999990017
100
AcDbArc
 50
180.6184124894872
 51
261.1733079193844
  0
ARC
  5
177
330
1F
100
AcDbEntity
  8
0
  6
CONTINUOUS
 62
     7
100
AcDbCircle
 10
235.0000000000531
 20
215.0000000000724
 30
0.0
 40
96.49999999990355
210
0.0
220
0.0
230
-1.0
100
AcDbArc
 50
179.3815875105117
 51
259.9364829404081
  0
ARC
  5
178
330
1F
100
AcDbEntity
  8
0
  6
CONTINUOUS
 62
     7
100
AcDbCircle
 10
-235.0000000000529
 20
215.0000000000727
 30
0.0
 40
92.74999999990722
100
AcDbArc
 50
355.3650166611761
 51
357.8718083177986
  0
ARC
  5
179
330
1F
100
AcDbEntity
  8
0
  6
CONTINUOUS
 62
     7
100
AcDbCircle
 10
-235.0000000000529
 20
215.0000000000727
 30
0.0
 40
92.74999999990722
100
AcDbArc
 50
343.3650166611738
 51
345.8718083177962
  0
LINE
  5
17A
330
1F
100
AcDbEntity
  8
0
  6
CONTINUOUS
 62
     7
100
AcDbLine
 10
-200.4744900098242
 20
128.9154388993914
 30
0.0
 11
-201.8052399279539
 21
132.452390078649
 31
0.0
  0
LINE
  5
17B
330
1F
100
AcDbEntity
  8
0
  6
CONTINUOUS
 62
     7
100
AcDbLine
 10
-194.0337679826907
 20
285.2102324138292
 30
0.0
 11
-191.7315856290843
 21
289.2990196289112
 31
0.0
  0
LINE
  5
17C
330
1F
100
AcDbEntity
  8
0
  6
CONTINUOUS
 62
     7
100
AcDbLine
 10
-218.8945784492809
 20
112.6678672330361
 30
0.0
 11
-218.8783887625088
 21
111.1679546042358
 31
0.0
  0
LINE
  5
17D
330
1F
100
AcDbEntity
  8
0
  6
CONTINUOUS
 62
     7
100
AcDbLine
 10
-193.9100144347257
 20
290.5255790195391
 30
0.0
 11
-196.2121967883322
 21
286.4367918044571
 31
0.0
  0
LINE
  5
17E
330
1F
100
AcDbEntity
  8
0
  6
CONTINUOUS
 62
     7
100
AcDbLine
 10
-228.0331039684416
 20
122.5120285677426
 30
0.0
 11
-227.6075584446195
 21
122.8219450822209
 31
0.0
  0
LINE
  5
17F
330
1F
100
AcDbEntity
  8
0
  6
CONTINUOUS
 62
     7
100
AcDbLine
 10
-225.800685531082
 20
307.2926601268871
 30
0.0
 11
-226.2608476286547
 21
307.0805906633181
 31
0.0
  0
LINE
  5
180
330
1F
100
AcDbEntity
  8
0
  6
CONTINUOUS
 62
     7
100
AcDbLine
 10
-156.2185487062914
 20
263.9494170755481
 30
0.0
 11
-159.4706833514358
 21
262.0246991120782
 31
0.0
  0
ARC
  5
181
330
1F
100
AcDbEntity
  8
0
  6
CONTINUOUS
 62
     7
100
AcDbCircle
 10
-235.0000000000529
 20
215.0000000000727
 30
0.0
 40
92.74999999990722
100
AcDbArc
 50
15.36501666118013
 51
17.8718083178026
  0
LINE
  5
182
330
1F
100
AcDbEntity
  8
0
  6
CONTINUOUS
 62
     7
100
AcDbLine
 10
-234.0556016050123
 20
127.5050966533281
 30
0.0
 11
-233.893704737291
 21
112.5059703653149
 31
0.0
  0
LINE
  5
183
330
1F
100
AcDbEntity
  8
0
  6
CONTINUOUS
 62
     7
100
AcDbLine
 10
-194.6792711328239
 20
144.4170861688233
 30
0.0
 11
-192.2893687106978
 21
140.3789441589144
 31
0.0
  0
ARC
  5
184
330
1F
100
AcDbEntity
  8
0
  6
CONTINUOUS
 62
     7
100
AcDbCircle
 10
-235.000000000053
 20
215.0000000000724
 30
0.0
 40
92.74999999990729
100
AcDbArc
 50
86.67423761672802
 51
88.5625873622497
  0
LINE
  5
185
330
1F
100
AcDbEntity
  8
0
  6
CONTINUOUS
 62
     7
100
AcDbLine
 10
-227.1632411425131
 20
123.0826027442232
 30
0.0
 11
-227.6219195799242
 21
122.5439216206773
 31
0.0
  0
LINE
  5
186
330
1F
100
AcDbEntity
  8
0
  6
CONTINUOUS
 62
     7
100
AcDbLine
 10
-229.5586603689152
 20
307.0880252756109
 30
0.0
 11
-229.56340620964
 21
307.192226656165
 31
0.0
  0
ARC
  5
187
330
1F
100
AcDbEntity
  8
0
  6
CONTINUOUS
 62
     7
100
AcDbCircle
 10
-235.0000000000529
 20
215.0000000000727
 30
0.0
 40
92.74999999990722
100
AcDbArc
 50
328.7648564347379
 51
341.8718083177956
  0
LINE
  5
188
330
1F
100
AcDbEntity
  8
0
  6
CONTINUOUS
 62
     7
100
AcDbLine
 10
-221.1071689748048
 20
317.6559265025514
 30
0.0
 11
-221.0384781086146
 21
311.2919801747412
 31
0.0
  0
ARC
  5
189
330
1F
100
AcDbEntity
  8
0
  6
CONTINUOUS
 62
     7
100
AcDbCircle
 10
-235.0000000000529
 20
215.0000000000727
 30
0.0
 40
92.74999999990722
100
AcDbArc
 50
3.3650166611777
 51
5.871808317800246
  0
ARC
  5
18A
330
1F
100
AcDbEntity
  8
0
  6
CONTINUOUS
 62
     7
100
AcDbCircle
 10
-235.0000000000529
 20
215.0000000000727
 30
0.0
 40
92.74999999990722
100
AcDbArc
 50
359.3650166611768
 51
1.871808317799492
  0
LINE
  5
18B
330
1F
100
AcDbEntity
  8
0
  6
CONTINUOUS
 62
     7
100
AcDbLine
 10
-165.178845225182
 20
173.3921251781556
 30
0.0
 11
-161.088905499299
 21
171.0892939059597
 31
0.0
  0
LINE
  5
18C
330
1F
100
AcDbEntity
  8
0
  6
CONTINUOUS
 62
     7
100
AcDbLine
 10
-236.106295262815
 20
317.4940296348303
 30
0.0
 11
-236.1386746363592
 21
320.4938548924311
 31
0.0
  0
LINE
  5
18D
330
1F
100
AcDbEntity
  8
0
  6
CONTINUOUS
 62
     7
100
AcDbLine
 10
-218.963269315471
 20
119.0318135608464
 30
0.0
 11
-218.8945784492808
 21
112.6678672330361
 31
0.0
  0
ARC
  5
18E
330
1F
100
AcDbEntity
  8
0
  6
CONTINUOUS
 62
     7
100
AcDbCircle
 10
-235.000000000053
 20
215.0000000000724
 30
0.0
 40
92.74999999990729
100
AcDbArc
 50
68.76485643474744
 51
84.5625873622505
  0
LINE
  5
18F
330
1F
100
AcDbEntity
  8
0
  6
CONTINUOUS
 62
     7
100
AcDbLine
 10
-230.6725348030304
 20
122.3510089372911
 30
0.0
 11
-231.1954175043229
 21
122.8276187803491
 31
0.0
  0
LINE
  5
190
330
1F
100
AcDbEntity
  8
0
  6
CONTINUOUS
 62
     7
100
AcDbLine
 10
-220.3621117045377
 20
109.6518522886614
 30
0.0
 11
-233.8613253637468
 21
109.5061451077123
 31
0.0
  0
LINE
  5
191
330
1F
100
AcDbEntity
  8
0
  6
CONTINUOUS
 62
     7
100
AcDbLine
 10
-324.434870723611
 20
190.4242721647377
 30
0.0
 11
-319.3786687976648
 21
191.8377407855325
 31
0.0
  0
LINE
  5
192
330
1F
100
AcDbEntity
  8
0
  6
CONTINUOUS
 62
     7
100
AcDbLine
 10
-317.6081554472685
 20
227.1713866749417
 30
0.0
 11
-326.7593582962115
 21
228.5197139413194
 31
0.0
  0
LINE
  5
193
330
1F
100
AcDbEntity
  8
0
  6
CONTINUOUS
 62
     7
100
AcDbLine
 10
-326.9847769608168
 20
203.1103697512173
 30
0.0
 11
-321.7810648333769
 21
203.8063952914443
 31
0.0
  0
LINE
  5
194
330
1F
100
AcDbEntity
  8
0
  6
CONTINUOUS
 62
     7
100
AcDbLine
 10
-325.1423695011483
 20
193.1615998594038
 30
0.0
 11
-316.1524296856752
 21
195.3395535122469
 31
0.0
  0
ARC
  5
195
330
1F
100
AcDbEntity
  8
0
  6
CONTINUOUS
 62
     7
100
AcDbCircle
 10
276.8500528923071
 20
290.1303738371225
 30
0.0
 40
0.9999999999987241
210
0.0
220
0.0
230
-1.0
100
AcDbArc
 50
240.8807760607921
 51
329.3815875100175
  0
ARC
  5
196
330
1F
100
AcDbEntity
  8
0
  6
CONTINUOUS
 62
     7
100
AcDbCircle
 10
291.2858968032199
 20
149.9777128898622
 30
0.0
 40
0.9999999999987241
210
0.0
220
0.0
230
-1.0
100
AcDbArc
 50
130.8807760607911
 51
219.3815875100154
  0
ARC
  5
197
330
1F
100
AcDbEntity
  8
0
  6
CONTINUOUS
 62
     7
100
AcDbCircle
 10
235.0000000000531
 20
215.0000000000724
 30
0.0
 40
83.4999999998943
210
0.0
220
0.0
230
-1.0
100
AcDbArc
 50
356.6151448065918
 51
358.1480302134424
  0
ARC
  5
198
330
1F
100
AcDbEntity
  8
0
  6
CONTINUOUS
 62
     7
100
AcDbCircle
 10
280.7226556821248
 20
287.8384428538162
 30
0.0
 40
0.9999999999987796
210
0.0
220
0.0
230
-1.0
100
AcDbArc
 50
149.3815875100168
 51
237.8823989592436
  0
LINE
  5
199
330
1F
100
AcDbEntity
  8
0
  6
CONTINUOUS
 62
     7
100
AcDbLine
 10
-317.5574090745772
 20
186.0082044903033
 30
0.0
 11
-313.7664204093501
 21
187.285364590485
 31
0.0
  0
ARC
  5
19A
330
1F
100
AcDbEntity
  8
0
  6
CONTINUOUS
 62
     7
100
AcDbCircle
 10
-235.0000000000531
 20
215.0000000000724
 30
0.0
 40
83.4999999998957
100
AcDbArc
 50
163.3848551934082
 51
163.618412489983
  0
LINE
  5
19B
330
1F
100
AcDbEntity
  8
0
  6
CONTINUOUS
 62
     7
100
AcDbLine
 10
-290.5129592935353
 20
149.3432307339903
 30
0.0
 11
-292.2708777135267
 21
147.2017030752504
 31
0.0
  0
LINE
  5
19C
330
1F
100
AcDbEntity
  8
0
  6
CONTINUOUS
 62
     7
100
AcDbLine
 10
-318.3335426349609
 20
209.7302113993323
 30
0.0
 11
-327.5651027472112
 21
209.1464324226036
 31
0.0
  0
LINE
  5
19D
330
1F
100
AcDbEntity
  8
0
  6
CONTINUOUS
 62
     7
100
AcDbLine
 10
-316.7891335055475
 20
198.1837090772532
 30
0.0
 11
-325.8496063789107
 21
196.3208265498749
 31
0.0
  0
LINE
  5
19E
330
1F
100
AcDbEntity
  8
0
  6
CONTINUOUS
 62
     7
100
AcDbLine
 10
-323.8682234596584
 20
241.5518616882783
 30
0.0
 11
-318.831296791029
 21
240.0711722567082
 31
0.0
  0
LINE
  5
19F
330
1F
100
AcDbEntity
  8
0
  6
CONTINUOUS
 62
     7
100
AcDbLine
 10
-314.4796187911579
 20
189.4023400132464
 30
0.0
 11
-318.2706044726775
 21
188.1251710565733
 31
0.0
  0
ARC
  5
1A0
330
1F
100
AcDbEntity
  8
0
  6
CONTINUOUS
 62
     7
100
AcDbCircle
 10
-235.0000000000531
 20
215.0000000000724
 30
0.0
 40
83.49999999989605
100
AcDbArc
 50
175.3848551934082
 51
175.618412489983
  0
LINE
  5
1A1
330
1F
100
AcDbEntity
  8
0
  6
CONTINUOUS
 62
     7
100
AcDbLine
 10
-319.8589671689892
 20
236.3355499343961
 30
0.0
 11
-324.9445007939196
 21
237.639551164309
 31
0.0
  0
LINE
  5
1A2
330
1F
100
AcDbEntity
  8
0
  6
CONTINUOUS
 62
     7
100
AcDbLine
 10
-281.2732115125542
 20
290.7321094140942
 30
0.0
 11
-279.8620772843875
 21
288.3477608501067
 31
0.0
  0
LINE
  5
1A3
330
1F
100
AcDbEntity
  8
0
  6
CONTINUOUS
 62
     7
100
AcDbLine
 10
-241.7233568423878
 20
298.228880040304
 30
0.0
 11
-242.4277911518344
 21
306.9491190536472
 31
0.0
  0
LINE
  5
1A4
330
1F
100
AcDbEntity
  8
0
  6
CONTINUOUS
 62
     7
100
AcDbLine
 10
-318.4981481835961
 20
215.5561024183218
 30
0.0
 11
-327.7479430422521
 21
215.6177065784274
 31
0.0
  0
LINE
  5
1A5
330
1F
100
AcDbEntity
  8
0
  6
CONTINUOUS
 62
     7
100
AcDbLine
 10
-301.5463096490079
 20
156.2790397551699
 30
0.0
 11
-299.4432255844739
 21
158.0827734666686
 31
0.0
  0
ARC
  5
1A6
330
1F
100
AcDbEntity
  8
0
  6
CONTINUOUS
 62
     7
100
AcDbCircle
 10
-235.0000000000531
 20
215.0000000000724
 30
0.0
 40
83.49999999989632
100
AcDbArc
 50
187.3848551934081
 51
187.6184124899829
  0
LINE
  5
1A7
330
1F
100
AcDbEntity
  8
0
  6
CONTINUOUS
 62
     7
100
AcDbLine
 10
-277.4493248785276
 20
137.060168608545
 30
0.0
 11
-276.0899855647207
 21
139.4744209802811
 31
0.0
  0
ARC
  5
1A8
330
1F
100
AcDbEntity
  8
0
  6
CONTINUOUS
 62
     7
100
AcDbCircle
 10
-235.0000000000531
 20
215.0000000000724
 30
0.0
 40
83.49999999989616
100
AcDbArc
 50
179.3848551934081
 51
179.6184124899829
  0
ARC
  5
1A9
330
1F
100
AcDbEntity
  8
0
  6
CONTINUOUS
 62
     7
100
AcDbCircle
 10
-235.0000000000531
 20
215.0000000000724
 30
0.0
 40
83.49999999989643
100
AcDbArc
 50
199.384855193408
 51
199.6184124899828
  0
LINE
  5
1AA
330
1F
100
AcDbEntity
  8
0
  6
CONTINUOUS
 62
     7
100
AcDbLine
 10
-301.0707710394788
 20
159.9804288073128
 30
0.0
 11
-303.1738551040127
 21
158.1766950958143
 31
0.0
  0
ARC
  5
1AB
330
1F
100
AcDbEntity
  8
0
  6
CONTINUOUS
 62
     7
100
AcDbCircle
 10
302.8774568116866
 20
267.8076780096591
 30
0.0
 40
0.9999999999987241
210
0.0
220
0.0
230
-1.0
100
AcDbArc
 50
129.3815875100175
 51
217.8823989592424
  0
LINE
  5
1AC
330
1F
100
AcDbEntity
  8
0
  6
CONTINUOUS
 62
     7
100
AcDbLine
 10
-277.7106312900444
 20
289.6210558408323
 30
0.0
 11
-279.121765518211
 21
292.0054044048201
 31
0.0
  0
LINE
  5
1AD
330
1F
100
AcDbEntity
  8
0
  6
CONTINUOUS
 62
     7
100
AcDbLine
 10
-293.7209602449553
 20
281.5463096490275
 30
0.0
 11
-291.9172265334566
 21
279.4432255844937
 31
0.0
  0
ARC
  5
1AE
330
1F
100
AcDbEntity
  8
0
  6
CONTINUOUS
 62
     7
100
AcDbCircle
 10
-235.0000000000531
 20
215.0000000000724
 30
0.0
 40
83.49999999989643
100
AcDbArc
 50
195.384855193408
 51
195.6184124899828
  0
LINE
  5
1AF
330
1F
100
AcDbEntity
  8
0
  6
CONTINUOUS
 62
     7
100
AcDbLine
 10
-327.1752921865038
 20
225.3091226745963
 30
0.0
 11
-317.9826080600922
 21
224.2809891464094
 31
0.0
  0
ARC
  5
1B0
330
1F
100
AcDbEntity
  8
0
  6
CONTINUOUS
 62
     7
100
AcDbCircle
 10
235.0000000000531
 20
215.0000000000724
 30
0.0
 40
83.49999999989424
210
0.0
220
0.0
230
-1.0
100
AcDbArc
 50
4.615144806591829
 51
6.148030213442435
  0
LINE
  5
1B1
330
1F
100
AcDbEntity
  8
0
  6
CONTINUOUS
 62
     7
100
AcDbLine
 10
-268.1947600728583
 20
297.547609921177
 30
0.0
 11
-267.1377110983165
 21
294.7381183961317
 31
0.0
  0
LINE
  5
1B2
330
1F
100
AcDbEntity
  8
0
  6
CONTINUOUS
 62
     7
100
AcDbLine
 10
-313.6527919262102
 20
186.9645167297391
 30
0.0
 11
-322.3658257623413
 21
183.8587895411094
 31
0.0
  0
ARC
  5
1B3
330
1F
100
AcDbEntity
  8
0
  6
CONTINUOUS
 62
     7
100
AcDbCircle
 10
-235.0000000000531
 20
215.0000000000724
 30
0.0
 40
83.49999999989593
100
AcDbArc
 50
189.6184124899829
 51
189.8519697865576
  0
ARC
  5
1B4
330
1F
100
AcDbEntity
  8
0
  6
CONTINUOUS
 62
     7
100
AcDbCircle
 10
-235.0000000000531
 20
215.0000000000724
 30
0.0
 40
83.49999999989632
100
AcDbArc
 50
173.6184124899831
 51
173.8519697865578
  0
ARC
  5
1B5
330
1F
100
AcDbEntity
  8
0
  6
CONTINUOUS
 62
     7
100
AcDbCircle
 10
300.022287110263
 20
271.2858968032395
 30
0.0
 40
0.9999999999986686
210
0.0
220
0.0
230
-1.0
100
AcDbArc
 50
220.8807760607918
 51
309.3815875100182
  0
ARC
  5
1B6
330
1F
100
AcDbEntity
  8
0
  6
CONTINUOUS
 62
     7
100
AcDbCircle
 10
268.0736575183918
 20
294.3859759551429
 30
0.0
 40
0.9999999999987241
210
0.0
220
0.0
230
-1.0
100
AcDbArc
 50
159.3815875100161
 51
247.3824919458946
  0
ARC
  5
1B7
330
1F
100
AcDbEntity
  8
0
  6
CONTINUOUS
 62
     7
100
AcDbCircle
 10
-307.4367442442071
 20
168.6435755986332
 30
0.0
 40
0.9999999999987241
100
AcDbArc
 50
32.61750805410433
 51
120.6184124899822
  0
LINE
  5
1B8
330
1F
100
AcDbEntity
  8
0
  6
CONTINUOUS
 62
     7
100
AcDbLine
 10
-318.2559591474856
 20
221.379284162229
 30
0.0
 11
-327.478924681782
 21
222.0859713298932
 31
0.0
  0
ARC
  5
1B9
330
1F
100
AcDbEntity
  8
0
  6
CONTINUOUS
 62
     7
100
AcDbCircle
 10
235.0000000000531
 20
215.0000000000724
 30
0.0
 40
83.49999999989424
210
0.0
220
0.0
230
-1.0
100
AcDbArc
 50
12.61514480659187
 51
14.14803021344248
  0
LINE
  5
1BA
330
1F
100
AcDbEntity
  8
0
  6
CONTINUOUS
 62
     7
100
AcDbLine
 10
-325.9313279869975
 20
196.72279861401
 30
0.0
 11
-320.7888441280845
 21
197.780121279393
 31
0.0
  0
LINE
  5
1BB
330
1F
100
AcDbEntity
  8
0
  6
CONTINUOUS
 62
     7
100
AcDbLine
 10
-319.9424547649231
 20
193.9993005237078
 30
0.0
 11
-325.0449059327406
 21
192.7631518522479
 31
0.0
  0
LINE
  5
1BC
330
1F
100
AcDbEntity
  8
0
  6
CONTINUOUS
 62
     7
100
AcDbLine
 10
-242.8367588583849
 20
306.9173972558181
 30
0.0
 11
-242.4542185468546
 21
302.1819053809209
 31
0.0
  0
ARC
  5
1BD
330
1F
100
AcDbEntity
  8
0
  6
CONTINUOUS
 62
     7
100
AcDbCircle
 10
279.1397858926329
 20
141.1916041271328
 30
0.0
 40
0.9999999999987796
210
0.0
220
0.0
230
-1.0
100
AcDbArc
 50
120.8807760607915
 51
209.3815875100175
  0
ARC
  5
1BE
330
1F
100
AcDbEntity
  8
0
  6
CONTINUOUS
 62
     7
100
AcDbCircle
 10
-235.0000000000531
 20
215.0000000000724
 30
0.0
 40
83.49999999989593
100
AcDbArc
 50
171.3848551934082
 51
171.6184124899829
  0
LINE
  5
1BF
330
1F
100
AcDbEntity
  8
0
  6
CONTINUOUS
 62
     7
100
AcDbLine
 10
-300.6567692661349
 20
270.5129592935551
 30
0.0
 11
-302.7982969248749
 21
272.2708777135464
 31
0.0
  0
ARC
  5
1C0
330
1F
100
AcDbEntity
  8
0
  6
CONTINUOUS
 62
     7
100
AcDbCircle
 10
289.2605090565548
 20
281.7217892215004
 30
0.0
 40
0.9999999999987796
210
0.0
220
0.0
230
-1.0
100
AcDbArc
 50
230.8807760607921
 51
319.3815875100166
  0
LINE
  5
1C1
330
1F
100
AcDbEntity
  8
0
  6
CONTINUOUS
 62
     7
100
AcDbLine
 10
-318.4413266184273
 20
218.1296984114688
 30
0.0
 11
-322.4405053984686
 21
218.2261456335252
 31
0.0
  0
ARC
  5
1C2
330
1F
100
AcDbEntity
  8
0
  6
CONTINUOUS
 62
     7
100
AcDbCircle
 10
-298.7922074024719
 20
157.323711330411
 30
0.0
 40
0.9999999999987241
100
AcDbArc
 50
42.11760104075703
 51
130.6184124899833
  0
LINE
  5
1C3
330
1F
100
AcDbEntity
  8
0
  6
CONTINUOUS
 62
     7
100
AcDbLine
 10
-310.5293166482502
 20
167.9753008874334
 30
0.0
 11
-307.9460622404974
 21
169.5041539963704
 31
0.0
  0
LINE
  5
1C4
330
1F
100
AcDbEntity
  8
0
  6
CONTINUOUS
 62
     7
100
AcDbLine
 10
-322.0385331026853
 20
206.0253827201777
 30
0.0
 11
-327.2633662103427
 21
205.5113881141362
 31
0.0
  0
ARC
  5
1C5
330
1F
100
AcDbEntity
  8
0
  6
CONTINUOUS
 62
     7
100
AcDbCircle
 10
275.2186140424601
 20
138.9837972240375
 30
0.0
 40
0.9999999999987241
210
0.0
220
0.0
230
-1.0
100
AcDbArc
 50
29.38158751001663
 51
117.8823989592424
  0
LINE
  5
1C6
330
1F
100
AcDbEntity
  8
0
  6
CONTINUOUS
 62
     7
100
AcDbLine
 10
-316.5578931174554
 20
232.9041914152377
 30
0.0
 11
-325.5927495406406
 21
234.8875898654209
 31
0.0
  0
LINE
  5
1C7
330
1F
100
AcDbEntity
  8
0
  6
CONTINUOUS
 62
     7
100
AcDbLine
 10
-322.5026957600209
 20
184.2454761911358
 30
0.0
 11
-317.5574090745772
 21
186.0082044903033
 31
0.0
  0
ARC
  5
1C8
330
1F
100
AcDbEntity
  8
0
  6
CONTINUOUS
 62
     7
100
AcDbCircle
 10
-235.0000000000531
 20
215.0000000000724
 30
0.0
 40
83.49999999989582
100
AcDbArc
 50
193.6184124899828
 51
193.8519697865576
  0
LINE
  5
1C9
330
1F
100
AcDbEntity
  8
0
  6
CONTINUOUS
 62
     7
100
AcDbLine
 10
-325.5039091765231
 20
235.2880487912505
 30
0.0
 11
-320.3759645346469
 21
234.162324487628
 31
0.0
  0
ARC
  5
1CA
330
1F
100
AcDbEntity
  8
0
  6
CONTINUOUS
 62
     7
100
AcDbCircle
 10
235.0000000000531
 20
215.0000000000724
 30
0.0
 40
83.49999999989438
210
0.0
220
0.0
230
-1.0
100
AcDbArc
 50
85.14803021344225
 51
85.38158751001704
  0
LINE
  5
1CB
330
1F
100
AcDbEntity
  8
0
  6
CONTINUOUS
 62
     7
100
AcDbLine
 10
-290.3385339393153
 20
145.6154976855705
 30
0.0
 11
-288.5806155193241
 21
147.7570253443107
 31
0.0
  0
ARC
  5
1CC
330
1F
100
AcDbEntity
  8
0
  6
CONTINUOUS
 62
     7
100
AcDbCircle
 10
-235.0000000000531
 20
215.0000000000724
 30
0.0
 40
83.49999999989637
100
AcDbArc
 50
191.3848551934081
 51
191.6184124899829
  0
ARC
  5
1CD
330
1F
100
AcDbEntity
  8
0
  6
CONTINUOUS
 62
     7
100
AcDbCircle
 10
292.6762886697143
 20
278.7922074024918
 30
0.0
 40
0.9999999999987796
210
0.0
220
0.0
230
-1.0
100
AcDbArc
 50
139.3815875100178
 51
227.8823989592432
  0
LINE
  5
1CE
330
1F
100
AcDbEntity
  8
0
  6
CONTINUOUS
 62
     7
100
AcDbLine
 10
-324.8434960084283
 20
238.0371162468817
 30
0.0
 11
-315.8833629833343
 21
235.7396140874964
 31
0.0
  0
LINE
  5
1CF
330
1F
100
AcDbEntity
  8
0
  6
CONTINUOUS
 62
     7
100
AcDbLine
 10
-315.110288930545
 20
238.5497687346822
 30
0.0
 11
-323.9847820156594
 21
241.1585754507918
 31
0.0
  0
LINE
  5
1D0
330
1F
100
AcDbEntity
  8
0
  6
CONTINUOUS
 62
     7
100
AcDbLine
 10
-327.3044280252752
 20
205.9195227597225
 30
0.0
 11
-318.0988651224902
 21
206.8251229157683
 31
0.0
  0
LINE
  5
1D1
330
1F
100
AcDbEntity
  8
0
  6
CONTINUOUS
 62
     7
100
AcDbLine
 10
-319.3786687976647
 20
191.8377407855326
 30
0.0
 11
-315.5078246052965
 21
192.84734378661
 31
0.0
  0
LINE
  5
1D2
330
1F
100
AcDbEntity
  8
0
  6
CONTINUOUS
 62
     7
100
AcDbLine
 10
-322.4525492652371
 20
212.1187455859098
 30
0.0
 11
-327.7005093932846
 21
211.9704689783871
 31
0.0
  0
LINE
  5
1D3
330
1F
100
AcDbEntity
  8
0
  6
CONTINUOUS
 62
     7
100
AcDbLine
 10
-204.303134809755
 20
302.2579650661428
 30
0.0
 11
-204.2201703092415
 21
302.4937974041568
 31
0.0
  0
LINE
  5
1D4
330
1F
100
AcDbEntity
  8
0
  6
CONTINUOUS
 62
     7
100
AcDbLine
 10
-320.7888441280845
 20
197.780121279393
 30
0.0
 11
-316.8570027723842
 21
198.5172484970295
 31
0.0
  0
ARC
  5
1D5
330
1F
100
AcDbEntity
  8
0
  6
CONTINUOUS
 62
     7
100
AcDbCircle
 10
-235.0000000000531
 20
215.0000000000724
 30
0.0
 40
83.49999999989605
100
AcDbArc
 50
185.6184124899829
 51
185.8519697865577
  0
LINE
  5
1D6
330
1F
100
AcDbEntity
  8
0
  6
CONTINUOUS
 62
     7
100
AcDbLine
 10
-315.9672325453986
 20
235.4097342935034
 30
0.0
 11
-319.8589671689892
 21
236.3355499343961
 31
0.0
  0
LINE
  5
1D7
330
1F
100
AcDbEntity
  8
0
  6
CONTINUOUS
 62
     7
100
AcDbLine
 10
-322.4405053984686
 20
218.2261456335252
 30
0.0
 11
-327.6860250126851
 21
218.4443094132483
 31
0.0
  0
LINE
  5
1D8
330
1F
100
AcDbEntity
  8
0
  6
CONTINUOUS
 62
     7
100
AcDbLine
 10
-176.3636203581487
 20
266.9369197723353
 30
0.0
 11
-177.0112543422484
 21
266.3814691988121
 31
0.0
  0
ARC
  5
1D9
330
1F
100
AcDbEntity
  8
0
  6
CONTINUOUS
 62
     7
100
AcDbCircle
 10
235.0000000000531
 20
215.0000000000724
 30
0.0
 40
83.49999999989424
210
0.0
220
0.0
230
-1.0
100
AcDbArc
 50
352.6151448065917
 51
354.1480302134423
  0
LINE
  5
1DA
330
1F
100
AcDbEntity
  8
0
  6
CONTINUOUS
 62
     7
100
AcDbLine
 10
-321.1405477187726
 20
230.3641152918036
 30
0.0
 11
-326.3046557669475
 21
231.3101911474768
 31
0.0
  0
LINE
  5
1DB
330
1F
100
AcDbEntity
  8
0
  6
CONTINUOUS
 62
     7
100
AcDbLine
 10
-321.7810648333769
 20
203.8063952914443
 30
0.0
 11
-317.8073818502023
 21
204.2674555159317
 31
0.0
  0
ARC
  5
1DC
330
1F
100
AcDbEntity
  8
0
  6
CONTINUOUS
 62
     7
100
AcDbCircle
 10
235.0000000000531
 20
215.0000000000724
 30
0.0
 40
83.4999999998943
210
0.0
220
0.0
230
-1.0
100
AcDbArc
 50
348.6151448065917
 51
350.1480302134423
  0
ARC
  5
1DD
330
1F
100
AcDbEntity
  8
0
  6
CONTINUOUS
 62
     7
100
AcDbCircle
 10
-235.0000000000531
 20
215.0000000000724
 30
0.0
 40
83.49999999989616
100
AcDbArc
 50
177.6184124899829
 51
177.8519697865577
  0
LINE
  5
1DE
330
1F
100
AcDbEntity
  8
0
  6
CONTINUOUS
 62
     7
100
AcDbLine
 10
-154.3981341913083
 20
169.6173025468359
 30
0.0
 11
-154.1802913107568
 21
169.4946466077804
 31
0.0
  0
ARC
  5
1DF
330
1F
100
AcDbEntity
  8
0
  6
CONTINUOUS
 62
     7
100
AcDbCircle
 10
-235.0000000000531
 20
215.0000000000724
 30
0.0
 40
88.74999999988758
100
AcDbArc
 50
139.1667103298746
 51
142.0701146500913
  0
LINE
  5
1E0
330
1F
100
AcDbEntity
  8
0
  6
CONTINUOUS
 62
     7
100
AcDbLine
 10
-318.0648511966488
 20
206.4864522279687
 30
0.0
 11
-322.0385331026853
 21
206.0253827201777
 31
0.0
  0
ARC
  5
1E1
330
1F
100
AcDbEntity
  8
0
  6
CONTINUOUS
 62
     7
100
AcDbCircle
 10
235.0000000000531
 20
215.0000000000724
 30
0.0
 40
83.49999999989424
210
0.0
220
0.0
230
-1.0
100
AcDbArc
 50
8.615144806591822
 51
10.14803021344242
  0
LINE
  5
1E2
330
1F
100
AcDbEntity
  8
0
  6
CONTINUOUS
 62
     7
100
AcDbLine
 10
-327.6698858526219
 20
218.8541868206347
 30
0.0
 11
-318.4278756732552
 21
218.4698070029505
 31
0.0
  0
ARC
  5
1E3
330
1F
100
AcDbEntity
  8
0
  6
CONTINUOUS
 62
     7
100
AcDbCircle
 10
-235.0000000000531
 20
215.0000000000724
 30
0.0
 40
83.49999999989643
100
AcDbArc
 50
165.6184124899829
 51
165.8519697865578
  0
ARC
  5
1E4
330
1F
100
AcDbEntity
  8
0
  6
CONTINUOUS
 62
     7
100
AcDbCircle
 10
-235.0000000000531
 20
215.0000000000724
 30
0.0
 40
88.74999999988763
100
AcDbArc
 50
239.1667103298748
 51
242.0701146500913
  0
ARC
  5
1E5
330
1F
100
AcDbEntity
  8
0
  6
CONTINUOUS
 62
     7
100
AcDbCircle
 10
-235.0000000000531
 20
215.0000000000724
 30
0.0
 40
83.49999999989637
100
AcDbArc
 50
169.6184124899829
 51
169.8519697865578
  0
ARC
  5
1E6
330
1F
100
AcDbEntity
  8
0
  6
CONTINUOUS
 62
     7
100
AcDbCircle
 10
-235.0000000000531
 20
215.0000000000724
 30
0.0
 40
88.74999999988758
100
AcDbArc
 50
219.1667103298748
 51
222.0701146500914
  0
LINE
  5
1E7
330
1F
100
AcDbEntity
  8
0
  6
CONTINUOUS
 62
     7
100
AcDbLine
 10
-207.4136225346313
 20
287.3895142844145
 30
0.0
 11
-207.1303884183078
 21
288.1946268740703
 31
0.0
  0
ARC
  5
1E8
330
1F
100
AcDbEntity
  8
0
  6
CONTINUOUS
 62
     7
100
AcDbCircle
 10
235.0000000000531
 20
215.0000000000724
 30
0.0
 40
83.4999999998943
210
0.0
220
0.0
230
-1.0
100
AcDbArc
 50
344.6151448065917
 51
346.1480302134423
  0
LINE
  5
1E9
330
1F
100
AcDbEntity
  8
0
  6
CONTINUOUS
 62
     7
100
AcDbLine
 10
-322.0024601788878
 20
224.3178282239052
 30
0.0
 11
-327.2199836349908
 21
224.9013695188692
 31
0.0
  0
ARC
  5
1EA
330
1F
100
AcDbEntity
  8
0
  6
CONTINUOUS
 62
     7
100
AcDbCircle
 10
-235.0000000000531
 20
215.0000000000724
 30
0.0
 40
88.74999999988758
100
AcDbArc
 50
129.1667103298746
 51
132.0701146500913
  0
LINE
  5
1EB
330
1F
100
AcDbEntity
  8
0
  6
CONTINUOUS
 62
     7
100
AcDbLine
 10
-317.2686343223247
 20
200.712879690897
 30
0.0
 11
-321.2004739559401
 21
199.9757432877078
 31
0.0
  0
LINE
  5
1EC
330
1F
100
AcDbEntity
  8
0
  6
CONTINUOUS
 62
     7
100
AcDbLine
 10
-323.0176537730594
 20
244.2481644599346
 30
0.0
 11
-314.239612830738
 21
241.3312316162286
 31
0.0
  0
LINE
  5
1ED
330
1F
100
AcDbEntity
  8
0
  6
CONTINUOUS
 62
     7
100
AcDbLine
 10
-326.4461570056095
 20
199.5028109358888
 30
0.0
 11
-317.3261898648936
 21
201.0483527023976
 31
0.0
  0
LINE
  5
1EE
330
1F
100
AcDbEntity
  8
0
  6
CONTINUOUS
 62
     7
100
AcDbLine
 10
-326.2316297622811
 20
231.7138335191571
 30
0.0
 11
-317.1330575218432
 21
230.0469552436689
 31
0.0
  0
LINE
  5
1EF
330
1F
100
AcDbEntity
  8
0
  6
CONTINUOUS
 62
     7
100
AcDbLine
 10
-317.1937115306812
 20
229.7120285753704
 30
0.0
 11
-321.1405477187726
 21
230.3641152918036
 31
0.0
  0
LINE
  5
1F0
330
1F
100
AcDbEntity
  8
0
  6
CONTINUOUS
 62
     7
100
AcDbLine
 10
-321.2004739559401
 20
199.9757432877078
 30
0.0
 11
-326.3767251815055
 21
199.0985348132016
 31
0.0
  0
LINE
  5
1F1
330
1F
100
AcDbEntity
  8
0
  6
CONTINUOUS
 62
     7
100
AcDbLine
 10
-322.3504969140036
 20
209.887203420459
 30
0.0
 11
-318.3543316874155
 21
210.069950412729
 31
0.0
  0
LINE
  5
1F2
330
1F
100
AcDbEntity
  8
0
  6
CONTINUOUS
 62
     7
100
AcDbLine
 10
-316.0716129311965
 20
195.0089125678353
 30
0.0
 11
-319.9424547649231
 21
193.9993005237078
 31
0.0
  0
LINE
  5
1F3
330
1F
100
AcDbEntity
  8
0
  6
CONTINUOUS
 62
     7
100
AcDbLine
 10
-318.4563844655929
 20
212.301501914007
 30
0.0
 11
-322.4525492652371
 21
212.1187455859098
 31
0.0
  0
LINE
  5
1F4
330
1F
100
AcDbEntity
  8
0
  6
CONTINUOUS
 62
     7
100
AcDbLine
 10
-318.2706044726775
 20
188.1251710565733
 30
0.0
 11
-323.2743969535538
 21
186.5361045802302
 31
0.0
  0
ARC
  5
1F5
330
1F
100
AcDbEntity
  8
0
  6
CONTINUOUS
 62
     7
100
AcDbCircle
 10
-235.0000000000531
 20
215.0000000000724
 30
0.0
 40
83.49999999989616
100
AcDbArc
 50
181.6184124899829
 51
181.8519697865577
  0
LINE
  5
1F6
330
1F
100
AcDbEntity
  8
0
  6
CONTINUOUS
 62
     7
100
AcDbLine
 10
-320.3759645346469
 20
234.162324487628
 30
0.0
 11
-316.4842320739543
 21
233.2364997548804
 31
0.0
  0
ARC
  5
1F7
330
1F
100
AcDbEntity
  8
0
  6
CONTINUOUS
 62
     7
100
AcDbCircle
 10
235.0000000000531
 20
215.0000000000724
 30
0.0
 40
83.4999999998943
210
0.0
220
0.0
230
-1.0
100
AcDbArc
 50
340.6151448065916
 51
342.1480302134423
  0
ARC
  5
1F8
330
1F
100
AcDbEntity
  8
0
  6
CONTINUOUS
 62
     7
100
AcDbCircle
 10
235.0000000000531
 20
215.0000000000724
 30
0.0
 40
84.99999999989241
210
0.0
220
0.0
230
-1.0
100
AcDbArc
 50
291.3806830741387
 51
297.8823989592423
  0
LINE
  5
1F9
330
1F
100
AcDbEntity
  8
0
  6
CONTINUOUS
 62
     7
100
AcDbLine
 10
-323.399417433557
 20
186.9267832732161
 30
0.0
 11
-314.583303026442
 21
189.7265380411236
 31
0.0
  0
LINE
  5
1FA
330
1F
100
AcDbEntity
  8
0
  6
CONTINUOUS
 62
     7
100
AcDbLine
 10
-318.0197510154698
 20
223.9426473328665
 30
0.0
 11
-322.0024601788878
 21
224.3178282239052
 31
0.0
  0
ARC
  5
1FB
330
1F
100
AcDbEntity
  8
0
  6
CONTINUOUS
 62
     7
100
AcDbCircle
 10
235.0000000000531
 20
215.0000000000724
 30
0.0
 40
83.49999999989424
210
0.0
220
0.0
230
-1.0
100
AcDbArc
 50
0.615144806591799
 51
2.148030213442412
  0
ARC
  5
1FC
330
1F
100
AcDbEntity
  8
0
  6
CONTINUOUS
 62
     7
100
AcDbCircle
 10
-235.0000000000531
 20
215.0000000000724
 30
0.0
 40
83.4999999998957
100
AcDbArc
 50
197.6184124899828
 51
197.8519697865576
  0
LINE
  5
1FD
330
1F
100
AcDbEntity
  8
0
  6
CONTINUOUS
 62
     7
100
AcDbLine
 10
-322.2119716372101
 20
222.0938003312275
 30
0.0
 11
-318.2292633502992
 21
221.7186101357979
 31
0.0
  0
LINE
  5
1FE
330
1F
100
AcDbEntity
  8
0
  6
CONTINUOUS
 62
     7
100
AcDbLine
 10
-202.3387885990896
 20
128.1909695377764
 30
0.0
 11
-202.4268242093339
 21
128.4249561427938
 31
0.0
  0
LINE
  5
1FF
330
1F
100
AcDbEntity
  8
0
  6
CONTINUOUS
 62
     7
100
AcDbLine
 10
-322.4943661541066
 20
215.992920580473
 30
0.0
 11
-318.4951875993959
 21
215.896464015549
 31
0.0
  0
LINE
  5
200
330
1F
100
AcDbEntity
  8
0
  6
CONTINUOUS
 62
     7
100
AcDbLine
 10
-327.7130011500107
 20
212.3804737559046
 30
0.0
 11
-318.466691062279
 21
212.6417203085577
 31
0.0
  0
LINE
  5
201
330
1F
100
AcDbEntity
  8
0
  6
CONTINUOUS
 62
     7
100
AcDbLine
 10
-321.5046891610141
 20
228.1601197998345
 30
0.0
 11
-317.5578544963365
 21
227.5080238628178
 31
0.0
  0
MTEXT
  5
202
330
1F
100
AcDbEntity
  8
0
 62
     1
100
AcDbMText
 10
97.15537597439037
 20
74.8106060606777
 30
0.0
 40
5.0
 41
0.0
 71
     1
 72
     1
  1
{\fＭＳ ゴシック;ＦＥＶＰＣ－１２５}
  0
ARC
  5
203
330
1F
100
AcDbEntity
  8
0
  6
CONTINUOUS
 62
     7
100
AcDbCircle
 10
-235.000000000053
 20
215.0000000000724
 30
0.0
 40
79.74999999992028
100
AcDbArc
 50
329.1808623994293
 51
0.0
  0
ARC
  5
204
330
1F
100
AcDbEntity
  8
0
  6
CONTINUOUS
 62
     7
100
AcDbCircle
 10
235.000000000053
 20
215.0000000000724
 30
0.0
 40
89.99999999990999
210
0.0
220
0.0
230
-1.0
100
AcDbArc
 50
176.1774462707257
 51
176.3815875105112
  0
ARC
  5
205
330
1F
100
AcDbEntity
  8
0
  6
CONTINUOUS
 62
     7
100
AcDbCircle
 10
-227.6156579453581
 20
114.5738505548262
 30
0.0
 40
11.99999999998802
100
AcDbArc
 50
345.1244449889658
 51
348.952698401763
  0
ARC
  5
206
330
1F
100
AcDbEntity
  8
0
  6
CONTINUOUS
 62
     7
100
AcDbCircle
 10
-235.000000000053
 20
215.0000000000724
 30
0.0
 40
79.74999999992028
100
AcDbArc
 50
299.7201242878756
 51
301.5168062401081
  0
ARC
  5
207
330
1F
100
AcDbEntity
  8
0
  6
CONTINUOUS
 62
     7
100
AcDbCircle
 10
-235.000000000053
 20
215.0000000000724
 30
0.0
 40
79.74999999992028
100
AcDbArc
 50
39.72022812122842
 51
41.51654308662594
  0
ARC
  5
208
330
1F
100
AcDbEntity
  8
0
  6
CONTINUOUS
 62
     7
100
AcDbCircle
 10
-235.000000000053
 20
215.0000000000724
 30
0.0
 40
79.74999999992022
100
AcDbArc
 50
49.7199722967926
 51
51.5168059344044
  0
ARC
  5
209
330
1F
100
AcDbEntity
  8
0
  6
CONTINUOUS
 62
     7
100
AcDbCircle
 10
-217.5642067077462
 20
111.9039576697663
 30
0.0
 40
1.59999999999838
100
AcDbArc
 50
275.6184124894883
 51
345.1244449889653
  0
ARC
  5
20A
330
1F
100
AcDbEntity
  8
0
  6
CONTINUOUS
 62
     7
100
AcDbCircle
 10
-242.3843420547479
 20
315.4261494453189
 30
0.0
 40
11.99999999998802
100
AcDbArc
 50
192.2841265772135
 51
196.1123799900106
  0
ARC
  5
20B
330
1F
100
AcDbEntity
  8
0
  6
CONTINUOUS
 62
     7
100
AcDbCircle
 10
-235.000000000053
 20
215.0000000000724
 30
0.0
 40
89.99999999990999
100
AcDbArc
 50
249.3450681285758
 51
264.6184124899829
  0
ARC
  5
20C
330
1F
100
AcDbEntity
  8
0
  6
CONTINUOUS
 62
     7
100
AcDbCircle
 10
-235.000000000053
 20
215.0000000000724
 30
0.0
 40
89.99999999990999
100
AcDbArc
 50
183.6184124899828
 51
185.6184124899829
  0
ARC
  5
20D
330
1F
100
AcDbEntity
  8
0
  6
CONTINUOUS
 62
     7
100
AcDbCircle
 10
-235.000000000053
 20
215.0000000000724
 30
0.0
 40
89.99999999990993
100
AcDbArc
 50
329.3450681280756
 51
341.6184124894846
  0
ARC
  5
20E
330
1F
100
AcDbEntity
  8
0
  6
CONTINUOUS
 62
     7
100
AcDbCircle
 10
-235.000000000053
 20
215.0000000000724
 30
0.0
 40
89.99999999990999
100
AcDbArc
 50
272.6184124894878
 51
274.6184124894874
  0
ARC
  5
20F
330
1F
100
AcDbEntity
  8
0
  6
CONTINUOUS
 62
     7
100
AcDbCircle
 10
-235.000000000053
 20
215.0000000000724
 30
0.0
 40
89.99999999990999
100
AcDbArc
 50
187.6184124899829
 51
189.6184124899829
  0
ARC
  5
210
330
1F
100
AcDbEntity
  8
0
  6
CONTINUOUS
 62
     7
100
AcDbCircle
 10
-235.000000000053
 20
215.0000000000724
 30
0.0
 40
89.99999999990999
100
AcDbArc
 50
15.61841248949123
 51
17.61841248949159
  0
CIRCLE
  5
211
330
1F
100
AcDbEntity
  8
0
  6
CONTINUOUS
 62
     7
100
AcDbCircle
 10
235.000000000053
 20
215.0000000000724
 30
0.0
 40
61.49999999993855
210
0.0
220
0.0
230
-1.0
  0
ARC
  5
212
330
1F
100
AcDbEntity
  8
0
  6
CONTINUOUS
 62
     7
100
AcDbCircle
 10
-252.4357932923599
 20
318.0960423303789
 30
0.0
 40
1.59999999999838
100
AcDbArc
 50
95.61841248948834
 51
165.1244449889653
  0
ARC
  5
213
330
1F
100
AcDbEntity
  8
0
  6
CONTINUOUS
 62
     7
100
AcDbCircle
 10
-235.000000000053
 20
215.0000000000724
 30
0.0
 40
92.49999999990749
100
AcDbArc
 50
356.2809059046363
 51
357.6184124894875
  0
ARC
  5
214
330
1F
100
AcDbEntity
  8
0
  6
CONTINUOUS
 62
     7
100
AcDbCircle
 10
-235.000000000053
 20
215.0000000000724
 30
0.0
 40
89.99999999990999
100
AcDbArc
 50
163.6184124899828
 51
165.6184124899829
  0
ARC
  5
215
330
1F
100
AcDbEntity
  8
0
  6
CONTINUOUS
 62
     7
100
AcDbCircle
 10
-235.000000000053
 20
215.0000000000724
 30
0.0
 40
82.74999999991728
100
AcDbArc
 50
129.7527897222985
 51
131.4839814865331
  0
LINE
  5
216
330
1F
100
AcDbEntity
  8
0
  6
CONTINUOUS
 62
     7
100
AcDbLine
 10
-218.867595637994
 20
110.1680128517006
 30
0.0
 11
-217.4075623564438
 21
110.3116440865799
 31
0.0
  0
ARC
  5
217
330
1F
100
AcDbEntity
  8
0
  6
CONTINUOUS
 62
     7
100
AcDbCircle
 10
-235.000000000053
 20
215.0000000000724
 30
0.0
 40
79.74999999992028
100
AcDbArc
 50
319.719972296781
 51
321.5168059343929
  0
ARC
  5
218
330
1F
100
AcDbEntity
  8
0
  6
CONTINUOUS
 62
     7
100
AcDbCircle
 10
-227.6156579453581
 20
114.5738505548262
 30
0.0
 40
11.99999999998802
100
AcDbArc
 50
12.28412657721355
 51
16.11237999001065
  0
ARC
  5
219
330
1F
100
AcDbEntity
  8
0
  6
CONTINUOUS
 62
     7
100
AcDbCircle
 10
-235.000000000053
 20
215.0000000000724
 30
0.0
 40
89.99999999990999
100
AcDbArc
 50
195.618412489983
 51
197.618412489983
  0
ARC
  5
21A
330
1F
100
AcDbEntity
  8
0
  6
CONTINUOUS
 62
     7
100
AcDbCircle
 10
-235.000000000053
 20
215.0000000000724
 30
0.0
 40
89.99999999990999
100
AcDbArc
 50
179.6184124899829
 51
181.6184124899829
  0
ARC
  5
21B
330
1F
100
AcDbEntity
  8
0
  6
CONTINUOUS
 62
     7
100
AcDbCircle
 10
-235.000000000053
 20
215.0000000000724
 30
0.0
 40
82.74999999991728
100
AcDbArc
 50
69.2334321925372
 51
112.0038634361151
  0
ARC
  5
21C
330
1F
100
AcDbEntity
  8
0
  6
CONTINUOUS
 62
     7
100
AcDbCircle
 10
-235.000000000053
 20
215.0000000000724
 30
0.0
 40
89.99999999990999
100
AcDbArc
 50
96.61841248998292
 51
111.89175685139
  0
ARC
  5
21D
330
1F
100
AcDbEntity
  8
0
  6
CONTINUOUS
 62
     7
100
AcDbCircle
 10
-235.000000000053
 20
215.0000000000724
 30
0.0
 40
92.49999999990749
100
AcDbArc
 50
3.618412489488759
 51
3.719094095363473
  0
ARC
  5
21E
330
1F
100
AcDbEntity
  8
0
  6
CONTINUOUS
 62
     7
100
AcDbCircle
 10
-235.000000000053
 20
215.0000000000724
 30
0.0
 40
89.99999999990999
100
AcDbArc
 50
343.6184124894849
 51
345.6184124894852
  0
ARC
  5
21F
330
1F
100
AcDbEntity
  8
0
  6
CONTINUOUS
 62
     7
100
AcDbCircle
 10
-235.000000000053
 20
215.0000000000724
 30
0.0
 40
89.99999999991005
100
AcDbArc
 50
175.6184124899829
 51
177.6184124899829
  0
ARC
  5
220
330
1F
100
AcDbEntity
  8
0
  6
CONTINUOUS
 62
     7
100
AcDbCircle
 10
235.000000000053
 20
215.0000000000724
 30
0.0
 40
89.99999999990993
210
0.0
220
0.0
230
-1.0
100
AcDbArc
 50
178.3815875105116
 51
180.381587510512
  0
ARC
  5
221
330
1F
100
AcDbEntity
  8
0
  6
CONTINUOUS
 62
     7
100
AcDbCircle
 10
-235.000000000053
 20
215.0000000000724
 30
0.0
 40
82.74999999991722
100
AcDbArc
 50
239.7527080882817
 51
241.4842408547523
  0
ARC
  5
222
330
1F
100
AcDbEntity
  8
0
  6
CONTINUOUS
 62
     7
100
AcDbCircle
 10
-235.000000000053
 20
215.0000000000724
 30
0.0
 40
92.49999999990754
100
AcDbArc
 50
359.618412489488
 51
1.618412489488435
  0
ARC
  5
223
330
1F
100
AcDbEntity
  8
0
  6
CONTINUOUS
 62
     7
100
AcDbCircle
 10
-235.000000000053
 20
215.0000000000724
 30
0.0
 40
89.99999999990999
100
AcDbArc
 50
351.6184124894864
 51
353.6184124894868
  0
ARC
  5
224
330
1F
100
AcDbEntity
  8
0
  6
CONTINUOUS
 62
     7
100
AcDbCircle
 10
-235.000000000053
 20
215.0000000000724
 30
0.0
 40
89.99999999990999
100
AcDbArc
 50
7.618412489489681
 51
9.618412489490078
  0
ARC
  5
225
330
1F
100
AcDbEntity
  8
0
  6
CONTINUOUS
 62
     7
100
AcDbCircle
 10
-235.000000000053
 20
215.0000000000724
 30
0.0
 40
82.74999999991722
100
AcDbArc
 50
219.7527897222984
 51
221.483981486533
  0
ARC
  5
226
330
1F
100
AcDbEntity
  8
0
  6
CONTINUOUS
 62
     7
100
AcDbCircle
 10
-235.000000000053
 20
215.0000000000724
 30
0.0
 40
89.99999999990999
100
AcDbArc
 50
19.61841248949192
 51
31.89175685090099
  0
ARC
  5
227
330
1F
100
AcDbEntity
  8
0
  6
CONTINUOUS
 62
     7
100
AcDbCircle
 10
235.000000000053
 20
215.0000000000724
 30
0.0
 40
89.99999999990993
210
0.0
220
0.0
230
-1.0
100
AcDbArc
 50
182.3815875105124
 51
183.8225537292744
  0
ARC
  5
228
330
1F
100
AcDbEntity
  8
0
  6
CONTINUOUS
 62
     7
100
AcDbCircle
 10
-235.000000000053
 20
215.0000000000724
 30
0.0
 40
89.99999999990999
100
AcDbArc
 50
191.6184124899829
 51
193.618412489983
  0
ARC
  5
229
330
1F
100
AcDbEntity
  8
0
  6
CONTINUOUS
 62
     7
100
AcDbCircle
 10
-235.000000000053
 20
215.0000000000724
 30
0.0
 40
89.99999999991005
100
AcDbArc
 50
167.6184124899828
 51
169.6184124899828
  0
ARC
  5
22A
330
1F
100
AcDbEntity
  8
0
  6
CONTINUOUS
 62
     7
100
AcDbCircle
 10
-235.000000000053
 20
215.0000000000724
 30
0.0
 40
82.74999999991728
100
AcDbArc
 50
299.7527080877817
 51
301.4842408542529
  0
ARC
  5
22B
330
1F
100
AcDbEntity
  8
0
  6
CONTINUOUS
 62
     7
100
AcDbCircle
 10
-235.000000000053
 20
215.0000000000724
 30
0.0
 40
79.74999999992028
100
AcDbArc
 50
59.72012428788587
 51
61.51680624011833
  0
ARC
  5
22C
330
1F
100
AcDbEntity
  8
0
  6
CONTINUOUS
 62
     7
100
AcDbCircle
 10
-235.000000000053
 20
215.0000000000724
 30
0.0
 40
89.99999999990999
100
AcDbArc
 50
266.6184124899829
 51
268.618412489983
  0
ARC
  5
22D
330
1F
100
AcDbEntity
  8
0
  6
CONTINUOUS
 62
     7
100
AcDbCircle
 10
-235.000000000053
 20
215.0000000000724
 30
0.0
 40
82.74999999991728
100
AcDbArc
 50
139.7525400327632
 51
141.4842268378213
  0
ARC
  5
22E
330
1F
100
AcDbEntity
  8
0
  6
CONTINUOUS
 62
     7
100
AcDbCircle
 10
-235.000000000053
 20
215.0000000000724
 30
0.0
 40
89.99999999990999
100
AcDbArc
 50
92.61841248998296
 51
94.6184124899829
  0
LINE
  5
22F
330
1F
100
AcDbEntity
  8
0
  6
CONTINUOUS
 62
     7
100
AcDbLine
 10
-249.637888296475
 20
320.348147711316
 30
0.0
 11
-236.1386746372697
 21
320.4938548923816
 31
0.0
  0
LINE
  5
230
330
1F
100
AcDbEntity
  8
0
  6
CONTINUOUS
 62
     7
100
AcDbLine
 10
-245.7268676225018
 20
306.8734912904708
 30
0.0
 11
-246.1893074867031
 21
307.0725903728061
 31
0.0
  0
ARC
  5
231
330
1F
100
AcDbEntity
  8
0
  6
CONTINUOUS
 62
     7
100
AcDbCircle
 10
-235.0000000000531
 20
215.0000000000724
 30
0.0
 40
83.49999999989438
100
AcDbArc
 50
266.384855193408
 51
266.6184124899829
  0
LINE
  5
232
330
1F
100
AcDbEntity
  8
0
  6
CONTINUOUS
 62
     7
100
AcDbLine
 10
-313.7814512933774
 20
166.0505829239361
 30
0.0
 11
-310.5293166482502
 21
167.9753008874334
 31
0.0
  0
LINE
  5
233
330
1F
100
AcDbEntity
  8
0
  6
CONTINUOUS
 62
     7
100
AcDbLine
 10
-236.8141560094263
 20
122.7669715035093
 30
0.0
 11
-237.3266292683962
 21
122.2791862837137
 31
0.0
  0
LINE
  5
234
330
1F
100
AcDbEntity
  8
0
  6
CONTINUOUS
 62
     7
100
AcDbLine
 10
-263.8514414211111
 20
139.0144538138611
 30
0.0
 11
-265.4090769316425
 21
134.5867670085552
 31
0.0
  0
LINE
  5
235
330
1F
100
AcDbEntity
  8
0
  6
CONTINUOUS
 62
     7
100
AcDbLine
 10
-327.4466820164958
 20
222.4948972059498
 30
0.0
 11
-322.2119716372101
 21
222.0938003312275
 31
0.0
  0
LINE
  5
236
330
1F
100
AcDbEntity
  8
0
  6
CONTINUOUS
 62
     7
100
AcDbLine
 10
-327.5900853475608
 20
209.5558659718555
 30
0.0
 11
-322.3504969140036
 21
209.887203420459
 31
0.0
  0
LINE
  5
237
330
1F
100
AcDbEntity
  8
0
  6
CONTINUOUS
 62
     7
100
AcDbLine
 10
-317.7629444432668
 20
203.9299942606881
 30
0.0
 11
-326.9312945761976
 21
202.7036762596185
 31
0.0
  0
ARC
  5
238
330
1F
100
AcDbEntity
  8
0
  6
CONTINUOUS
 62
     7
100
AcDbCircle
 10
-235.0000000000532
 20
215.0000000000724
 30
0.0
 40
92.74999999988253
100
AcDbArc
 50
195.3650166616719
 51
197.871808318294
  0
ARC
  5
239
330
1F
100
AcDbEntity
  8
0
  6
CONTINUOUS
 62
     7
100
AcDbCircle
 10
-235.0000000000532
 20
215.0000000000724
 30
0.0
 40
92.74999999988253
100
AcDbArc
 50
163.3650166616717
 51
165.8718083182938
  0
LINE
  5
23A
330
1F
100
AcDbEntity
  8
0
  6
CONTINUOUS
 62
     7
100
AcDbLine
 10
-326.6986689453011
 20
228.9253945598601
 30
0.0
 11
-321.5046891610142
 21
228.1601197998344
 31
0.0
  0
LINE
  5
23B
330
1F
100
AcDbEntity
  8
0
  6
CONTINUOUS
 62
     7
100
AcDbLine
 10
-242.3924415562805
 20
307.1780549178532
 30
0.0
 11
-242.4277911518344
 21
306.9491190536472
 31
0.0
  0
ARC
  5
23C
330
1F
100
AcDbEntity
  8
0
  6
CONTINUOUS
 62
     7
100
AcDbCircle
 10
249.62169860969
 20
318.8482350825153
 30
0.0
 40
1.499999999998114
210
0.0
220
0.0
230
-1.0
100
AcDbArc
 50
359.3815875100171
 51
89.38158751001714
  0
ARC
  5
23D
330
1F
100
AcDbEntity
  8
0
  6
CONTINUOUS
 62
     7
100
AcDbCircle
 10
-235.0000000000532
 20
215.0000000000724
 30
0.0
 40
92.74999999988253
100
AcDbArc
 50
183.3650166616719
 51
185.8718083182938
  0
LINE
  5
23E
330
1F
100
AcDbEntity
  8
0
  6
CONTINUOUS
 62
     7
100
AcDbLine
 10
-244.1993144682256
 20
122.7073398732147
 30
0.0
 11
-243.7391523706815
 21
122.9194093367295
 31
0.0
  0
LINE
  5
23F
330
1F
100
AcDbEntity
  8
0
  6
CONTINUOUS
 62
     7
100
AcDbLine
 10
-287.5357418141209
 20
152.9701303134837
 30
0.0
 11
-290.5129592935353
 21
149.3432307339903
 31
0.0
  0
LINE
  5
240
330
1F
100
AcDbEntity
  8
0
  6
CONTINUOUS
 62
     7
100
AcDbLine
 10
-276.0899855647207
 20
139.4744209802811
 30
0.0
 11
-273.78780321115
 21
143.5632081953814
 31
0.0
  0
LINE
  5
241
330
1F
100
AcDbEntity
  8
0
  6
CONTINUOUS
 62
     7
100
AcDbLine
 10
-240.4365956489441
 20
122.8077730629489
 30
0.0
 11
-239.9689207676614
 21
122.3831963066754
 31
0.0
  0
LINE
  5
242
330
1F
100
AcDbEntity
  8
0
  6
CONTINUOUS
 62
     7
100
AcDbLine
 10
-311.526747336043
 20
260.3834434806135
 30
0.0
 11
-314.8196693101154
 21
262.2375157180725
 31
0.0
  0
ARC
  5
243
330
1F
100
AcDbEntity
  8
0
  6
CONTINUOUS
 62
     7
100
AcDbCircle
 10
-235.0000000000531
 20
215.0000000000724
 30
0.0
 40
92.74999999988253
100
AcDbArc
 50
96.67423761722183
 51
112.4719685447277
  0
LINE
  5
244
330
1F
100
AcDbEntity
  8
0
  6
CONTINUOUS
 62
     7
100
AcDbLine
 10
-242.8367588583849
 20
306.9173972558181
 30
0.0
 11
-242.3780804209785
 21
307.4560783793679
 31
0.0
  0
LINE
  5
245
330
1F
100
AcDbEntity
  8
0
  6
CONTINUOUS
 62
     7
100
AcDbLine
 10
-267.1377110983165
 20
294.7381183961317
 30
0.0
 11
-265.4848669075406
 21
290.3450847164784
 31
0.0
  0
LINE
  5
246
330
1F
100
AcDbEntity
  8
0
  6
CONTINUOUS
 62
     7
100
AcDbLine
 10
-266.4052367804086
 20
131.7551136541368
 30
0.0
 11
-267.6593315945059
 21
128.1902622987087
 31
0.0
  0
LINE
  5
247
330
1F
100
AcDbEntity
  8
0
  6
CONTINUOUS
 62
     7
100
AcDbLine
 10
-240.3806977684587
 20
122.4062065174578
 30
0.0
 11
-240.8508967691349
 21
122.9348615671581
 31
0.0
  0
LINE
  5
248
330
1F
100
AcDbEntity
  8
0
  6
CONTINUOUS
 62
     7
100
AcDbLine
 10
-327.7443041456145
 20
216.0278854662369
 30
0.0
 11
-322.4943661541067
 21
215.992920580473
 31
0.0
  0
LINE
  5
249
330
1F
100
AcDbEntity
  8
0
  6
CONTINUOUS
 62
     7
100
AcDbLine
 10
-290.0195711928125
 20
281.0707710394985
 30
0.0
 11
-291.823304904311
 21
283.1738551040326
 31
0.0
  0
LINE
  5
24A
330
1F
100
AcDbEntity
  8
0
  6
CONTINUOUS
 62
     7
100
AcDbLine
 10
-251.1054215517055
 20
317.3321327669294
 30
0.0
 11
-251.1216112384906
 21
318.8320453957299
 31
0.0
  0
LINE
  5
24B
330
1F
100
AcDbEntity
  8
0
  6
CONTINUOUS
 62
     7
100
AcDbLine
 10
-240.4413396303949
 20
122.9119747245234
 30
0.0
 11
-240.4365937896731
 21
122.8077733439697
 31
0.0
  0
LINE
  5
24C
330
1F
100
AcDbEntity
  8
0
  6
CONTINUOUS
 62
     7
100
AcDbLine
 10
-248.8766413376275
 20
110.8441608687137
 30
0.0
 11
-248.8928310244126
 21
112.3440734975141
 31
0.0
  0
LINE
  5
24D
330
1F
100
AcDbEntity
  8
0
  6
CONTINUOUS
 62
     7
100
AcDbLine
 10
-241.9668960324614
 20
307.4879714323062
 30
0.0
 11
-242.3924415562805
 21
307.1780549178532
 31
0.0
  0
ARC
  5
24E
330
1F
100
AcDbEntity
  8
0
  6
CONTINUOUS
 62
     7
100
AcDbCircle
 10
-301.7217892214807
 20
160.7394909435705
 30
0.0
 40
0.9999999999986686
100
AcDbArc
 50
310.6184124899831
 51
39.11922393920798
  0
LINE
  5
24F
330
1F
100
AcDbEntity
  8
0
  6
CONTINUOUS
 62
     7
100
AcDbLine
 10
-248.8928310244126
 20
112.3440734975141
 30
0.0
 11
-248.9615218906576
 21
118.7080198253213
 31
0.0
  0
LINE
  5
250
330
1F
100
AcDbEntity
  8
0
  6
CONTINUOUS
 62
     7
100
AcDbLine
 10
-275.3207288678838
 20
285.5829138309456
 30
0.0
 11
-277.7106312900444
 21
289.6210558408323
 31
0.0
  0
LINE
  5
251
330
1F
100
AcDbEntity
  8
0
  6
CONTINUOUS
 62
     7
100
AcDbLine
 10
-269.5255099910185
 20
301.084561100422
 30
0.0
 11
-268.1947600728583
 21
297.547609921177
 31
0.0
  0
ARC
  5
252
330
1F
100
AcDbEntity
  8
0
  6
CONTINUOUS
 62
     7
100
AcDbCircle
 10
287.8076780096395
 20
147.1225431884388
 30
0.0
 40
0.9999999999987241
210
0.0
220
0.0
230
-1.0
100
AcDbArc
 50
39.38158751001746
 51
127.8823989592423
  0
ARC
  5
253
330
1F
100
AcDbEntity
  8
0
  6
CONTINUOUS
 62
     7
100
AcDbCircle
 10
235.0000000000531
 20
215.0000000000724
 30
0.0
 40
96.49999999987782
210
0.0
220
0.0
230
-1.0
100
AcDbArc
 50
278.8266920801226
 51
79.93648293991157
  0
LINE
  5
254
330
1F
100
AcDbEntity
  8
0
  6
CONTINUOUS
 62
     7
100
AcDbLine
 10
-240.8508967691349
 20
122.9348615671581
 30
0.0
 11
-240.5706611358492
 21
127.6775072820516
 31
0.0
  0
LINE
  5
255
330
1F
100
AcDbEntity
  8
0
  6
CONTINUOUS
 62
     7
100
AcDbLine
 10
-275.9662320168015
 20
144.7897675859898
 30
0.0
 11
-278.2684143703723
 21
140.7009803708895
 31
0.0
  0
ARC
  5
256
330
1F
100
AcDbEntity
  8
0
  6
CONTINUOUS
 62
     7
100
AcDbCircle
 10
-235.0000000000531
 20
215.0000000000724
 30
0.0
 40
83.49999999989622
100
AcDbArc
 50
183.3848551934082
 51
183.618412489983
  0
LINE
  5
257
330
1F
100
AcDbEntity
  8
0
  6
CONTINUOUS
 62
     7
100
AcDbLine
 10
-245.632244319365
 20
306.6338799618933
 30
0.0
 11
-245.7268676225018
 21
306.8734912904708
 31
0.0
  0
ARC
  5
258
330
1F
100
AcDbEntity
  8
0
  6
CONTINUOUS
 62
     7
100
AcDbCircle
 10
-235.0000000000532
 20
215.0000000000724
 30
0.0
 40
92.74999999988253
100
AcDbArc
 50
171.3650166616718
 51
173.8718083182939
  0
ARC
  5
259
330
1F
100
AcDbEntity
  8
0
  6
CONTINUOUS
 62
     7
100
AcDbCircle
 10
-235.0000000000531
 20
215.0000000000724
 30
0.0
 40
92.74999999988253
100
AcDbArc
 50
92.67423761722188
 51
94.56258736274395
  0
ARC
  5
25A
330
1F
100
AcDbEntity
  8
0
  6
CONTINUOUS
 62
     7
100
AcDbCircle
 10
-235.0000000000532
 20
215.0000000000724
 30
0.0
 40
92.74999999988253
100
AcDbArc
 50
199.365016661672
 51
212.471968544728
  0
LINE
  5
25B
330
1F
100
AcDbEntity
  8
0
  6
CONTINUOUS
 62
     7
100
AcDbLine
 10
-245.7797906226358
 20
307.1214340646229
 30
0.0
 11
-245.2249350153164
 21
306.6824596726177
 31
0.0
  0
LINE
  5
25C
330
1F
100
AcDbEntity
  8
0
  6
CONTINUOUS
 62
     7
100
AcDbLine
 10
-279.8620772843875
 20
288.3477608501067
 30
0.0
 11
-277.472174862227
 21
284.3096188402201
 31
0.0
  0
LINE
  5
25D
330
1F
100
AcDbEntity
  8
0
  6
CONTINUOUS
 62
     7
100
AcDbLine
 10
-239.2142883649489
 20
307.1523323075103
 30
0.0
 11
-239.2299002176383
 21
307.2554667865608
 31
0.0
  0
LINE
  5
25E
330
1F
100
AcDbEntity
  8
0
  6
CONTINUOUS
 62
     7
100
AcDbLine
 10
-304.3845023145547
 20
270.338533939335
 30
0.0
 11
-302.2429746558146
 21
268.5806155193438
 31
0.0
  0
ARC
  5
25F
330
1F
100
AcDbEntity
  8
0
  6
CONTINUOUS
 62
     7
100
AcDbCircle
 10
-249.9610045358286
 20
118.6546921576353
 30
0.0
 40
0.9999999999986686
100
AcDbArc
 50
0.618412489981877
 51
81.17330791987743
  0
LINE
  5
260
330
1F
100
AcDbEntity
  8
0
  6
CONTINUOUS
 62
     7
100
AcDbLine
 10
-251.0367306854604
 20
310.9681864391226
 30
0.0
 11
-251.1054215517055
 21
317.3321327669294
 31
0.0
  0
LINE
  5
261
330
1F
100
AcDbEntity
  8
0
  6
CONTINUOUS
 62
     7
100
AcDbLine
 10
-239.3274651978747
 20
307.6489910627803
 30
0.0
 11
-238.8045824965781
 21
307.172381219727
 31
0.0
  0
LINE
  5
262
330
1F
100
AcDbEntity
  8
0
  6
CONTINUOUS
 62
     7
100
AcDbLine
 10
-237.2832854397114
 20
122.5541855562123
 30
0.0
 11
-237.2241991788684
 21
122.7781722468999
 31
0.0
  0
ARC
  5
263
330
1F
100
AcDbEntity
  8
0
  6
CONTINUOUS
 62
     7
100
AcDbCircle
 10
-235.0000000000532
 20
215.0000000000724
 30
0.0
 40
92.74999999988253
100
AcDbArc
 50
191.3650166616719
 51
193.871808318294
  0
ARC
  5
264
330
1F
100
AcDbEntity
  8
0
  6
CONTINUOUS
 62
     7
100
AcDbCircle
 10
-235.0000000000531
 20
215.0000000000724
 30
0.0
 40
83.49999999989582
100
AcDbArc
 50
167.3848551934082
 51
167.618412489983
  0
LINE
  5
265
330
1F
100
AcDbEntity
  8
0
  6
CONTINUOUS
 62
     7
100
AcDbLine
 10
-315.4168541308044
 20
192.5193511728264
 30
0.0
 11
-324.3253080315164
 21
190.0289798955567
 31
0.0
  0
LINE
  5
266
330
1F
100
AcDbEntity
  8
0
  6
CONTINUOUS
 62
     7
100
AcDbLine
 10
-239.2298983979273
 20
307.2554672603889
 30
0.0
 11
-239.7393916631491
 21
307.6288328041179
 31
0.0
  0
LINE
  5
267
330
1F
100
AcDbEntity
  8
0
  6
CONTINUOUS
 62
     7
100
AcDbLine
 10
-239.925295728966
 20
131.6453872785
 30
0.0
 11
-240.441339630395
 21
122.9119747245234
 31
0.0
  0
LINE
  5
268
330
1F
100
AcDbEntity
  8
0
  6
CONTINUOUS
 62
     7
100
AcDbLine
 10
-278.2684143703723
 20
140.7009803708896
 30
0.0
 11
-279.6277536841792
 21
138.2867279991537
 31
0.0
  0
LINE
  5
269
330
1F
100
AcDbEntity
  8
0
  6
CONTINUOUS
 62
     7
100
AcDbLine
 10
-235.9443983958489
 20
302.4949033467745
 30
0.0
 11
-236.1062952636996
 21
317.4940296347802
 31
0.0
  0
LINE
  5
26A
330
1F
100
AcDbEntity
  8
0
  6
CONTINUOUS
 62
     7
100
AcDbLine
 10
-234.0556016042573
 20
127.5050966533707
 30
0.0
 11
-233.8937047364066
 21
112.5059703653648
 31
0.0
  0
ARC
  5
26B
330
1F
100
AcDbEntity
  8
0
  6
CONTINUOUS
 62
     7
100
AcDbCircle
 10
-235.0000000000531
 20
215.0000000000724
 30
0.0
 40
92.74999999988253
100
AcDbArc
 50
266.6742376172219
 51
268.562587362744
  0
LINE
  5
26C
330
1F
100
AcDbEntity
  8
0
  6
CONTINUOUS
 62
     7
100
AcDbLine
 10
-243.7391523706815
 20
122.9194093367295
 30
0.0
 11
-243.651850647756
 21
123.1579722758724
 31
0.0
  0
LINE
  5
26D
330
1F
100
AcDbEntity
  8
0
  6
CONTINUOUS
 62
     7
100
AcDbLine
 10
-233.8937047364066
 20
112.5059703653648
 30
0.0
 11
-233.8613253628365
 21
109.5061451077644
 31
0.0
  0
ARC
  5
26E
330
1F
100
AcDbEntity
  8
0
  6
CONTINUOUS
 62
     7
100
AcDbCircle
 10
247.3767287088269
 20
110.8603505554985
 30
0.0
 40
1.499999999998086
210
0.0
220
0.0
230
-1.0
100
AcDbArc
 50
269.3815875100171
 51
359.3815875100165
  0
LINE
  5
26F
330
1F
100
AcDbEntity
  8
0
  6
CONTINUOUS
 62
     7
100
AcDbLine
 10
-286.964760757349
 20
277.5089796808081
 30
0.0
 11
-290.0195711928124
 21
281.0707710394985
 31
0.0
  0
LINE
  5
270
330
1F
100
AcDbEntity
  8
0
  6
CONTINUOUS
 62
     7
100
AcDbLine
 10
-285.6591535815553
 20
155.2562236602531
 30
0.0
 11
-287.535741814121
 21
152.9701303134837
 31
0.0
  0
ARC
  5
271
330
1F
100
AcDbEntity
  8
0
  6
CONTINUOUS
 62
     7
100
AcDbCircle
 10
-235.0000000000532
 20
215.0000000000724
 30
0.0
 40
92.74999999988253
100
AcDbArc
 50
175.3650166616719
 51
177.8718083182939
  0
ARC
  5
272
330
1F
100
AcDbEntity
  8
0
  6
CONTINUOUS
 62
     7
100
AcDbCircle
 10
252.0371315453569
 20
310.9999278577617
 30
0.0
 40
0.9999999999986686
210
0.0
220
0.0
230
-1.0
100
AcDbArc
 50
179.3815875100182
 51
259.936482939912
  0
ARC
  5
273
330
1F
100
AcDbEntity
  8
0
  6
CONTINUOUS
 62
     7
100
AcDbCircle
 10
-235.0000000000531
 20
215.0000000000724
 30
0.0
 40
92.74999999988253
100
AcDbArc
 50
248.7648564352381
 51
264.562587362744
  0
LINE
  5
274
330
1F
100
AcDbEntity
  8
0
  6
CONTINUOUS
 62
     7
100
AcDbLine
 10
-295.2639250965029
 20
164.9607355679682
 30
0.0
 11
-297.5089796807881
 21
163.0352392427763
 31
0.0
  0
ARC
  5
275
330
1F
100
AcDbEntity
  8
0
  6
CONTINUOUS
 62
     7
100
AcDbCircle
 10
-235.0000000000532
 20
215.0000000000724
 30
0.0
 40
92.74999999988253
100
AcDbArc
 50
167.3650166616718
 51
169.8718083182938
  0
ARC
  5
276
330
1F
100
AcDbEntity
  8
0
  6
CONTINUOUS
 62
     7
100
AcDbCircle
 10
-272.5192048279324
 20
282.8126777901945
 30
0.0
 40
0.9999999999987796
100
AcDbArc
 50
210.6184124899843
 51
298.9547528686268
  0
ARC
  5
277
330
1F
100
AcDbEntity
  8
0
  6
CONTINUOUS
 62
     7
100
AcDbCircle
 10
-235.0000000000532
 20
215.0000000000724
 30
0.0
 40
92.74999999988253
100
AcDbArc
 50
187.3650166616719
 51
189.8718083182939
  0
LINE
  5
278
330
1F
100
AcDbEntity
  8
0
  6
CONTINUOUS
 62
     7
100
AcDbLine
 10
-262.5863774648447
 20
142.6104857155209
 30
0.0
 11
-262.8696115811612
 21
141.805373125863
 31
0.0
  0
LINE
  5
279
330
1F
100
AcDbEntity
  8
0
  6
CONTINUOUS
 62
     7
100
AcDbLine
 10
-265.4848669075406
 20
290.3450847164784
 30
0.0
 11
-264.443023847133
 21
287.5760084303859
 31
0.0
  0
LINE
  5
27A
330
1F
100
AcDbEntity
  8
0
  6
CONTINUOUS
 62
     7
100
AcDbLine
 10
-283.726809807344
 20
153.6700182705735
 30
0.0
 11
-283.1854678185704
 21
154.3294907629326
 31
0.0
  0
LINE
  5
27B
330
1F
100
AcDbEntity
  8
0
  6
CONTINUOUS
 62
     7
100
AcDbLine
 10
-297.0298696866415
 20
267.5357418141405
 30
0.0
 11
-300.6567692661349
 21
270.5129592935551
 31
0.0
  0
ARC
  5
27C
330
1F
100
AcDbEntity
  8
0
  6
CONTINUOUS
 62
     7
100
AcDbCircle
 10
-287.1405313355305
 20
272.337727475421
 30
0.0
 40
0.9999999999987796
100
AcDbArc
 50
312.2820721113393
 51
40.61841248998252
  0
LINE
  5
27D
330
1F
100
AcDbEntity
  8
0
  6
CONTINUOUS
 62
     7
100
AcDbLine
 10
-233.8613253628365
 20
109.5061451077636
 30
0.0
 11
-247.3605390220418
 21
109.360437926698
 31
0.0
  0
ARC
  5
27E
330
1F
100
AcDbEntity
  8
0
  6
CONTINUOUS
 62
     7
100
AcDbCircle
 10
-276.3918076177499
 20
280.520746806888
 30
0.0
 40
0.9999999999988352
100
AcDbArc
 50
302.282072111338
 51
30.6184124899836
  0
ARC
  5
27F
330
1F
100
AcDbEntity
  8
0
  6
CONTINUOUS
 62
     7
100
AcDbCircle
 10
235.0000000000531
 20
215.0000000000724
 30
0.0
 40
76.49999999990311
210
0.0
220
0.0
230
-1.0
100
AcDbArc
 50
291.6000429245928
 51
297.7179278886608
  0
LINE
  5
280
330
1F
100
AcDbEntity
  8
0
  6
CONTINUOUS
 62
     7
100
AcDbLine
 10
-275.9657807901054
 20
281.7643127517064
 30
0.0
 11
-275.5312292200127
 21
281.0300648031783
 31
0.0
  0
ARC
  5
281
330
1F
100
AcDbEntity
  8
0
  6
CONTINUOUS
 62
     7
100
AcDbCircle
 10
-271.0467274008346
 20
146.393269691181
 30
0.0
 40
0.9999999999987241
100
AcDbArc
 50
62.28207211133919
 51
150.6184124899816
  0
LINE
  5
282
330
1F
100
AcDbEntity
  8
0
  6
CONTINUOUS
 62
     7
100
AcDbLine
 10
-273.8143347957623
 20
283.0376077424322
 30
0.0
 11
-275.3207288678838
 21
285.5829138309457
 31
0.0
  0
LINE
  5
283
330
1F
100
AcDbEntity
  8
0
  6
CONTINUOUS
 62
     7
100
AcDbLine
 10
-303.9067819952267
 20
171.8947300628691
 30
0.0
 11
-301.3606883488551
 21
173.4015902370811
 31
0.0
  0
ARC
  5
284
330
1F
100
AcDbEntity
  8
0
  6
CONTINUOUS
 62
     7
100
AcDbCircle
 10
235.0000000000531
 20
215.0000000000724
 30
0.0
 40
76.49999999990311
210
0.0
220
0.0
230
-1.0
100
AcDbArc
 50
61.04524713137337
 51
67.16313209544144
  0
LINE
  5
285
330
1F
100
AcDbEntity
  8
0
  6
CONTINUOUS
 62
     7
100
AcDbLine
 10
-291.9172265334566
 20
279.4432255844937
 30
0.0
 11
-288.8624160979932
 21
275.881434225803
 31
0.0
  0
LINE
  5
286
330
1F
100
AcDbEntity
  8
0
  6
CONTINUOUS
 62
     7
100
AcDbLine
 10
-277.472174862227
 20
284.30961884022
 30
0.0
 11
-275.9657807901054
 21
281.7643127517063
 31
0.0
  0
ARC
  5
287
330
1F
100
AcDbEntity
  8
0
  6
CONTINUOUS
 62
     7
100
AcDbCircle
 10
-282.4125303088858
 20
153.6950086070607
 30
0.0
 40
0.9999999999987241
100
AcDbArc
 50
52.28207211133975
 51
140.6184124899829
  0
LINE
  5
288
330
1F
100
AcDbEntity
  8
0
  6
CONTINUOUS
 62
     7
100
AcDbLine
 10
-307.9460622404974
 20
169.5041539963704
 30
0.0
 11
-303.9067819952267
 21
171.8947300628691
 31
0.0
  0
LINE
  5
289
330
1F
100
AcDbEntity
  8
0
  6
CONTINUOUS
 62
     7
100
AcDbLine
 10
-298.6160750763212
 20
265.6033980399295
 30
0.0
 11
-296.3299817295518
 21
263.7268098073638
 31
0.0
  0
ARC
  5
28A
330
1F
100
AcDbEntity
  8
0
  6
CONTINUOUS
 62
     7
100
AcDbCircle
 10
-274.9678992510075
 20
148.6010765942763
 30
0.0
 40
0.9999999999987241
100
AcDbArc
 50
330.6184124899823
 51
58.95475286862688
  0
ARC
  5
28B
330
1F
100
AcDbEntity
  8
0
  6
CONTINUOUS
 62
     7
100
AcDbCircle
 10
235.0000000000531
 20
215.0000000000724
 30
0.0
 40
76.49999999990311
210
0.0
220
0.0
230
-1.0
100
AcDbArc
 50
41.04524713137339
 51
47.71792788866112
  0
LINE
  5
28C
330
1F
100
AcDbEntity
  8
0
  6
CONTINUOUS
 62
     7
100
AcDbLine
 10
-294.7437763398721
 20
265.6591535815753
 30
0.0
 11
-297.0298696866415
 21
267.5357418141404
 31
0.0
  0
LINE
  5
28D
330
1F
100
AcDbEntity
  8
0
  6
CONTINUOUS
 62
     7
100
AcDbLine
 10
-288.580615519324
 20
147.7570253443107
 30
0.0
 11
-285.6033980399096
 21
151.3839249238041
 31
0.0
  0
ARC
  5
28E
330
1F
100
AcDbEntity
  8
0
  6
CONTINUOUS
 62
     7
100
AcDbCircle
 10
235.0000000000531
 20
215.0000000000724
 30
0.0
 40
76.49999999990311
210
0.0
220
0.0
230
-1.0
100
AcDbArc
 50
311.0452471313732
 51
317.7179278886608
  0
LINE
  5
28F
330
1F
100
AcDbEntity
  8
0
  6
CONTINUOUS
 62
     7
100
AcDbLine
 10
-288.8624160979932
 20
275.881434225803
 30
0.0
 11
-286.9369197728014
 21
273.6363796415179
 31
0.0
  0
ARC
  5
290
330
1F
100
AcDbEntity
  8
0
  6
CONTINUOUS
 62
     7
100
AcDbCircle
 10
-283.724751722371
 20
275.2673092944298
 30
0.0
 40
0.9999999999987241
100
AcDbArc
 50
220.618412489983
 51
308.954752868626
  0
LINE
  5
291
330
1F
100
AcDbEntity
  8
0
  6
CONTINUOUS
 62
     7
100
AcDbLine
 10
-274.0965277287468
 20
148.110452838033
 30
0.0
 11
-274.5151293198024
 21
147.366996164814
 31
0.0
  0
LINE
  5
292
330
1F
100
AcDbEntity
  8
0
  6
CONTINUOUS
 62
     7
100
AcDbLine
 10
-274.5151293198024
 20
147.366996164814
 30
0.0
 11
-275.9662320168015
 21
144.7897675859898
 31
0.0
  0
LINE
  5
293
330
1F
100
AcDbEntity
  8
0
  6
CONTINUOUS
 62
     7
100
AcDbLine
 10
-237.7388948776225
 20
122.2904484165078
 30
0.0
 11
-237.2832854397114
 21
122.5541855562123
 31
0.0
  0
LINE
  5
294
330
1F
100
AcDbEntity
  8
0
  6
CONTINUOUS
 62
     7
100
AcDbLine
 10
-295.8814342257832
 20
161.1375839021322
 30
0.0
 11
-293.636379641498
 21
163.0630802273241
 31
0.0
  0
LINE
  5
295
330
1F
100
AcDbEntity
  8
0
  6
CONTINUOUS
 62
     7
100
AcDbLine
 10
-304.8211547752699
 20
256.6078748213703
 30
0.0
 11
-308.9110945011721
 21
258.9107060935299
 31
0.0
  0
LINE
  5
296
330
1F
100
AcDbEntity
  8
0
  6
CONTINUOUS
 62
     7
100
AcDbLine
 10
-286.9369197728014
 20
273.6363796415178
 30
0.0
 11
-286.3814691992728
 21
272.9887456574228
 31
0.0
  0
LINE
  5
297
330
1F
100
AcDbEntity
  8
0
  6
CONTINUOUS
 62
     7
100
AcDbLine
 10
-297.5089796807881
 20
163.0352392427763
 30
0.0
 11
-301.0707710394788
 21
159.9804288073128
 31
0.0
  0
LINE
  5
298
330
1F
100
AcDbEntity
  8
0
  6
CONTINUOUS
 62
     7
100
AcDbLine
 10
-302.2429746558146
 20
268.5806155193439
 30
0.0
 11
-298.6160750763212
 21
265.6033980399294
 31
0.0
  0
LINE
  5
299
330
1F
100
AcDbEntity
  8
0
  6
CONTINUOUS
 62
     7
100
AcDbLine
 10
-264.443023847133
 20
287.5760084303859
 30
0.0
 11
-264.1424773710042
 21
286.7771970243843
 31
0.0
  0
LINE
  5
29A
330
1F
100
AcDbEntity
  8
0
  6
CONTINUOUS
 62
     7
100
AcDbLine
 10
-285.6033980399096
 20
151.3839249238041
 30
0.0
 11
-283.726809807344
 21
153.6700182705735
 31
0.0
  0
LINE
  5
29B
330
1F
100
AcDbEntity
  8
0
  6
CONTINUOUS
 62
     7
100
AcDbLine
 10
-228.2766431584354
 20
131.7711199597506
 30
0.0
 11
-227.5722088490639
 21
123.0508809463977
 31
0.0
  0
LINE
  5
29C
330
1F
100
AcDbEntity
  8
0
  6
CONTINUOUS
 62
     7
100
AcDbLine
 10
-243.2435876472283
 20
123.1181956513467
 30
0.0
 11
-243.7888387239736
 21
122.6673469792644
 31
0.0
  0
ARC
  5
29D
330
1F
100
AcDbEntity
  8
0
  6
CONTINUOUS
 62
     7
100
AcDbCircle
 10
-263.5297068169127
 20
142.9423437175701
 30
0.0
 40
0.9999999999987241
100
AcDbArc
 50
340.618412489984
 51
68.39995707540714
  0
LINE
  5
29E
330
1F
100
AcDbEntity
  8
0
  6
CONTINUOUS
 62
     7
100
AcDbLine
 10
-285.0392644321572
 20
275.2639250965228
 30
0.0
 11
-286.964760757349
 21
277.5089796808081
 31
0.0
  0
LINE
  5
29F
330
1F
100
AcDbEntity
  8
0
  6
CONTINUOUS
 62
     7
100
AcDbLine
 10
-272.3367005141508
 20
146.1404367742056
 30
0.0
 11
-271.9180989230952
 21
146.8838934474243
 31
0.0
  0
ARC
  5
2A0
330
1F
100
AcDbEntity
  8
0
  6
CONTINUOUS
 62
     7
100
AcDbCircle
 10
-265.0784237910794
 20
286.4250545833956
 30
0.0
 40
0.9999999999986686
100
AcDbArc
 50
292.8368679045569
 51
20.61841248998195
  0
LINE
  5
2A1
330
1F
100
AcDbEntity
  8
0
  6
CONTINUOUS
 62
     7
100
AcDbLine
 10
-302.2431287612654
 20
255.1563231303042
 30
0.0
 11
-304.8211547752699
 21
256.6078748213703
 31
0.0
  0
LINE
  5
2A2
330
1F
100
AcDbEntity
  8
0
  6
CONTINUOUS
 62
     7
100
AcDbLine
 10
-299.4432255844739
 20
158.0827734666687
 30
0.0
 11
-295.8814342257832
 21
161.1375839021322
 31
0.0
  0
LINE
  5
2A3
330
1F
100
AcDbEntity
  8
0
  6
CONTINUOUS
 62
     7
100
AcDbLine
 10
-273.3797832256696
 20
282.3033597939042
 30
0.0
 11
-273.8143347957623
 21
283.0376077424323
 31
0.0
  0
LINE
  5
2A4
330
1F
100
AcDbEntity
  8
0
  6
CONTINUOUS
 62
     7
100
AcDbLine
 10
-159.4706833514358
 20
262.0246991120781
 30
0.0
 11
-162.0539377592022
 21
260.4958460031627
 31
0.0
  0
ARC
  5
2A5
330
1F
100
AcDbEntity
  8
0
  6
CONTINUOUS
 62
     7
100
AcDbCircle
 10
-235.0000000000532
 20
215.0000000000724
 30
0.0
 40
92.74999999988253
100
AcDbArc
 50
148.7648564352378
 51
161.8718083182939
  0
LINE
  5
2A6
330
1F
100
AcDbEntity
  8
0
  6
CONTINUOUS
 62
     7
100
AcDbLine
 10
-284.4838138586287
 20
274.6162911124279
 30
0.0
 11
-285.0392644321572
 21
275.2639250965228
 31
0.0
  0
ARC
  5
2A7
330
1F
100
AcDbEntity
  8
0
  6
CONTINUOUS
 62
     7
100
AcDbCircle
 10
-235.0000000000532
 20
215.0000000000724
 30
0.0
 40
92.74999999988253
100
AcDbArc
 50
179.3650166616719
 51
181.8718083182939
  0
LINE
  5
2A8
330
1F
100
AcDbEntity
  8
0
  6
CONTINUOUS
 62
     7
100
AcDbLine
 10
-273.78780321115
 20
143.5632081953814
 30
0.0
 11
-272.3367005141508
 21
146.1404367742056
 31
0.0
  0
ARC
  5
2A9
330
1F
100
AcDbEntity
  8
0
  6
CONTINUOUS
 62
     7
100
AcDbCircle
 10
235.0000000000531
 20
215.0000000000724
 30
0.0
 40
76.49999999990311
210
0.0
220
0.0
230
-1.0
100
AcDbArc
 50
51.04524713137339
 51
57.71792788866107
  0
ARC
  5
2AA
330
1F
100
AcDbEntity
  8
0
  6
CONTINUOUS
 62
     7
100
AcDbCircle
 10
235.0000000000531
 20
215.0000000000724
 30
0.0
 40
76.49999999990311
210
0.0
220
0.0
230
-1.0
100
AcDbArc
 50
301.0452471313731
 51
307.7179278886608
  0
LINE
  5
2AB
330
1F
100
AcDbEntity
  8
0
  6
CONTINUOUS
 62
     7
100
AcDbLine
 10
-262.8696115811612
 20
141.805373125863
 30
0.0
 11
-263.8514414211111
 21
139.014453813861
 31
0.0
  0
ARC
  5
2AC
330
1F
100
AcDbEntity
  8
0
  6
CONTINUOUS
 62
     7
100
AcDbCircle
 10
-285.8907491024663
 20
156.5501783084844
 30
0.0
 40
0.9999999999987241
100
AcDbArc
 50
320.618412489983
 51
48.954752868627
  0
LINE
  5
2AD
330
1F
100
AcDbEntity
  8
0
  6
CONTINUOUS
 62
     7
100
AcDbLine
 10
-285.1178115927818
 20
155.9156961526125
 30
0.0
 11
-285.6591535815553
 21
155.2562236602531
 31
0.0
  0
LINE
  5
2AE
330
1F
100
AcDbEntity
  8
0
  6
CONTINUOUS
 62
     7
100
AcDbLine
 10
-236.1386746372697
 20
320.4938548923811
 30
0.0
 11
-236.1062952636995
 21
317.4940296347802
 31
0.0
  0
ARC
  5
2AF
330
1F
100
AcDbEntity
  8
0
  6
CONTINUOUS
 62
     7
100
AcDbCircle
 10
-202.7128859685706
 20
301.2499999999863
 30
0.0
 40
0.4999999999993898
210
0.0
220
0.0
230
-1.0
100
AcDbArc
 50
270.0
 51
0.0
  0
SPLINE
  5
2B0
330
1F
100
AcDbEntity
  8
0
  6
CONTINUOUS
 62
     7
100
AcDbSpline
210
0.0
220
0.0
230
1.0
 70
     8
 71
     3
 72
    17
 73
    13
 74
     0
 42
0.000000001
 43
0.0001
 40
0.0017379519113642
 40
0.0017379519113642
 40
0.0017379519113642
 40
0.0017379519113642
 40
0.0017910194694664
 40
0.0025686915135328
 40
0.0033800656981963
 40
0.0042251974627792
 40
0.005104135858816
 40
0.0060169244877446
 40
0.0069636022738616
 40
0.0079442041058535
 40
0.0089587613726635
 40
0.0093519009884309
 40
0.0093519009884309
 40
0.0093519009884309
 40
0.0093519009884309
 10
-58.38895947123451
 20
314.5939723120044
 30
0.0
 10
-58.40154186769414
 20
314.5722754699969
 30
0.0
 10
-58.60517543270011
 20
314.2367537089013
 30
0.0
 10
-59.20994694072934
 20
313.7104081479899
 30
0.0
 10
-60.37097129195673
 20
313.531773320907
 30
0.0
 10
-61.47968540554138
 20
314.0169040849639
 30
0.0
 10
-62.17472425112641
 20
315.0509327003136
 30
0.0
 10
-62.20570729327795
 20
316.3325854345747
 30
0.0
 10
-61.52296873666702
 20
317.4608144477334
 30
0.0
 10
-60.30683723615221
 20
318.0599347785824
 30
0.0
 10
-59.22046838464018
 20
317.9390783813955
 30
0.0
 10
-58.67758334521117
 20
317.6411574612213
 30
0.0
 10
-58.53644987879431
 20
317.5431080763432
 30
0.0
  0
LINE
  5
2B1
330
1F
100
AcDbEntity
  8
0
  6
CONTINUOUS
 62
     7
100
AcDbLine
 10
94.48021295665771
 20
126.0000000001614
 30
0.0
 11
202.212885968571
 21
126.0000000001614
 31
0.0
  0
LINE
  5
2B2
330
1F
100
AcDbEntity
  8
0
  6
CONTINUOUS
 62
     7
100
AcDbLine
 10
-39.78711403118701
 20
126.0000000001614
 30
0.0
 11
67.94555898072629
 21
126.0000000001614
 31
0.0
  0
LINE
  5
2B3
330
1F
100
AcDbEntity
  8
0
  6
________________
 62
     1
100
AcDbLine
 10
-89.99999999978996
 20
215.0000000000399
 30
0.0
 11
229.9999999998899
 21
215.0000000000399
 31
0.0
  0
ARC
  5
2B5
330
1F
100
AcDbEntity
  8
0
  6
CONTINUOUS
 62
     7
100
AcDbCircle
 10
208.4128859685648
 20
306.4999999999809
 30
0.0
 40
0.9999999999991127
100
AcDbArc
 50
90.0
 51
180.0
  0
LINE
  5
2B6
330
1F
100
AcDbEntity
  8
0
  6
CONTINUOUS
 62
     7
100
AcDbLine
 10
-40.2871140311864
 20
300.7499999999868
 30
0.0
 11
-40.98711403118583
 21
300.7499999999868
 31
0.0
  0
LINE
  5
2B7
330
1F
100
AcDbEntity
  8
0
  6
CONTINUOUS
 62
     7
100
AcDbLine
 10
202.212885968571
 20
303.9999999999837
 30
0.0
 11
94.48021295665765
 21
303.9999999999837
 31
0.0
  0
LINE
  5
2B8
330
1F
100
AcDbEntity
  8
0
  6
CONTINUOUS
 62
     7
100
AcDbLine
 10
93.51428713036952
 20
303.2588190450867
 30
0.0
 11
93.04301298760231
 21
301.4999999999862
 31
0.0
  0
ARC
  5
2B9
330
1F
100
AcDbEntity
  8
0
  6
CONTINUOUS
 62
     7
100
AcDbCircle
 10
40.2871140311864
 20
128.7500000001588
 30
0.0
 40
0.4999999999995564
210
0.0
220
0.0
230
-1.0
100
AcDbArc
 50
90.0
 51
180.0
  0
ARC
  5
2BA
330
1F
100
AcDbEntity
  8
0
  6
CONTINUOUS
 62
     7
100
AcDbCircle
 10
208.4128859685648
 20
123.5000000001642
 30
0.0
 40
0.9999999999990017
100
AcDbArc
 50
180.0
 51
270.0
  0
LINE
  5
2BB
330
1F
100
AcDbEntity
  8
0
  6
CONTINUOUS
 62
     7
100
AcDbLine
 10
214.212885968559
 20
307.4999999999802
 30
0.0
 11
208.4128859685649
 21
307.4999999999802
 31
0.0
  0
ARC
  5
2BC
330
1F
100
AcDbEntity
  8
0
  6
CONTINUOUS
 62
     7
100
AcDbCircle
 10
67.94555898072635
 20
302.9999999999848
 30
0.0
 40
0.9999999999988907
100
AcDbArc
 50
14.99999999999872
 51
90.0
  0
ARC
  5
2BD
330
1F
100
AcDbEntity
  8
0
  6
CONTINUOUS
 62
     7
100
AcDbCircle
 10
67.94555898072635
 20
127.0000000001607
 30
0.0
 40
0.9999999999988907
100
AcDbArc
 50
270.0
 51
345.0000000000013
  0
LINE
  5
2BE
330
1F
100
AcDbEntity
  8
0
  6
CONTINUOUS
 62
     7
100
AcDbLine
 10
69.38275894978169
 20
301.4999999999862
 30
0.0
 11
68.91148480701447
 21
303.2588190450867
 31
0.0
  0
ARC
  5
2BF
330
1F
100
AcDbEntity
  8
0
  6
CONTINUOUS
 62
     7
100
AcDbCircle
 10
40.2871140311864
 20
301.2499999999863
 30
0.0
 40
0.4999999999995564
210
0.0
220
0.0
230
-1.0
100
AcDbArc
 50
180.0
 51
270.0
  0
LINE
  5
2C0
330
1F
100
AcDbEntity
  8
0
  6
CONTINUOUS
 62
     7
100
AcDbLine
 10
208.4128859685648
 20
122.5000000001652
 30
0.0
 11
214.2128859685589
 21
122.5000000001652
 31
0.0
  0
LINE
  5
2C1
330
1F
100
AcDbEntity
  8
0
  6
CONTINUOUS
 62
     7
100
AcDbLine
 10
93.04301298760225
 20
128.5000000001589
 30
0.0
 11
93.51428713036947
 21
126.7411809550584
 31
0.0
  0
LINE
  5
2C2
330
1F
100
AcDbEntity
  8
0
  6
CONTINUOUS
 62
     7
100
AcDbLine
 10
206.9128859685662
 20
300.7499999999868
 30
0.0
 11
202.7128859685705
 21
300.7499999999868
 31
0.0
  0
ARC
  5
2C3
330
1F
100
AcDbEntity
  8
0
  6
CONTINUOUS
 62
     7
100
AcDbCircle
 10
-202.7128859685706
 20
128.7500000001588
 30
0.0
 40
0.4999999999995008
210
0.0
220
0.0
230
-1.0
100
AcDbArc
 50
0.0
 51
90.0
  0
ARC
  5
2C4
330
1F
100
AcDbEntity
  8
0
  6
CONTINUOUS
 62
     7
100
AcDbCircle
 10
-206.9128859685662
 20
128.7500000001588
 30
0.0
 40
0.4999999999995008
210
0.0
220
0.0
230
-1.0
100
AcDbArc
 50
90.0
 51
180.0
  0
ARC
  5
2C5
330
1F
100
AcDbEntity
  8
0
  6
CONTINUOUS
 62
     7
100
AcDbCircle
 10
-206.9128859685662
 20
301.2499999999863
 30
0.0
 40
0.4999999999995008
210
0.0
220
0.0
230
-1.0
100
AcDbArc
 50
180.0
 51
270.0
  0
LINE
  5
2C6
330
1F
100
AcDbEntity
  8
0
  6
CONTINUOUS
 62
     7
100
AcDbLine
 10
-58.08711403116812
 20
315.6289826950488
 30
0.0
 11
-58.08711403116812
 21
315.656042997483
 31
0.0
  0
LINE
  5
2C7
330
1F
100
AcDbEntity
  8
0
  6
CONTINUOUS
 62
     7
100
AcDbLine
 10
93.04301298760225
 20
301.4999999999862
 30
0.0
 11
69.3827589497816
 21
301.4999999999862
 31
0.0
  0
LINE
  5
2C8
330
1F
100
AcDbEntity
  8
0
  6
CONTINUOUS
 62
     7
100
AcDbLine
 10
68.91148480701442
 20
126.7411809550584
 30
0.0
 11
69.38275894978163
 21
128.5000000001589
 31
0.0
  0
ARC
  5
2C9
330
1F
100
AcDbEntity
  8
0
  6
CONTINUOUS
 62
     7
100
AcDbCircle
 10
94.48021295665771
 20
127.0000000001607
 30
0.0
 40
0.9999999999990017
100
AcDbArc
 50
194.9999999999987
 51
270.0
  0
LINE
  5
2CA
330
1F
100
AcDbEntity
  8
0
  6
CONTINUOUS
 62
     7
100
AcDbLine
 10
67.94555898072635
 20
303.9999999999837
 30
0.0
 11
-39.78711403118695
 21
303.9999999999837
 31
0.0
  0
ARC
  5
2CB
330
1F
100
AcDbEntity
  8
0
  6
CONTINUOUS
 62
     7
100
AcDbCircle
 10
94.48021295665771
 20
302.9999999999848
 30
0.0
 40
0.9999999999988907
100
AcDbArc
 50
90.0
 51
165.0000000000013
  0
LINE
  5
2CC
330
1F
100
AcDbEntity
  8
0
  6
CONTINUOUS
 62
     7
100
AcDbLine
 10
69.38275894978169
 20
128.5000000001589
 30
0.0
 11
93.04301298760234
 21
128.5000000001589
 31
0.0
  0
LINE
  5
2CD
330
1F
100
AcDbEntity
  8
0
  6
CONTINUOUS
 62
     7
100
AcDbLine
 10
202.7128859685706
 20
129.2500000001583
 30
0.0
 11
206.9128859685663
 21
129.2500000001583
 31
0.0
  0
LINE
  5
2CE
330
1F
100
AcDbEntity
  8
0
  6
CONTINUOUS
 62
     7
100
AcDbLine
 10
-40.98711403118588
 20
129.2500000001583
 30
0.0
 11
-40.28711403118646
 21
129.2500000001583
 31
0.0
  0
ARC
  5
2CF
330
1F
100
AcDbEntity
  8
0
  6
CONTINUOUS
 62
     7
100
AcDbCircle
 10
-162.5632557554852
 20
261.3564244009044
 30
0.0
 40
0.9999999999990017
100
AcDbArc
 50
212.6175080536151
 51
300.6184124894833
  0
ARC
  5
2D0
330
1F
100
AcDbEntity
  8
0
  6
CONTINUOUS
 62
     7
100
AcDbCircle
 10
-235.000000000053
 20
215.0000000000724
 30
0.0
 40
92.49999999990743
100
AcDbArc
 50
92.6227122473316
 51
94.58522562464813
  0
ARC
  5
2D1
330
1F
100
AcDbEntity
  8
0
  6
CONTINUOUS
 62
     7
100
AcDbCircle
 10
-295.2673092944099
 20
166.2752482777545
 30
0.0
 40
0.9999999999987241
100
AcDbArc
 50
310.6184124899822
 51
38.95475286862717
  0
ARC
  5
2D2
330
1F
100
AcDbEntity
  8
0
  6
CONTINUOUS
 62
     7
100
AcDbCircle
 10
-235.000000000053
 20
215.0000000000724
 30
0.0
 40
92.49999999990754
100
AcDbArc
 50
183.6184124899828
 51
185.6184124899829
  0
LINE
  5
2D3
330
1F
100
AcDbEntity
  8
0
  6
CONTINUOUS
 62
     7
100
AcDbLine
 10
-301.499430729074
 20
254.7375856426276
 30
0.0
 11
-302.2431287612655
 21
255.1563231303042
 31
0.0
  0
LINE
  5
2D4
330
1F
100
AcDbEntity
  8
0
  6
CONTINUOUS
 62
     7
100
AcDbLine
 10
-53.98719018359549
 20
312.9062031780142
 30
0.0
 11
-47.98703787875883
 21
312.9062031780142
 31
0.0
  0
LINE
  5
2D5
330
1F
100
AcDbEntity
  8
0
  6
CONTINUOUS
 62
     7
100
AcDbLine
 10
214.212885968559
 20
221.0000000000664
 30
0.0
 11
212.7128859685605
 21
221.0000000000664
 31
0.0
  0
LINE
  5
2D6
330
1F
100
AcDbEntity
  8
0
  6
CONTINUOUS
 62
     7
100
AcDbLine
 10
-65.48711403115954
 20
317.74409122095
 30
0.0
 11
-65.9870378787372
 21
318.2439859492308
 31
0.0
  0
LINE
  5
2D7
330
1F
100
AcDbEntity
  8
0
  6
CONTINUOUS
 62
     7
100
AcDbLine
 10
93.04301298760225
 20
128.5000000001589
 30
0.0
 11
93.04301298760225
 21
215.0000000000724
 31
0.0
  0
ARC
  5
2D8
330
1F
100
AcDbEntity
  8
0
  6
CONTINUOUS
 62
     7
100
AcDbCircle
 10
-235.000000000053
 20
215.0000000000724
 30
0.0
 40
92.49999999990754
100
AcDbArc
 50
171.6184124899828
 51
173.6184124899828
  0
LINE
  5
2D9
330
1F
100
AcDbEntity
  8
0
  6
CONTINUOUS
 62
     7
100
AcDbLine
 10
-293.636379641498
 20
163.0630802273241
 30
0.0
 11
-292.9887456574032
 21
163.6185308008524
 31
0.0
  0
ARC
  5
2DA
330
1F
100
AcDbEntity
  8
0
  6
CONTINUOUS
 62
     7
100
AcDbCircle
 10
-235.000000000053
 20
215.0000000000724
 30
0.0
 40
92.49999999990754
100
AcDbArc
 50
179.6184124899829
 51
181.6184124899829
  0
ARC
  5
2DB
330
1F
100
AcDbEntity
  8
0
  6
CONTINUOUS
 62
     7
100
AcDbCircle
 10
-235.000000000053
 20
215.0000000000724
 30
0.0
 40
92.49999999990754
100
AcDbArc
 50
272.8023809026025
 51
274.5852256241571
  0
ARC
  5
2DC
330
1F
100
AcDbEntity
  8
0
  6
CONTINUOUS
 62
     7
100
AcDbCircle
 10
-235.000000000053
 20
215.0000000000724
 30
0.0
 40
92.49999999990743
100
AcDbArc
 50
351.6184124894864
 51
353.6184124894868
  0
LINE
  5
2DD
330
1F
100
AcDbEntity
  8
0
  6
CONTINUOUS
 62
     7
100
AcDbLine
 10
-294.616291112408
 20
165.5161861414968
 30
0.0
 11
-295.2639250965029
 21
164.9607355679682
 31
0.0
  0
LINE
  5
2DE
330
1F
100
AcDbEntity
  8
0
  6
CONTINUOUS
 62
     7
100
AcDbLine
 10
-65.5371140311613
 20
313.2935890814288
 30
0.0
 11
-66.03642879853803
 21
312.7943033978718
 31
0.0
  0
ARC
  5
2DF
330
1F
100
AcDbEntity
  8
0
  6
CONTINUOUS
 62
     7
100
AcDbCircle
 10
-235.000000000053
 20
215.0000000000724
 30
0.0
 40
92.49999999990749
100
AcDbArc
 50
249.3794882803329
 51
264.5783362517469
  0
ARC
  5
2E0
330
1F
100
AcDbEntity
  8
0
  6
CONTINUOUS
 62
     7
100
AcDbCircle
 10
-235.000000000053
 20
215.0000000000724
 30
0.0
 40
92.49999999990754
100
AcDbArc
 50
96.65956198359096
 51
111.8573366996329
  0
LINE
  5
2E1
330
1F
100
AcDbEntity
  8
0
  6
CONTINUOUS
 62
     7
100
AcDbLine
 10
-265.6968651896034
 20
127.7420349337392
 30
0.0
 11
-265.7798296901036
 21
127.5062025957567
 31
0.0
  0
LINE
  5
2E2
330
1F
100
AcDbEntity
  8
0
  6
CONTINUOUS
 62
     7
100
AcDbLine
 10
-75.9871140311505
 20
112.3602631842992
 30
0.0
 11
-75.9871140311505
 21
112.5059703653648
 31
0.0
  0
ARC
  5
2E3
330
1F
100
AcDbEntity
  8
0
  6
CONTINUOUS
 62
     7
100
AcDbCircle
 10
-293.449821691641
 20
265.890749102486
 30
0.0
 40
0.9999999999987796
100
AcDbArc
 50
230.6184124899835
 51
318.9547528686267
  0
LINE
  5
2E4
330
1F
100
AcDbEntity
  8
0
  6
CONTINUOUS
 62
     7
100
AcDbLine
 10
93.04301298760225
 20
215.0000000000724
 30
0.0
 11
93.04301298760225
 21
301.4999999999862
 31
0.0
  0
ARC
  5
2E5
330
1F
100
AcDbEntity
  8
0
  6
CONTINUOUS
 62
     7
100
AcDbCircle
 10
-235.000000000053
 20
215.0000000000724
 30
0.0
 40
92.49999999990749
100
AcDbArc
 50
3.719094095363603
 51
5.61841248948931
  0
ARC
  5
2E6
330
1F
100
AcDbEntity
  8
0
  6
CONTINUOUS
 62
     7
100
AcDbCircle
 10
-235.000000000053
 20
215.0000000000724
 30
0.0
 40
92.49999999990749
100
AcDbArc
 50
195.618412489983
 51
197.618412489983
  0
ARC
  5
2E7
330
1F
100
AcDbEntity
  8
0
  6
CONTINUOUS
 62
     7
100
AcDbCircle
 10
-235.000000000053
 20
215.0000000000724
 30
0.0
 40
92.49999999990754
100
AcDbArc
 50
163.6184124899828
 51
165.6184124899829
  0
ARC
  5
2E8
330
1F
100
AcDbEntity
  8
0
  6
CONTINUOUS
 62
     7
100
AcDbCircle
 10
-235.000000000053
 20
215.0000000000724
 30
0.0
 40
92.49999999990754
100
AcDbArc
 50
276.9162032936475
 51
291.8573366991347
  0
ARC
  5
2E9
330
1F
100
AcDbEntity
  8
0
  6
CONTINUOUS
 62
     7
100
AcDbCircle
 10
-235.000000000053
 20
215.0000000000724
 30
0.0
 40
92.49999999990743
100
AcDbArc
 50
88.43417646434173
 51
88.58522562415837
  0
ARC
  5
2EA
330
1F
100
AcDbEntity
  8
0
  6
CONTINUOUS
 62
     7
100
AcDbCircle
 10
-235.000000000053
 20
215.0000000000724
 30
0.0
 40
92.49999999990749
100
AcDbArc
 50
11.61841248949046
 51
13.61841248949084
  0
LINE
  5
2EB
330
1F
100
AcDbEntity
  8
0
  6
CONTINUOUS
 62
     7
100
AcDbLine
 10
-44.10693284966393
 20
318.3301696444368
 30
0.0
 11
-41.26819067007897
 21
312.242821987996
 31
0.0
  0
ARC
  5
2EC
330
1F
100
AcDbEntity
  8
0
  6
CONTINUOUS
 62
     7
100
AcDbCircle
 10
-235.000000000053
 20
215.0000000000724
 30
0.0
 40
92.49999999990754
100
AcDbArc
 50
175.6184124899829
 51
177.6184124899829
  0
ARC
  5
2ED
330
1F
100
AcDbEntity
  8
0
  6
CONTINUOUS
 62
     7
100
AcDbCircle
 10
-300.116884034624
 20
172.9757044841277
 30
0.0
 40
0.9999999999987241
100
AcDbArc
 50
32.8368679045572
 51
120.618412489982
  0
LINE
  5
2EE
330
1F
100
AcDbEntity
  8
0
  6
CONTINUOUS
 62
     7
100
AcDbLine
 10
-294.0843038475129
 20
265.1178115928016
 30
0.0
 11
-294.7437763398721
 21
265.6591535815753
 31
0.0
  0
ARC
  5
2EF
330
1F
100
AcDbEntity
  8
0
  6
CONTINUOUS
 62
     7
100
AcDbCircle
 10
-235.000000000053
 20
215.0000000000724
 30
0.0
 40
92.49999999990749
100
AcDbArc
 50
15.61841248949123
 51
17.61841248949159
  0
ARC
  5
2F0
330
1F
100
AcDbEntity
  8
0
  6
CONTINUOUS
 62
     7
100
AcDbCircle
 10
-235.000000000053
 20
215.0000000000724
 30
0.0
 40
92.49999999990754
100
AcDbArc
 50
187.6184124899829
 51
189.6184124899829
  0
ARC
  5
2F1
330
1F
100
AcDbEntity
  8
0
  6
CONTINUOUS
 62
     7
100
AcDbCircle
 10
-235.000000000053
 20
215.0000000000724
 30
0.0
 40
92.49999999990754
100
AcDbArc
 50
69.3794882798418
 51
84.43478598853487
  0
LINE
  5
2F2
330
1F
100
AcDbEntity
  8
0
  6
CONTINUOUS
 62
     7
100
AcDbLine
 10
214.212885968559
 20
122.5000000001652
 30
0.0
 11
214.212885968559
 21
209.0000000000786
 31
0.0
  0
LINE
  5
2F3
330
1F
100
AcDbEntity
  8
0
  6
CONTINUOUS
 62
     7
100
AcDbLine
 10
69.38275894978169
 20
215.0000000000724
 30
0.0
 11
69.38275894978169
 21
301.4999999999862
 31
0.0
  0
ELLIPSE
  5
2F4
330
1F
100
AcDbEntity
  8
0
  6
CONTINUOUS
 62
     7
100
AcDbEllipse
 10
-72.98711403115348
 20
112.5059703653648
 30
0.0
 11
-2.999999999996283
 21
0.0
 31
0.0
210
0.0
220
0.0
230
1.0
 40
0.9999417525351115
 41
0.0
 42
1.570796326794716
  0
LINE
  5
2F5
330
1F
100
AcDbEntity
  8
0
  6
CONTINUOUS
 62
     7
100
AcDbLine
 10
-71.98719018357357
 20
318.2439859492308
 30
0.0
 11
-65.98703787873717
 21
318.2439859492308
 31
0.0
  0
LINE
  5
2F6
330
1F
100
AcDbEntity
  8
0
  6
CONTINUOUS
 62
     7
100
AcDbLine
 10
-54.43711403117219
 20
116.7064109187162
 30
0.0
 11
-53.93779926379563
 21
117.2056966022735
 31
0.0
  0
ARC
  5
2F7
330
1F
100
AcDbEntity
  8
0
  6
CONTINUOUS
 62
     7
100
AcDbCircle
 10
-235.000000000053
 20
215.0000000000724
 30
0.0
 40
92.49999999990754
100
AcDbArc
 50
84.43478598853487
 51
84.57833625127051
  0
LINE
  5
2F8
330
1F
100
AcDbEntity
  8
0
  6
CONTINUOUS
 62
     7
100
AcDbLine
 10
-145.2002227175682
 20
209.0000000000786
 30
0.0
 11
-142.6947997132708
 21
209.0000000000786
 31
0.0
  0
ELLIPSE
  5
2F9
330
1F
100
AcDbEntity
  8
0
  6
CONTINUOUS
 62
     7
100
AcDbEllipse
 10
-59.98711403116619
 20
315.656042997483
 30
0.0
 11
2.380903016858948
 21
0.0
 31
0.0
210
0.0
220
0.0
230
-1.0
 40
0.9999417525352192
 41
2.199975263675412
 42
4.712388980384831
  0
ARC
  5
2FA
330
1F
100
AcDbEntity
  8
0
  6
CONTINUOUS
 62
     7
100
AcDbCircle
 10
-235.000000000053
 20
215.0000000000724
 30
0.0
 40
92.49999999990749
100
AcDbArc
 50
7.618412489489681
 51
9.618412489490082
  0
ARC
  5
2FB
330
1F
100
AcDbEntity
  8
0
  6
CONTINUOUS
 62
     7
100
AcDbCircle
 10
-235.000000000053
 20
215.0000000000724
 30
0.0
 40
92.49999999990749
100
AcDbArc
 50
19.61841248949192
 51
31.85733669914388
  0
ARC
  5
2FC
330
1F
100
AcDbEntity
  8
0
  6
CONTINUOUS
 62
     7
100
AcDbCircle
 10
-235.000000000053
 20
215.0000000000724
 30
0.0
 40
92.49999999990754
100
AcDbArc
 50
347.6184124894856
 51
349.618412489486
  0
LINE
  5
2FD
330
1F
100
AcDbEntity
  8
0
  6
CONTINUOUS
 62
     7
100
AcDbLine
 10
-41.26819067007575
 20
117.9028851931456
 30
0.0
 11
-44.10693284966096
 21
111.8155375367075
 31
0.0
  0
LINE
  5
2FE
330
1F
100
AcDbEntity
  8
0
  6
CONTINUOUS
 62
     7
100
AcDbLine
 10
-245.6616445373462
 20
123.1480026921087
 30
0.0
 11
-245.6880335679585
 21
122.8678751009391
 31
0.0
  0
ARC
  5
2FF
330
1F
100
AcDbEntity
  8
0
  6
CONTINUOUS
 62
     7
100
AcDbCircle
 10
-296.3049913930645
 20
262.4125303089057
 30
0.0
 40
0.9999999999987241
100
AcDbArc
 50
322.2820721113391
 51
50.61841248998201
  0
LINE
  5
300
330
1F
100
AcDbEntity
  8
0
  6
CONTINUOUS
 62
     7
100
AcDbLine
 10
-66.03642879853805
 20
312.7943033978718
 30
0.0
 11
-71.93779926377728
 21
312.7943033978718
 31
0.0
  0
ELLIPSE
  5
301
330
1F
100
AcDbEntity
  8
0
  6
CONTINUOUS
 62
     7
100
AcDbEllipse
 10
-47.73216399780394
 20
113.3602049368329
 30
0.0
 11
-3.999999999994897
 21
0.0
 31
0.0
210
0.0
220
0.0
230
1.0
 40
0.9999417525351207
 41
1.570796326794719
 42
2.705260340591139
  0
ARC
  5
302
330
1F
100
AcDbEntity
  8
0
  6
CONTINUOUS
 62
     7
100
AcDbCircle
 10
-235.000000000053
 20
215.0000000000724
 30
0.0
 40
92.49999999990749
100
AcDbArc
 50
86.62271224685126
 51
86.80238090260387
  0
LINE
  5
303
330
1F
100
AcDbEntity
  8
0
  6
CONTINUOUS
 62
     7
100
AcDbLine
 10
-47.53711403117916
 20
116.7064109187161
 30
0.0
 11
-47.53711403117916
 21
112.3052968221484
 31
0.0
  0
ARC
  5
304
330
1F
100
AcDbEntity
  8
0
  6
CONTINUOUS
 62
     7
100
AcDbCircle
 10
-301.0088069728306
 20
255.6089571648879
 30
0.0
 40
0.9999999999986686
100
AcDbArc
 50
240.6184124899839
 51
328.399957075407
  0
ARC
  5
305
330
1F
100
AcDbEntity
  8
0
  6
CONTINUOUS
 62
     7
100
AcDbCircle
 10
-235.000000000053
 20
215.0000000000724
 30
0.0
 40
92.49999999990754
100
AcDbArc
 50
167.6184124899828
 51
169.6184124899828
  0
LINE
  5
306
330
1F
100
AcDbEntity
  8
0
  6
CONTINUOUS
 62
     7
100
AcDbLine
 10
-267.6612114017595
 20
301.8090304620528
 30
0.0
 11
-267.5731757915252
 21
301.5750438570682
 31
0.0
  0
LINE
  5
307
330
1F
100
AcDbEntity
  8
0
  6
CONTINUOUS
 62
     7
100
AcDbLine
 10
214.212885968559
 20
221.0000000000664
 30
0.0
 11
214.212885968559
 21
307.4999999999798
 31
0.0
  0
LINE
  5
308
330
1F
100
AcDbEntity
  8
0
  6
CONTINUOUS
 62
     7
100
AcDbLine
 10
-65.98703787873717
 20
312.7443063102928
 30
0.0
 11
-71.98719018357357
 21
312.7443063102928
 31
0.0
  0
LINE
  5
309
330
1F
100
AcDbEntity
  8
0
  6
CONTINUOUS
 62
     7
100
AcDbLine
 10
-47.48711403118138
 20
313.4060979062949
 30
0.0
 11
-47.48711403118138
 21
317.9059880886711
 31
0.0
  0
LINE
  5
30A
330
1F
100
AcDbEntity
  8
0
  6
CONTINUOUS
 62
     7
100
AcDbLine
 10
214.212885968559
 20
209.0000000000786
 30
0.0
 11
212.7128859685605
 21
209.0000000000786
 31
0.0
  0
LINE
  5
30B
330
1F
100
AcDbEntity
  8
0
  6
CONTINUOUS
 62
     7
100
AcDbLine
 10
-47.22528805725845
 20
117.1795065525165
 30
0.0
 11
-47.22528805725845
 21
112.1559949236927
 31
0.0
  0
LINE
  5
30C
330
1F
100
AcDbEntity
  8
0
  6
CONTINUOUS
 62
     7
100
AcDbLine
 10
-65.98703787873717
 20
312.7443063102928
 30
0.0
 11
-65.4871140311595
 21
313.2442010385735
 31
0.0
  0
LINE
  5
30D
330
1F
100
AcDbEntity
  8
0
  6
CONTINUOUS
 62
     7
100
AcDbLine
 10
-72.98711403115348
 20
109.360437926698
 30
0.0
 11
-47.73216399780389
 21
109.360437926698
 31
0.0
  0
LINE
  5
30E
330
1F
100
AcDbEntity
  8
0
  6
CONTINUOUS
 62
     7
100
AcDbLine
 10
212.7128859685605
 20
209.0000000000786
 30
0.0
 11
212.7128859685605
 21
221.0000000000667
 31
0.0
  0
LINE
  5
30F
330
1F
100
AcDbEntity
  8
0
  6
CONTINUOUS
 62
     7
100
AcDbLine
 10
-39.78711403118701
 20
215.0000000000724
 30
0.0
 11
-39.78711403118701
 21
303.9999999999837
 31
0.0
  0
LINE
  5
310
330
1F
100
AcDbEntity
  8
0
  6
CONTINUOUS
 62
     7
100
AcDbLine
 10
-65.53711403116108
 20
317.6947031779968
 30
0.0
 11
-65.53711403116108
 21
313.2935890814289
 31
0.0
  0
LINE
  5
311
330
1F
100
AcDbEntity
  8
0
  6
CONTINUOUS
 62
     7
100
AcDbLine
 10
202.212885968571
 20
126.0000000001614
 30
0.0
 11
202.212885968571
 21
215.0000000000724
 31
0.0
  0
LINE
  5
312
330
1F
100
AcDbEntity
  8
0
  6
CONTINUOUS
 62
     7
100
AcDbLine
 10
202.212885968571
 20
215.0000000000724
 30
0.0
 11
202.212885968571
 21
303.9999999999837
 31
0.0
  0
ELLIPSE
  5
313
330
1F
100
AcDbEntity
  8
0
  6
CONTINUOUS
 62
     7
100
AcDbEllipse
 10
-59.98711403116619
 20
315.656042997483
 30
0.0
 11
2.380903016858948
 21
0.0
 31
0.0
210
0.0
220
0.0
230
-1.0
 40
0.9999417525352192
 41
0.941617389914375
 42
2.199975263675451
  0
LINE
  5
314
330
1F
100
AcDbEntity
  8
0
  6
CONTINUOUS
 62
     7
100
AcDbLine
 10
69.38275894978169
 20
128.5000000001589
 30
0.0
 11
69.38275894978169
 21
215.0000000000724
 31
0.0
  0
LINE
  5
315
330
1F
100
AcDbEntity
  8
0
  6
CONTINUOUS
 62
     7
100
AcDbLine
 10
-47.73216399780394
 20
109.5061451077636
 30
0.0
 11
-72.98711403115354
 21
109.5061451077636
 31
0.0
  0
LINE
  5
316
330
1F
100
AcDbEntity
  8
0
  6
CONTINUOUS
 62
     7
100
AcDbLine
 10
-72.48711403115132
 20
313.2442010385735
 30
0.0
 11
-71.98719018357357
 21
312.7443063102927
 31
0.0
  0
LINE
  5
317
330
1F
100
AcDbEntity
  8
0
  6
CONTINUOUS
 62
     7
100
AcDbLine
 10
-64.37120530467722
 20
114.1785729863522
 30
0.0
 11
-64.33056524109607
 21
114.183553996782
 31
0.0
  0
LINE
  5
318
330
1F
100
AcDbEntity
  8
0
  6
CONTINUOUS
 62
     7
100
AcDbLine
 10
-66.03642879853805
 20
318.1939888615543
 30
0.0
 11
-65.53711403116132
 21
317.6947031779968
 31
0.0
  0
LINE
  5
319
330
1F
100
AcDbEntity
  8
0
  6
CONTINUOUS
 62
     7
100
AcDbLine
 10
-71.93779926377725
 20
318.1939888615539
 30
0.0
 11
-66.03642879853803
 21
318.1939888615539
 31
0.0
  0
LINE
  5
31A
330
1F
100
AcDbEntity
  8
0
  6
CONTINUOUS
 62
     7
100
AcDbLine
 10
-72.48711403115132
 20
313.2442010385735
 30
0.0
 11
-72.48711403115132
 21
317.74409122095
 31
0.0
  0
LINE
  5
31B
330
1F
100
AcDbEntity
  8
0
  6
CONTINUOUS
 62
     7
100
AcDbLine
 10
-40.98711403118588
 20
119.1706661290389
 30
0.0
 11
-40.98711403118762
 21
119.3163733099412
 31
0.0
  0
LINE
  5
31C
330
1F
100
AcDbEntity
  8
0
  6
CONTINUOUS
 62
     7
100
AcDbLine
 10
-47.9870378787588
 20
111.7560140509143
 30
0.0
 11
-47.48711403118138
 21
112.2559087791952
 31
0.0
  0
ELLIPSE
  5
31D
330
1F
100
AcDbEntity
  8
0
  6
CONTINUOUS
 62
     7
100
AcDbEllipse
 10
-72.98711403115348
 20
112.3602631842992
 30
0.0
 11
-2.999999999996228
 21
0.0
 31
0.0
210
0.0
220
0.0
230
1.0
 40
0.9999417525351301
 41
0.0
 42
1.570796326794674
  0
LINE
  5
31E
330
1F
100
AcDbEntity
  8
0
  6
CONTINUOUS
 62
     7
100
AcDbLine
 10
207.4128859685658
 20
123.5000000001642
 30
0.0
 11
207.4128859685658
 21
306.4999999999809
 31
0.0
  0
LINE
  5
31F
330
1F
100
AcDbEntity
  8
0
  6
CONTINUOUS
 62
     7
100
AcDbLine
 10
-72.98711403115048
 20
320.6395620733821
 30
0.0
 11
-47.73216399780597
 21
320.6395620733821
 31
0.0
  0
LINE
  5
320
330
1F
100
AcDbEntity
  8
0
  6
CONTINUOUS
 62
     7
100
AcDbLine
 10
-71.98719018357357
 20
318.2439859492308
 30
0.0
 11
-72.48711403115132
 21
317.7440912209501
 31
0.0
  0
LINE
  5
321
330
1F
100
AcDbEntity
  8
0
  6
CONTINUOUS
 62
     7
100
AcDbLine
 10
-40.98711403118588
 20
119.1706661290389
 30
0.0
 11
-40.98711403118588
 21
119.0249589479732
 31
0.0
  0
LINE
  5
322
330
1F
100
AcDbEntity
  8
0
  6
CONTINUOUS
 62
     7
100
AcDbLine
 10
-48.03642879855591
 20
117.2056966022734
 30
0.0
 11
-47.53711403117943
 21
116.7064109187161
 31
0.0
  0
LINE
  5
323
330
1F
100
AcDbEntity
  8
0
  6
CONTINUOUS
 62
     7
100
AcDbLine
 10
-53.93779926379566
 20
111.8060111385911
 30
0.0
 11
-54.43711403117221
 21
112.3052968221483
 31
0.0
  0
LINE
  5
324
330
1F
100
AcDbEntity
  8
0
  6
CONTINUOUS
 62
     7
100
AcDbLine
 10
-65.98703787873717
 20
111.9179109186355
 30
0.0
 11
-71.98719018357357
 21
111.9179109186355
 31
0.0
  0
LINE
  5
325
330
1F
100
AcDbEntity
  8
0
  6
CONTINUOUS
 62
     7
100
AcDbLine
 10
-72.43711403115415
 20
317.6947031779968
 30
0.0
 11
-71.93779926377728
 21
318.1939888615543
 31
0.0
  0
LINE
  5
326
330
1F
100
AcDbEntity
  8
0
  6
CONTINUOUS
 62
     7
100
AcDbLine
 10
-47.53711403117949
 20
112.3052968221483
 30
0.0
 11
-48.03642879855596
 21
111.8060111385911
 31
0.0
  0
ELLIPSE
  5
327
330
1F
100
AcDbEntity
  8
0
  6
CONTINUOUS
 62
     7
100
AcDbEllipse
 10
-43.98711403118288
 20
119.0249589479732
 30
0.0
 11
-2.999999999996117
 21
0.0
 31
0.0
210
0.0
220
0.0
230
1.0
 40
0.9999417525351485
 41
2.705260340591165
 42
3.141592653589544
  0
LINE
  5
328
330
1F
100
AcDbEntity
  8
0
  6
CONTINUOUS
 62
     7
100
AcDbLine
 10
-40.98711403118909
 20
308.6710028609145
 30
0.0
 11
-40.98711403118909
 21
121.6204115011293
 31
0.0
  0
LINE
  5
329
330
1F
100
AcDbEntity
  8
0
  6
CONTINUOUS
 62
     7
100
AcDbLine
 10
-53.93779926379566
 20
117.2056966022734
 30
0.0
 11
-48.03642879855593
 21
117.2056966022734
 31
0.0
  0
ELLIPSE
  5
32A
330
1F
100
AcDbEntity
  8
0
  6
CONTINUOUS
 62
     7
100
AcDbEllipse
 10
-43.98711403118288
 20
119.1706661290389
 30
0.0
 11
-2.999999999996228
 21
0.0
 31
0.0
210
0.0
220
0.0
230
1.0
 40
0.9999417525351485
 41
2.705260340591194
 42
3.141592653589571
  0
LINE
  5
32B
330
1F
100
AcDbEntity
  8
0
  6
CONTINUOUS
 62
     7
100
AcDbLine
 10
-65.48711403115954
 20
317.74409122095
 30
0.0
 11
-65.48711403115954
 21
313.2442010385735
 31
0.0
  0
LINE
  5
32C
330
1F
100
AcDbEntity
  8
0
  6
CONTINUOUS
 62
     7
100
AcDbLine
 10
-53.98719018359549
 20
312.9062031780142
 30
0.0
 11
-54.4871140311729
 21
313.4060979062948
 31
0.0
  0
LINE
  5
32D
330
1F
100
AcDbEntity
  8
0
  6
CONTINUOUS
 62
     7
100
AcDbLine
 10
-39.78711403118701
 20
126.0000000001614
 30
0.0
 11
-39.78711403118701
 21
215.0000000000724
 31
0.0
  0
ELLIPSE
  5
32E
330
1F
100
AcDbEntity
  8
0
  6
CONTINUOUS
 62
     7
100
AcDbEllipse
 10
-72.98711403115048
 20
317.6397368157792
 30
0.0
 11
2.999999999997005
 21
0.0
 31
0.0
210
0.0
220
0.0
230
-1.0
 40
0.9999417525352225
 41
3.141592653589848
 42
4.712388980384746
  0
LINE
  5
32F
330
1F
100
AcDbEntity
  8
0
  6
CONTINUOUS
 62
     7
100
AcDbLine
 10
-47.9870378787588
 20
111.7560140509143
 30
0.0
 11
-53.98719018359546
 21
111.7560140509143
 31
0.0
  0
LINE
  5
330
330
1F
100
AcDbEntity
  8
0
  6
CONTINUOUS
 62
     7
100
AcDbLine
 10
-71.93779926377725
 20
312.7943033978718
 30
0.0
 11
-72.43711403115412
 21
313.2935890814289
 31
0.0
  0
LINE
  5
331
330
1F
100
AcDbEntity
  8
0
  6
CONTINUOUS
 62
     7
100
AcDbLine
 10
-48.03642879855591
 20
111.8060111385912
 30
0.0
 11
-53.93779926379563
 21
111.8060111385912
 31
0.0
  0
LINE
  5
332
330
1F
100
AcDbEntity
  8
0
  6
CONTINUOUS
 62
     7
100
AcDbLine
 10
-44.10693284966094
 20
111.6698303556419
 30
0.0
 11
-41.26819067007573
 21
117.7571780120799
 31
0.0
  0
LINE
  5
333
330
1F
100
AcDbEntity
  8
0
  6
CONTINUOUS
 62
     7
100
AcDbLine
 10
-75.9871140311505
 20
112.651677546264
 30
0.0
 11
-75.9871140311505
 21
112.5059703653648
 31
0.0
  0
ELLIPSE
  5
334
330
1F
100
AcDbEntity
  8
0
  6
CONTINUOUS
 62
     7
100
AcDbEllipse
 10
-47.732163997806
 20
316.6397950632451
 30
0.0
 11
3.999999999995951
 21
0.0
 31
0.0
210
0.0
220
0.0
230
-1.0
 40
0.9999417525352179
 41
4.712388980384752
 42
5.846852994180896
  0
LINE
  5
335
330
1F
100
AcDbEntity
  8
0
  6
CONTINUOUS
 62
     7
100
AcDbLine
 10
-72.43711403115415
 20
313.2935890814288
 30
0.0
 11
-72.43711403115415
 21
317.6947031779968
 31
0.0
  0
LINE
  5
336
330
1F
100
AcDbEntity
  8
0
  6
CONTINUOUS
 62
     7
100
AcDbLine
 10
-54.43711403117219
 20
112.3052968221484
 30
0.0
 11
-54.43711403117219
 21
116.7064109187161
 31
0.0
  0
ELLIPSE
  5
337
330
1F
100
AcDbEntity
  8
0
  6
CONTINUOUS
 62
     7
100
AcDbEllipse
 10
-47.73216399780394
 20
113.5059121178986
 30
0.0
 11
-3.999999999994897
 21
0.0
 31
0.0
210
0.0
220
0.0
230
1.0
 40
0.9999417525351207
 41
1.570796326794709
 42
2.705260340591119
  0
LINE
  5
338
330
1F
100
AcDbEntity
  8
0
  6
CONTINUOUS
 62
     7
100
AcDbLine
 10
-47.48711403118138
 20
313.4060979062949
 30
0.0
 11
-47.9870378787588
 21
312.9062031780142
 31
0.0
  0
LINE
  5
339
330
1F
100
AcDbEntity
  8
0
  6
CONTINUOUS
 62
     7
100
AcDbLine
 10
-58.0871140311699
 20
315.4402079480844
 30
0.0
 11
-58.29440242655942
 21
314.5759920462144
 31
0.0
  0
ELLIPSE
  5
33A
330
1F
100
AcDbEntity
  8
0
  6
CONTINUOUS
 62
     7
100
AcDbEllipse
 10
-59.98711403116619
 20
114.7006927335229
 30
0.0
 11
2.426415481684097
 21
0.0
 31
0.0
210
0.0
220
0.0
230
-1.0
 40
0.9999417525352123
 41
1.36324409381161
 42
1.778348559778149
  0
LINE
  5
33B
330
1F
100
AcDbEntity
  8
0
  6
CONTINUOUS
 62
     7
100
AcDbLine
 10
-58.08711403117112
 20
315.474524327904
 30
0.0
 11
-58.30943758975951
 21
314.5813925548998
 31
0.0
  0
LINE
  5
33C
330
1F
100
AcDbEntity
  8
0
  6
CONTINUOUS
 62
     7
100
AcDbLine
 10
-58.0871140311699
 20
315.5603371623945
 30
0.0
 11
-58.34659404039449
 21
314.6004608233521
 31
0.0
  0
LINE
  5
33D
330
1F
100
AcDbEntity
  8
0
  6
CONTINUOUS
 62
     7
100
AcDbLine
 10
-61.06297040725711
 20
115.2061594544252
 30
0.0
 11
-60.51915593604517
 21
115.7499422498229
 31
0.0
  0
LINE
  5
33E
330
1F
100
AcDbEntity
  8
0
  6
CONTINUOUS
 62
     7
100
AcDbLine
 10
-63.1535232053283
 20
115.1986320762114
 30
0.0
 11
-64.33056524109922
 21
115.1834957493162
 31
0.0
  0
LINE
  5
33F
330
1F
100
AcDbEntity
  8
0
  6
CONTINUOUS
 62
     7
100
AcDbLine
 10
-58.67595229944006
 20
115.1785147388865
 30
0.0
 11
-55.60302275765552
 21
115.1785147388865
 31
0.0
  0
LINE
  5
340
330
1F
100
AcDbEntity
  8
0
  6
CONTINUOUS
 62
     7
100
AcDbLine
 10
-58.37830679401679
 20
314.630180304486
 30
0.0
 11
-58.38895945925704
 21
314.5939723103907
 31
0.0
  0
LINE
  5
341
330
1F
100
AcDbEntity
  8
0
  6
CONTINUOUS
 62
     7
100
AcDbLine
 10
-58.9112576550756
 20
115.2061594544252
 30
0.0
 11
-58.6871140311675
 21
115.1782890950834
 31
0.0
  0
ELLIPSE
  5
342
330
1F
100
AcDbEntity
  8
0
  6
CONTINUOUS
 62
     7
100
AcDbEllipse
 10
-59.98711403116619
 20
114.6677507381046
 30
0.0
 11
4.499999999995508
 21
0.0
 31
0.0
210
0.0
220
0.0
230
-1.0
 40
0.9999417525352225
 41
0.1105791306050957
 42
3.030894566534079
  0
LINE
  5
343
330
1F
100
AcDbEntity
  8
0
  6
CONTINUOUS
 62
     7
100
AcDbLine
 10
-59.48711403116663
 20
115.9782424971108
 30
0.0
 11
-59.45507212628759
 21
115.749942249823
 31
0.0
  0
LINE
  5
344
330
1F
100
AcDbEntity
  8
0
  6
CONTINUOUS
 62
     7
100
AcDbLine
 10
-61.29827576289265
 20
115.1785147388865
 30
0.0
 11
-61.28711403116518
 21
115.1782890950834
 31
0.0
  0
LINE
  5
345
330
1F
100
AcDbEntity
  8
0
  6
CONTINUOUS
 62
     7
100
AcDbLine
 10
-55.60302275765549
 20
115.1785147388865
 30
0.0
 11
-55.6436628212364
 21
115.1834957493162
 31
0.0
  0
LINE
  5
346
330
1F
100
AcDbEntity
  8
0
  6
CONTINUOUS
 62
     7
100
AcDbLine
 10
-58.08711403116812
 20
315.4573668247584
 30
0.0
 11
-58.29381453422375
 21
314.5943096777736
 31
0.0
  0
LINE
  5
347
330
1F
100
AcDbEntity
  8
0
  6
CONTINUOUS
 62
     7
100
AcDbLine
 10
-58.34235249198033
 20
314.6249315438529
 30
0.0
 11
-58.97192791823763
 21
313.968788739042
 31
0.0
  0
LINE
  5
348
330
1F
100
AcDbEntity
  8
0
  6
CONTINUOUS
 62
     7
100
AcDbLine
 10
-58.38895947123451
 20
314.5939723120422
 30
0.0
 11
-58.43255834570454
 21
314.5485876204985
 31
0.0
  0
ELLIPSE
  5
349
330
1F
100
AcDbEntity
  8
0
  6
CONTINUOUS
 62
     7
100
AcDbEllipse
 10
-59.98711403116619
 20
315.656042997483
 30
0.0
 11
1.899999999998125
 21
0.0
 31
0.0
210
0.0
220
0.0
230
-1.0
 40
0.9999417525351953
 41
3.141592653589793
 42
6.283185307179586
  0
LINE
  5
34A
330
1F
100
AcDbEntity
  8
0
  6
CONTINUOUS
 62
     7
100
AcDbLine
 10
-58.08711403116812
 20
315.6289826950488
 30
0.0
 11
-57.48711403116868
 21
315.6252438470422
 31
0.0
  0
LINE
  5
34B
330
1F
100
AcDbEntity
  8
0
  6
CONTINUOUS
 62
     7
100
AcDbLine
 10
-55.6436628212364
 20
115.1834957493162
 30
0.0
 11
-56.82070485700407
 21
115.1986320762114
 31
0.0
  0
LINE
  5
34C
330
1F
100
AcDbEntity
  8
0
  6
CONTINUOUS
 62
     7
100
AcDbLine
 10
-58.08711403117078
 20
315.5260077857355
 30
0.0
 11
-58.3315176099792
 21
314.5924626169981
 31
0.0
  0
LINE
  5
34D
330
1F
100
AcDbEntity
  8
0
  6
CONTINUOUS
 62
     7
100
AcDbLine
 10
-58.08711403116934
 20
315.5088514469994
 30
0.0
 11
-58.32487475600553
 21
314.5872176628873
 31
0.0
  0
LINE
  5
34E
330
1F
100
AcDbEntity
  8
0
  6
CONTINUOUS
 62
     7
100
AcDbLine
 10
-60.48711403116575
 20
115.9782424971108
 30
0.0
 11
-60.48711403116575
 21
116.0024169246636
 31
0.0
  0
LINE
  5
34F
330
1F
100
AcDbEntity
  8
0
  6
CONTINUOUS
 62
     7
100
AcDbLine
 10
-59.45507212628759
 20
115.7499422498229
 30
0.0
 11
-58.91125765507557
 21
115.2061594544252
 31
0.0
  0
ELLIPSE
  5
350
330
1F
100
AcDbEntity
  8
0
  6
CONTINUOUS
 62
     7
100
AcDbEllipse
 10
-59.98711403116619
 20
114.6677507381046
 30
0.0
 11
4.499999999995508
 21
0.0
 31
0.0
210
0.0
220
0.0
230
-1.0
 40
0.9999417525352225
 41
3.030894566534097
 42
3.141592653589809
  0
LINE
  5
351
330
1F
100
AcDbEntity
  8
0
  6
CONTINUOUS
 62
     7
100
AcDbLine
 10
-60.51915593604517
 20
115.7499422498229
 30
0.0
 11
-60.48711403116572
 21
115.9782424971108
 31
0.0
  0
LINE
  5
352
330
1F
100
AcDbEntity
  8
0
  6
CONTINUOUS
 62
     7
100
AcDbLine
 10
-54.48711403117284
 20
112.2559087791952
 30
0.0
 11
-54.48711403117284
 21
116.7557989615715
 31
0.0
  0
ELLIPSE
  5
353
330
1F
100
AcDbEntity
  8
0
  6
CONTINUOUS
 62
     7
100
AcDbEllipse
 10
-59.98711403116619
 20
114.7006927335229
 30
0.0
 11
2.426415481684097
 21
0.0
 31
0.0
210
0.0
220
0.0
230
-1.0
 40
0.9999417525352123
 41
4.50483674740145
 42
4.919941213368001
  0
LINE
  5
354
330
1F
100
AcDbEntity
  8
0
  6
________________
 62
     1
100
AcDbLine
 10
-235.00000000005
 20
100.3603505555005
 30
0.0
 11
-235.00000000005
 21
329.6396494445793
 31
0.0
  0
LINE
  5
355
330
1F
100
AcDbEntity
  8
0
  6
CONTINUOUS
 62
     7
100
AcDbLine
 10
-64.37120530467722
 20
115.1785147388865
 30
0.0
 11
-61.29827576289268
 21
115.1785147388865
 31
0.0
  0
ELLIPSE
  5
356
330
1F
100
AcDbEntity
  8
0
  6
CONTINUOUS
 62
     7
100
AcDbEllipse
 10
-59.98711403116619
 20
115.0738214310934
 30
0.0
 11
-11.98957880826979
 21
0.0
 31
0.0
210
0.0
220
0.0
230
-1.0
 40
0.0107931245147647
 41
1.303528991402331
 42
1.46215524454241
  0
LINE
  5
357
330
1F
100
AcDbEntity
  8
0
  6
CONTINUOUS
 62
     7
100
AcDbLine
 10
-58.08711403116812
 20
315.5946588094836
 30
0.0
 11
-58.36204367901681
 21
314.6087765906271
 31
0.0
  0
LINE
  5
358
330
1F
100
AcDbEntity
  8
0
  6
CONTINUOUS
 62
     7
100
AcDbLine
 10
-58.08711403117056
 20
315.4916914640208
 30
0.0
 11
-58.31676741594421
 21
314.5848782371686
 31
0.0
  0
ELLIPSE
  5
359
330
1F
100
AcDbEntity
  8
0
  6
CONTINUOUS
 62
     7
100
AcDbEllipse
 10
-59.98711403116619
 20
114.0738796785591
 30
0.0
 11
11.98957880826984
 21
0.0
 31
0.0
210
0.0
220
0.0
230
1.0
 40
0.0107931245147647
 41
1.679437409047387
 42
1.838063662187472
  0
ELLIPSE
  5
35A
330
1F
100
AcDbEntity
  8
0
  6
CONTINUOUS
 62
     7
100
AcDbEllipse
 10
-43.98711403118555
 20
119.1706661289922
 30
0.0
 11
2.999999999997005
 21
0.0
 31
0.0
210
0.0
220
0.0
230
-1.0
 40
0.9999417525352225
 41
0.0
 42
0.4363323129986442
  0
LINE
  5
35B
330
1F
100
AcDbEntity
  8
0
  6
CONTINUOUS
 62
     7
100
AcDbLine
 10
-40.98711403118909
 20
310.9750410521022
 30
0.0
 11
-40.98711403118909
 21
308.6710028609536
 31
0.0
  0
LINE
  5
35C
330
1F
100
AcDbEntity
  8
0
  6
CONTINUOUS
 62
     7
100
AcDbLine
 10
-60.48711403116575
 20
116.0024169246636
 30
0.0
 11
-60.48711403116575
 21
117.0748947825574
 31
0.0
  0
LINE
  5
35D
330
1F
100
AcDbEntity
  8
0
  6
CONTINUOUS
 62
     7
100
AcDbLine
 10
-58.36204367901681
 20
314.6087765906271
 30
0.0
 11
-58.67912424767665
 21
314.214420192363
 31
0.0
  0
LINE
  5
35E
330
1F
100
AcDbEntity
  8
0
  6
CONTINUOUS
 62
     7
100
AcDbLine
 10
-54.24901615751826
 20
111.6561001954118
 30
0.0
 11
-54.74894000509592
 21
112.1559949236926
 31
0.0
  0
LINE
  5
35F
330
1F
100
AcDbEntity
  8
0
  6
CONTINUOUS
 62
     7
100
AcDbLine
 10
-58.08711403116934
 20
315.6118231691046
 30
0.0
 11
-58.35797060595512
 21
314.6327047146297
 31
0.0
  0
LINE
  5
360
330
1F
100
AcDbEntity
  8
0
  6
CONTINUOUS
 62
     7
100
AcDbLine
 10
-58.34659404039449
 20
314.6004608233521
 30
0.0
 11
-59.34918979141376
 21
313.7673782611422
 31
0.0
  0
LINE
  5
361
330
1F
100
AcDbEntity
  8
0
  6
CONTINUOUS
 62
     7
100
AcDbLine
 10
-60.48711403116575
 20
112.3264906844883
 30
0.0
 11
-60.48711403116575
 21
113.4025683680746
 31
0.0
  0
LINE
  5
362
330
1F
100
AcDbEntity
  8
0
  6
CONTINUOUS
 62
     7
100
AcDbLine
 10
-59.48711403116663
 20
115.9782424971108
 30
0.0
 11
-59.48711403116663
 21
116.0024169246636
 31
0.0
  0
LINE
  5
363
330
1F
100
AcDbEntity
  8
0
  6
CONTINUOUS
 62
     7
100
AcDbLine
 10
-58.6871140311675
 20
115.1782890950834
 30
0.0
 11
-58.67595229944003
 21
115.1785147388864
 31
0.0
  0
LINE
  5
364
330
1F
100
AcDbEntity
  8
0
  6
CONTINUOUS
 62
     7
100
AcDbLine
 10
-59.48711403116663
 20
117.0748947825573
 30
0.0
 11
-59.48711403116663
 21
116.0024169246636
 31
0.0
  0
ARC
  5
365
330
1F
100
AcDbEntity
  8
0
  6
CONTINUOUS
 62
     7
100
AcDbCircle
 10
-217.624178141474
 20
117.4600818914241
 30
0.0
 40
1.599999999998408
100
AcDbArc
 50
16.11237999001131
 51
85.61841248948808
  0
LINE
  5
366
330
1F
100
AcDbEntity
  8
0
  6
CONTINUOUS
 62
     7
100
AcDbLine
 10
-59.48711403116663
 20
113.4025683680747
 30
0.0
 11
-59.48711403116663
 21
112.3264906844884
 31
0.0
  0
ELLIPSE
  5
367
330
1F
100
AcDbEntity
  8
0
  6
CONTINUOUS
 62
     7
100
AcDbEllipse
 10
-59.98711403116619
 20
315.656042997483
 30
0.0
 11
1.899999999998125
 21
0.0
 31
0.0
210
0.0
220
0.0
230
-1.0
 40
0.9999417525351953
 41
0.0
 42
3.141592653589793
  0
LINE
  5
368
330
1F
100
AcDbEntity
  8
0
  6
CONTINUOUS
 62
     7
100
AcDbLine
 10
-58.08711403116901
 20
315.5431743290488
 30
0.0
 11
-58.34069389284815
 21
314.5934857935852
 31
0.0
  0
LINE
  5
369
330
1F
100
AcDbEntity
  8
0
  6
CONTINUOUS
 62
     7
100
AcDbLine
 10
-58.08711403117023
 20
315.5774938985442
 30
0.0
 11
-58.34235322688546
 21
314.6249319477915
 31
0.0
  0
ELLIPSE
  5
36A
330
1F
100
AcDbEntity
  8
0
  6
CONTINUOUS
 62
     7
100
AcDbEllipse
 10
-59.98711403116619
 20
114.0738796785591
 30
0.0
 11
11.98957880826984
 21
0.0
 31
0.0
210
0.0
220
0.0
230
1.0
 40
0.0107931245147647
 41
1.303528991402324
 42
1.462155244542403
  0
ELLIPSE
  5
36B
330
1F
100
AcDbEntity
  8
0
  6
CONTINUOUS
 62
     7
100
AcDbEllipse
 10
-59.98711403116619
 20
115.0738214310934
 30
0.0
 11
-11.98957880826979
 21
0.0
 31
0.0
210
0.0
220
0.0
230
-1.0
 40
0.0107931245147647
 41
1.679437409047392
 42
1.838063662187479
  0
LINE
  5
36C
330
1F
100
AcDbEntity
  8
0
  6
CONTINUOUS
 62
     7
100
AcDbLine
 10
-61.28711403116521
 20
115.1782890950834
 30
0.0
 11
-61.06297040725711
 21
115.2061594544252
 31
0.0
  0
LINE
  5
36D
330
1F
100
AcDbEntity
  8
0
  6
CONTINUOUS
 62
     7
100
AcDbLine
 10
-64.3305652410961
 20
114.183553996782
 30
0.0
 11
-63.15352320532833
 21
114.1986903236772
 31
0.0
  0
LINE
  5
36E
330
1F
100
AcDbEntity
  8
0
  6
CONTINUOUS
 62
     7
100
AcDbLine
 10
-64.3305652410992
 20
115.1834957493162
 30
0.0
 11
-64.37120530467719
 21
115.1785147388864
 31
0.0
  0
LINE
  5
36F
330
1F
100
AcDbEntity
  8
0
  6
CONTINUOUS
 62
     7
100
AcDbLine
 10
-56.82070485700407
 20
114.1986903236772
 30
0.0
 11
-55.6436628212364
 21
114.183553996782
 31
0.0
  0
LINE
  5
370
330
1F
100
AcDbEntity
  8
0
  6
CONTINUOUS
 62
     7
100
AcDbLine
 10
-58.3579706059551
 20
314.6327047146297
 30
0.0
 11
-58.46864498374643
 21
314.468087537941
 31
0.0
  0
ELLIPSE
  5
371
330
1F
100
AcDbEntity
  8
0
  6
CONTINUOUS
 62
     7
100
AcDbEllipse
 10
-59.98711403116619
 20
114.6677507381046
 30
0.0
 11
4.499999999995508
 21
0.0
 31
0.0
210
0.0
220
0.0
230
-1.0
 40
0.9999417525352225
 41
3.141592653589793
 42
6.393764437784681
  0
LINE
  5
372
330
1F
100
AcDbEntity
  8
0
  6
CONTINUOUS
 62
     7
100
AcDbLine
 10
-58.08711403116812
 20
315.6289826950488
 30
0.0
 11
-58.3849434541518
 21
314.6061942186903
 31
0.0
  0
ELLIPSE
  5
373
330
1F
100
AcDbEntity
  8
0
  6
CONTINUOUS
 62
     7
100
AcDbEllipse
 10
-59.98711403116619
 20
315.6409326231624
 30
0.0
 11
-1.89999999999807
 21
1.409428129761636E-10
 31
0.0
210
0.0
220
0.0
230
1.0
 40
0.9999417525352245
 41
2.529047280729948
 42
2.58062488905078
  0
LINE
  5
374
330
1F
100
AcDbEntity
  8
0
  6
CONTINUOUS
 62
     7
100
AcDbLine
 10
-65.48711403115975
 20
116.9176958292927
 30
0.0
 11
-65.48711403115975
 21
112.4178056469165
 31
0.0
  0
LINE
  5
375
330
1F
100
AcDbEntity
  8
0
  6
CONTINUOUS
 62
     7
100
AcDbLine
 10
-65.72521190481412
 20
318.6676935401757
 30
0.0
 11
-72.24901615749657
 21
318.6676935401757
 31
0.0
  0
LINE
  5
376
330
1F
100
AcDbEntity
  8
0
  6
CONTINUOUS
 62
     7
100
AcDbLine
 10
-53.98719018359549
 20
117.2556936898524
 30
0.0
 11
-54.4871140311729
 21
116.7557989615715
 31
0.0
  0
LINE
  5
377
330
1F
100
AcDbEntity
  8
0
  6
CONTINUOUS
 62
     7
100
AcDbLine
 10
-40.98711403118909
 20
119.3163733099413
 30
0.0
 11
-40.98711403118909
 21
119.1706661289922
 31
0.0
  0
LINE
  5
378
330
1F
100
AcDbEntity
  8
0
  6
CONTINUOUS
 62
     7
100
AcDbLine
 10
-53.98719018359549
 20
117.2556936898525
 30
0.0
 11
-47.98703787875883
 21
117.2556936898525
 31
0.0
  0
LINE
  5
379
330
1F
100
AcDbEntity
  8
0
  6
CONTINUOUS
 62
     7
100
AcDbLine
 10
-47.9870378787588
 20
318.4058828169522
 30
0.0
 11
-53.98719018359546
 21
318.4058828169522
 31
0.0
  0
LINE
  5
37A
330
1F
100
AcDbEntity
  8
0
  6
CONTINUOUS
 62
     7
100
AcDbLine
 10
-40.98711403118909
 20
121.62041150109
 30
0.0
 11
-40.98711403118909
 21
119.3163733099413
 31
0.0
  0
LINE
  5
37B
330
1F
100
AcDbEntity
  8
0
  6
CONTINUOUS
 62
     7
100
AcDbLine
 10
-47.72521190483609
 20
111.6561001954117
 30
0.0
 11
-54.24901615751821
 21
111.6561001954117
 31
0.0
  0
ELLIPSE
  5
37C
330
1F
100
AcDbEntity
  8
0
  6
CONTINUOUS
 62
     7
100
AcDbEllipse
 10
-59.98711403116619
 20
114.6785438626193
 30
0.0
 11
-4.412511336469637
 21
0.0
 31
0.0
210
0.0
220
0.0
230
1.0
 40
0.9999417525352106
 41
3.028034591029418
 42
3.255150716150036
  0
ELLIPSE
  5
37D
330
1F
100
AcDbEntity
  8
0
  6
CONTINUOUS
 62
     7
100
AcDbEllipse
 10
-59.98711403116619
 20
114.6785438626193
 30
0.0
 11
-4.412511336469637
 21
0.0
 31
0.0
210
0.0
220
0.0
230
1.0
 40
0.9999417525352106
 41
6.169627244619286
 42
6.396743369739907
  0
LINE
  5
37E
330
1F
100
AcDbEntity
  8
0
  6
CONTINUOUS
 62
     7
100
AcDbLine
 10
-72.74894000507426
 20
318.167798811895
 30
0.0
 11
-72.2490161574966
 21
318.6676935401757
 31
0.0
  0
LINE
  5
37F
330
1F
100
AcDbEntity
  8
0
  6
CONTINUOUS
 62
     7
100
AcDbLine
 10
-72.24901615749663
 20
312.64439245479
 30
0.0
 11
-72.74894000507429
 21
313.1442871830712
 31
0.0
  0
LINE
  5
380
330
1F
100
AcDbEntity
  8
0
  6
CONTINUOUS
 62
     7
100
AcDbLine
 10
-65.48711403115954
 20
112.4178056469165
 30
0.0
 11
-65.9870378787372
 21
111.9179109186356
 31
0.0
  0
LINE
  5
381
330
1F
100
AcDbEntity
  8
0
  6
CONTINUOUS
 62
     7
100
AcDbLine
 10
-54.24901615751826
 20
117.6794012807975
 30
0.0
 11
-47.72521190483614
 21
117.6794012807975
 31
0.0
  0
ELLIPSE
  5
382
330
1F
100
AcDbEntity
  8
0
  6
CONTINUOUS
 62
     7
100
AcDbEllipse
 10
-43.98711403118555
 20
119.3163733099413
 30
0.0
 11
2.999999999997005
 21
0.0
 31
0.0
210
0.0
220
0.0
230
-1.0
 40
0.9999417525352225
 41
0.0
 42
0.4363323129986997
  0
LINE
  5
383
330
1F
100
AcDbEntity
  8
0
  6
CONTINUOUS
 62
     7
100
AcDbLine
 10
-75.98711403114689
 20
112.651677546264
 30
0.0
 11
-75.98711403114689
 21
121.62041150109
 31
0.0
  0
LINE
  5
384
330
1F
100
AcDbEntity
  8
0
  6
CONTINUOUS
 62
     7
100
AcDbLine
 10
-47.9870378787588
 20
318.405882816952
 30
0.0
 11
-47.48711403118138
 21
317.9059880886711
 31
0.0
  0
ELLIPSE
  5
385
330
1F
100
AcDbEntity
  8
0
  6
CONTINUOUS
 62
     7
100
AcDbEllipse
 10
-72.98711403115048
 20
112.5059703653149
 30
0.0
 11
2.999999999997005
 21
0.0
 31
0.0
210
0.0
220
0.0
230
-1.0
 40
0.9999417525352225
 41
1.570796326794966
 42
3.141592653589861
  0
LINE
  5
386
330
1F
100
AcDbEntity
  8
0
  6
CONTINUOUS
 62
     7
100
AcDbLine
 10
-72.48711403115132
 20
116.9176958292927
 30
0.0
 11
-71.98719018357357
 21
117.4175905575737
 31
0.0
  0
LINE
  5
387
330
1F
100
AcDbEntity
  8
0
  6
CONTINUOUS
 62
     7
100
AcDbLine
 10
-71.98719018357357
 20
111.9179109186356
 30
0.0
 11
-72.48711403115132
 21
112.4178056469165
 31
0.0
  0
LINE
  5
388
330
1F
100
AcDbEntity
  8
0
  6
CONTINUOUS
 62
     7
100
AcDbLine
 10
-47.72521190483609
 20
117.6794012807975
 30
0.0
 11
-47.22528805725842
 21
117.1795065525166
 31
0.0
  0
LINE
  5
389
330
1F
100
AcDbEntity
  8
0
  6
CONTINUOUS
 62
     7
100
AcDbLine
 10
-65.72521190481412
 20
318.6676935401757
 30
0.0
 11
-65.2252880572368
 21
318.167798811895
 31
0.0
  0
LINE
  5
38A
330
1F
100
AcDbEntity
  8
0
  6
CONTINUOUS
 62
     7
100
AcDbLine
 10
-75.98711403114689
 20
112.5059703653149
 30
0.0
 11
-75.98711403114689
 21
112.651677546264
 31
0.0
  0
ELLIPSE
  5
38B
330
1F
100
AcDbEntity
  8
0
  6
CONTINUOUS
 62
     7
100
AcDbEllipse
 10
-43.98711403118555
 20
310.9750410521022
 30
0.0
 11
2.999999999997005
 21
0.0
 31
0.0
210
0.0
220
0.0
230
-1.0
 40
0.9999417525352411
 41
5.846852994180988
 42
6.283185307179586
  0
LINE
  5
38C
330
1F
100
AcDbEntity
  8
0
  6
CONTINUOUS
 62
     7
100
AcDbLine
 10
-65.22528805723648
 20
313.1442871830711
 30
0.0
 11
-65.72521190481415
 21
312.6443924547899
 31
0.0
  0
LINE
  5
38D
330
1F
100
AcDbEntity
  8
0
  6
CONTINUOUS
 62
     7
100
AcDbLine
 10
-65.22528805723682
 20
313.1442871830711
 30
0.0
 11
-65.22528805723682
 21
318.167798811895
 31
0.0
  0
LINE
  5
38E
330
1F
100
AcDbEntity
  8
0
  6
CONTINUOUS
 62
     7
100
AcDbLine
 10
-47.48711403118138
 20
116.7557989615715
 30
0.0
 11
-47.9870378787588
 21
117.2556936898524
 31
0.0
  0
LINE
  5
38F
330
1F
100
AcDbEntity
  8
0
  6
CONTINUOUS
 62
     7
100
AcDbLine
 10
-54.48711403117284
 20
112.2559087791952
 30
0.0
 11
-53.98719018359543
 21
111.7560140509143
 31
0.0
  0
LINE
  5
390
330
1F
100
AcDbEntity
  8
0
  6
CONTINUOUS
 62
     7
100
AcDbLine
 10
-55.6436628212364
 20
114.183553996782
 30
0.0
 11
-55.60302275765549
 21
114.1785729863522
 31
0.0
  0
LINE
  5
391
330
1F
100
AcDbEntity
  8
0
  6
CONTINUOUS
 62
     7
100
AcDbLine
 10
-75.98711403114689
 20
308.6710028609535
 30
0.0
 11
-75.98711403114689
 21
317.6397368157792
 31
0.0
  0
LINE
  5
392
330
1F
100
AcDbEntity
  8
0
  6
CONTINUOUS
 62
     7
100
AcDbLine
 10
-47.22528805725845
 20
112.1559949236927
 30
0.0
 11
-47.72521190483611
 21
111.6561001954118
 31
0.0
  0
LINE
  5
393
330
1F
100
AcDbEntity
  8
0
  6
CONTINUOUS
 62
     7
100
AcDbLine
 10
-41.26819067007897
 20
117.9028851930983
 30
0.0
 11
-44.10693284966393
 21
111.8155375366573
 31
0.0
  0
LINE
  5
394
330
1F
100
AcDbEntity
  8
0
  6
CONTINUOUS
 62
     7
100
AcDbLine
 10
-54.48711403117284
 20
317.9059880886712
 30
0.0
 11
-53.98719018359543
 21
318.405882816952
 31
0.0
  0
ELLIPSE
  5
395
330
1F
100
AcDbEntity
  8
0
  6
CONTINUOUS
 62
     7
100
AcDbEllipse
 10
-59.98711403116619
 20
114.6785438626193
 30
0.0
 11
-1.403262301475638
 21
0.0
 31
0.0
210
0.0
220
0.0
230
1.0
 40
0.9999417525352217
 41
2.777274190160513
 42
3.505911117018745
  0
LINE
  5
396
330
1F
100
AcDbEntity
  8
0
  6
CONTINUOUS
 62
     7
100
AcDbLine
 10
-54.74894000509589
 20
112.1559949236927
 30
0.0
 11
-54.74894000509589
 21
117.1795065525165
 31
0.0
  0
LINE
  5
397
330
1F
100
AcDbEntity
  8
0
  6
CONTINUOUS
 62
     7
100
AcDbLine
 10
-75.98711403114689
 20
121.6204115011287
 30
0.0
 11
-75.98711403114689
 21
308.6710028609136
 31
0.0
  0
LINE
  5
398
330
1F
100
AcDbEntity
  8
0
  6
CONTINUOUS
 62
     7
100
AcDbLine
 10
-71.98719018357357
 20
117.4175905575737
 30
0.0
 11
-65.98703787873717
 21
117.4175905575737
 31
0.0
  0
LINE
  5
399
330
1F
100
AcDbEntity
  8
0
  6
CONTINUOUS
 62
     7
100
AcDbLine
 10
-72.48711403115132
 20
112.4178056469165
 30
0.0
 11
-72.48711403115132
 21
116.9176958292927
 31
0.0
  0
ELLIPSE
  5
39A
330
1F
100
AcDbEntity
  8
0
  6
CONTINUOUS
 62
     7
100
AcDbEllipse
 10
-72.98711403115048
 20
112.651677546264
 30
0.0
 11
2.999999999997005
 21
0.0
 31
0.0
210
0.0
220
0.0
230
-1.0
 40
0.9999417525352225
 41
1.570796326794966
 42
3.141592653589861
  0
ELLIPSE
  5
39B
330
1F
100
AcDbEntity
  8
0
  6
CONTINUOUS
 62
     7
100
AcDbEllipse
 10
-59.98711403116619
 20
315.656042997483
 30
0.0
 11
2.380903016858948
 21
0.0
 31
0.0
210
0.0
220
0.0
230
-1.0
 40
0.9999417525352192
 41
4.712388980384724
 42
7.224802697094023
  0
LINE
  5
39C
330
1F
100
AcDbEntity
  8
0
  6
CONTINUOUS
 62
     7
100
AcDbLine
 10
-72.74894000507398
 20
318.167798811895
 30
0.0
 11
-72.74894000507398
 21
313.1442871830711
 31
0.0
  0
LINE
  5
39D
330
1F
100
AcDbEntity
  8
0
  6
CONTINUOUS
 62
     7
100
AcDbLine
 10
-47.48711403118138
 20
116.7557989615715
 30
0.0
 11
-47.48711403118138
 21
112.2559087791952
 31
0.0
  0
LINE
  5
39E
330
1F
100
AcDbEntity
  8
0
  6
CONTINUOUS
 62
     7
100
AcDbLine
 10
-72.24901615749663
 20
312.64439245479
 30
0.0
 11
-65.72521190481417
 21
312.64439245479
 31
0.0
  0
LINE
  5
39F
330
1F
100
AcDbEntity
  8
0
  6
CONTINUOUS
 62
     7
100
AcDbLine
 10
-54.74894000509589
 20
117.1795065525166
 30
0.0
 11
-54.24901615751823
 21
117.6794012807975
 31
0.0
  0
ELLIPSE
  5
3A0
330
1F
100
AcDbEntity
  8
0
  6
CONTINUOUS
 62
     7
100
AcDbEllipse
 10
-47.732163997806
 20
113.5059121178492
 30
0.0
 11
3.999999999995951
 21
0.0
 31
0.0
210
0.0
220
0.0
230
-1.0
 40
0.9999417525352318
 41
0.4363323129987275
 42
1.570796326794887
  0
LINE
  5
3A1
330
1F
100
AcDbEntity
  8
0
  6
CONTINUOUS
 62
     7
100
AcDbLine
 10
-54.48711403117284
 20
317.9059880886712
 30
0.0
 11
-54.48711403117284
 21
313.4060979062949
 31
0.0
  0
LINE
  5
3A2
330
1F
100
AcDbEntity
  8
0
  6
CONTINUOUS
 62
     7
100
AcDbLine
 10
-47.732163997806
 20
109.5061451077123
 30
0.0
 11
-72.98711403115051
 21
109.5061451077123
 31
0.0
  0
LINE
  5
3A3
330
1F
100
AcDbEntity
  8
0
  6
CONTINUOUS
 62
     7
100
AcDbLine
 10
-65.98703787873717
 20
117.4175905575737
 30
0.0
 11
-65.4871140311595
 21
116.9176958292927
 31
0.0
  0
ELLIPSE
  5
3A4
330
1F
100
AcDbEntity
  8
0
  6
CONTINUOUS
 62
     7
100
AcDbEllipse
 10
-59.98711403116619
 20
114.6785438626193
 30
0.0
 11
-1.403262301475638
 21
0.0
 31
0.0
210
0.0
220
0.0
230
1.0
 40
0.9999417525352217
 41
5.918866843750463
 42
6.647503770608767
  0
LINE
  5
3A5
330
1F
100
AcDbEntity
  8
0
  6
CONTINUOUS
 62
     7
100
AcDbLine
 10
-196.6202167750102
 20
147.696640205883
 30
0.0
 11
-196.1856652049237
 21
146.9623922573509
 31
0.0
  0
ARC
  5
3A6
330
1F
100
AcDbEntity
  8
0
  6
CONTINUOUS
 62
     7
100
AcDbCircle
 10
235.000000000053
 20
215.0000000000724
 30
0.0
 40
76.49999999992352
210
0.0
220
0.0
230
-1.0
100
AcDbArc
 50
231.0452471318739
 51
237.717927889161
  0
LINE
  5
3A7
330
1F
100
AcDbEntity
  8
0
  6
CONTINUOUS
 62
     7
100
AcDbLine
 10
-202.8622889024718
 20
135.2618816037045
 30
0.0
 11
-204.5151330932101
 21
139.6549152833736
 31
0.0
  0
LINE
  5
3A8
330
1F
100
AcDbEntity
  8
0
  6
CONTINUOUS
 62
     7
100
AcDbLine
 10
-233.8613253637468
 20
109.5061451077136
 30
0.0
 11
-233.893704737291
 21
112.5059703653149
 31
0.0
  0
LINE
  5
3A9
330
1F
100
AcDbEntity
  8
0
  6
CONTINUOUS
 62
     7
100
AcDbLine
 10
-195.4848706797124
 20
282.6330038350164
 30
0.0
 11
-194.0337679826908
 21
285.2102324138293
 31
0.0
  0
ARC
  5
3AA
330
1F
100
AcDbEntity
  8
0
  6
CONTINUOUS
 62
     7
100
AcDbCircle
 10
-177.662272524244
 20
267.1405313350755
 30
0.0
 40
0.9999999999990017
100
AcDbArc
 50
222.2820721108504
 51
310.6184124894822
  0
ARC
  5
3AB
330
1F
100
AcDbEntity
  8
0
  6
CONTINUOUS
 62
     7
100
AcDbCircle
 10
-204.9215762096375
 20
143.5749454164618
 30
0.0
 40
0.9999999999990017
100
AcDbArc
 50
112.8368679040583
 51
200.6184124894921
  0
ARC
  5
3AC
330
1F
100
AcDbEntity
  8
0
  6
CONTINUOUS
 62
     7
100
AcDbCircle
 10
-187.5874696906821
 20
276.3049913926989
 30
0.0
 40
0.9999999999990017
100
AcDbArc
 50
232.2820721108508
 51
320.6184124894821
  0
LINE
  5
3AD
330
1F
100
AcDbEntity
  8
0
  6
CONTINUOUS
 62
     7
100
AcDbLine
 10
-195.9034722707745
 20
281.8895471618011
 30
0.0
 11
-195.4848706797125
 21
282.6330038350164
 31
0.0
  0
LINE
  5
3AE
330
1F
100
AcDbEntity
  8
0
  6
CONTINUOUS
 62
     7
100
AcDbLine
 10
-175.9156961530147
 20
164.8821884068137
 30
0.0
 11
-175.25622366066
 21
164.3408464180342
 31
0.0
  0
LINE
  5
3AF
330
1F
100
AcDbEntity
  8
0
  6
CONTINUOUS
 62
     7
100
AcDbLine
 10
-174.7360749031599
 20
265.0392644316762
 30
0.0
 11
-172.4910203188577
 21
266.9647607568494
 31
0.0
  0
LINE
  5
3B0
330
1F
100
AcDbEntity
  8
0
  6
CONTINUOUS
 62
     7
100
AcDbLine
 10
-190.1379227163433
 20
141.6522391496223
 30
0.0
 11
-192.5278251384693
 21
145.6903811595313
 31
0.0
  0
LINE
  5
3B1
330
1F
100
AcDbEntity
  8
0
  6
CONTINUOUS
 62
     7
100
AcDbLine
 10
-196.1856652049237
 20
146.9623922573508
 30
0.0
 11
-194.6792711328238
 21
144.4170861688233
 31
0.0
  0
LINE
  5
3B2
330
1F
100
AcDbEntity
  8
0
  6
CONTINUOUS
 62
     7
100
AcDbLine
 10
-175.3837088872597
 20
264.483813858153
 30
0.0
 11
-174.7360749031599
 21
265.0392644316762
 31
0.0
  0
ARC
  5
3B3
330
1F
100
AcDbEntity
  8
0
  6
CONTINUOUS
 62
     7
100
AcDbCircle
 10
-186.2752482782461
 20
154.7326907052708
 30
0.0
 40
0.9999999999990017
100
AcDbArc
 50
40.61841248949422
 51
128.954752868126
  0
LINE
  5
3B4
330
1F
100
AcDbEntity
  8
0
  6
CONTINUOUS
 62
     7
100
AcDbLine
 10
-196.2121967883322
 20
286.4367918044571
 30
0.0
 11
-197.6632994853538
 21
283.8595632256443
 31
0.0
  0
LINE
  5
3B5
330
1F
100
AcDbEntity
  8
0
  6
CONTINUOUS
 62
     7
100
AcDbLine
 10
-167.7570253447412
 20
161.4193844801997
 30
0.0
 11
-171.3839249242097
 21
164.3966019596463
 31
0.0
  0
ARC
  5
3B6
330
1F
100
AcDbEntity
  8
0
  6
CONTINUOUS
 62
     7
100
AcDbCircle
 10
-173.6950086074392
 20
167.5874696906913
 30
0.0
 40
0.9999999999990017
100
AcDbArc
 50
142.2820721108386
 51
230.6184124894936
  0
LINE
  5
3B7
330
1F
100
AcDbEntity
  8
0
  6
CONTINUOUS
 62
     7
100
AcDbLine
 10
-184.9607355684596
 20
154.7360749031664
 30
0.0
 11
-183.0352392432868
 21
152.491020318864
 31
0.0
  0
ARC
  5
3B8
330
1F
100
AcDbEntity
  8
0
  6
CONTINUOUS
 62
     7
100
AcDbCircle
 10
235.000000000053
 20
215.0000000000724
 30
0.0
 40
76.49999999992357
210
0.0
220
0.0
230
-1.0
100
AcDbArc
 50
111.6000429250834
 51
117.7179278891506
  0
ARC
  5
3B9
330
1F
100
AcDbEntity
  8
0
  6
CONTINUOUS
 62
     7
100
AcDbCircle
 10
-182.8594686650606
 20
157.6622725242514
 30
0.0
 40
0.9999999999989462
100
AcDbArc
 50
132.282072110838
 51
220.6184124894936
  0
LINE
  5
3BA
330
1F
100
AcDbEntity
  8
0
  6
CONTINUOUS
 62
     7
100
AcDbLine
 10
-183.063080227801
 20
156.3636203581557
 30
0.0
 11
-183.6185308013241
 21
157.0112543422557
 31
0.0
  0
LINE
  5
3BB
330
1F
100
AcDbEntity
  8
0
  6
CONTINUOUS
 62
     7
100
AcDbLine
 10
-168.6393116508794
 20
256.5984097625073
 30
0.0
 11
-169.3737979688241
 21
256.1637171177297
 31
0.0
  0
LINE
  5
3BC
330
1F
100
AcDbEntity
  8
0
  6
CONTINUOUS
 62
     7
100
AcDbLine
 10
-166.0932180044943
 20
258.1052699366979
 30
0.0
 11
-168.6393116508794
 21
256.5984097625072
 31
0.0
  0
LINE
  5
3BD
330
1F
100
AcDbEntity
  8
0
  6
CONTINUOUS
 62
     7
100
AcDbLine
 10
-204.5151330932101
 20
139.6549152833736
 30
0.0
 11
-205.556976153594
 21
142.4239915694767
 31
0.0
  0
LINE
  5
3BE
330
1F
100
AcDbEntity
  8
0
  6
CONTINUOUS
 62
     7
100
AcDbLine
 10
-174.1185657738465
 20
268.8624160975083
 30
0.0
 11
-176.3636203581486
 21
266.9369197723353
 31
0.0
  0
LINE
  5
3BF
330
1F
100
AcDbEntity
  8
0
  6
CONTINUOUS
 62
     7
100
AcDbLine
 10
-181.1375839026282
 20
154.118565773853
 30
0.0
 11
-183.063080227801
 21
156.3636203581557
 31
0.0
  0
ARC
  5
3C0
330
1F
100
AcDbEntity
  8
0
  6
CONTINUOUS
 62
     7
100
AcDbCircle
 10
-176.5501783088933
 20
164.1092508971343
 30
0.0
 40
0.9999999999990017
100
AcDbArc
 50
50.61841248949476
 51
138.9547528681268
  0
LINE
  5
3C1
330
1F
100
AcDbEntity
  8
0
  6
CONTINUOUS
 62
     7
100
AcDbLine
 10
-173.6700182709632
 20
166.2731901922326
 30
0.0
 11
-174.3294907633179
 21
166.8145321810122
 31
0.0
  0
LINE
  5
3C2
330
1F
100
AcDbEntity
  8
0
  6
CONTINUOUS
 62
     7
100
AcDbLine
 10
-167.7568712391745
 20
174.8436768692445
 30
0.0
 11
-165.1788452251821
 21
173.3921251781556
 31
0.0
  0
LINE
  5
3C3
330
1F
100
AcDbEntity
  8
0
  6
CONTINUOUS
 62
     7
100
AcDbLine
 10
-207.1303884183078
 20
288.1946268740703
 30
0.0
 11
-206.1485585783336
 21
290.9855461860648
 31
0.0
  0
ARC
  5
3C4
330
1F
100
AcDbEntity
  8
0
  6
CONTINUOUS
 62
     7
100
AcDbCircle
 10
235.000000000053
 20
215.0000000000724
 30
0.0
 40
76.49999999992352
210
0.0
220
0.0
230
-1.0
100
AcDbArc
 50
121.0452471318626
 51
127.7179278891499
  0
LINE
  5
3C5
330
1F
100
AcDbEntity
  8
0
  6
CONTINUOUS
 62
     7
100
AcDbLine
 10
-172.9701303139063
 20
162.4642581854481
 30
0.0
 11
-169.3432307344379
 21
159.4870407060012
 31
0.0
  0
LINE
  5
3C6
330
1F
100
AcDbEntity
  8
0
  6
CONTINUOUS
 62
     7
100
AcDbLine
 10
-184.8821884068048
 20
274.0843038471232
 30
0.0
 11
-184.3408464180255
 21
274.743776339478
 31
0.0
  0
ARC
  5
3C7
330
1F
100
AcDbEntity
  8
0
  6
CONTINUOUS
 62
     7
100
AcDbCircle
 10
-195.0321007485179
 20
281.3989234055499
 30
0.0
 40
0.9999999999990017
100
AcDbArc
 50
150.6184124894819
 51
238.9547528681369
  0
LINE
  5
3C8
330
1F
100
AcDbEntity
  8
0
  6
CONTINUOUS
 62
     7
100
AcDbLine
 10
-178.082773467195
 20
150.5567744151345
 30
0.0
 11
-181.1375839026282
 21
154.118565773853
 31
0.0
  0
LINE
  5
3C9
330
1F
100
AcDbEntity
  8
0
  6
CONTINUOUS
 62
     7
100
AcDbLine
 10
-184.3408464180255
 20
274.743776339478
 30
0.0
 11
-182.4642581854398
 21
277.0298696862321
 31
0.0
  0
LINE
  5
3CA
330
1F
100
AcDbEntity
  8
0
  6
CONTINUOUS
 62
     7
100
AcDbLine
 10
-185.5161861419827
 20
155.3837088872664
 30
0.0
 11
-184.9607355684596
 21
154.7360749031665
 31
0.0
  0
LINE
  5
3CB
330
1F
100
AcDbEntity
  8
0
  6
CONTINUOUS
 62
     7
100
AcDbLine
 10
-184.3966019596377
 20
278.6160750759292
 30
0.0
 11
-186.2731901922235
 21
276.3299817291751
 31
0.0
  0
LINE
  5
3CC
330
1F
100
AcDbEntity
  8
0
  6
CONTINUOUS
 62
     7
100
AcDbLine
 10
-172.4910203188577
 20
266.9647607568494
 30
0.0
 11
-168.92922896014
 21
270.0195711922833
 31
0.0
  0
LINE
  5
3CD
330
1F
100
AcDbEntity
  8
0
  6
CONTINUOUS
 62
     7
100
AcDbLine
 10
-197.6632994853538
 20
283.8595632256443
 30
0.0
 11
-198.0819010764159
 21
283.1161065524287
 31
0.0
  0
LINE
  5
3CE
330
1F
100
AcDbEntity
  8
0
  6
CONTINUOUS
 62
     7
100
AcDbLine
 10
-206.1485585783336
 20
290.9855461860648
 30
0.0
 11
-204.5909230677638
 21
295.4132329913589
 31
0.0
  0
LINE
  5
3CF
330
1F
100
AcDbEntity
  8
0
  6
CONTINUOUS
 62
     7
100
AcDbLine
 10
-192.5278251384693
 20
145.6903811595312
 30
0.0
 11
-194.0342192105691
 21
148.2356872480587
 31
0.0
  0
ARC
  5
3D0
330
1F
100
AcDbEntity
  8
0
  6
CONTINUOUS
 62
     7
100
AcDbCircle
 10
-184.1092508971256
 20
273.4498216912443
 30
0.0
 40
0.9999999999990017
100
AcDbArc
 50
140.6184124894822
 51
228.9547528681381
  0
LINE
  5
3D1
330
1F
100
AcDbEntity
  8
0
  6
CONTINUOUS
 62
     7
100
AcDbLine
 10
-186.2731901922235
 20
276.3299817291751
 30
0.0
 11
-186.8145321810028
 21
275.6705092368201
 31
0.0
  0
LINE
  5
3D2
330
1F
100
AcDbEntity
  8
0
  6
CONTINUOUS
 62
     7
100
AcDbLine
 10
-171.3839249242097
 20
164.3966019596463
 30
0.0
 11
-173.6700182709632
 21
166.2731901922326
 31
0.0
  0
ARC
  5
3D3
330
1F
100
AcDbEntity
  8
0
  6
CONTINUOUS
 62
     7
100
AcDbCircle
 10
-197.480795172752
 20
147.1873222095999
 30
0.0
 40
0.9999999999990572
100
AcDbArc
 50
30.61841248949476
 51
118.954752868127
  0
LINE
  5
3D4
330
1F
100
AcDbEntity
  8
0
  6
CONTINUOUS
 62
     7
100
AcDbLine
 10
-226.7564123520832
 20
306.8818043487633
 30
0.0
 11
-226.2111612753339
 21
307.3326530208412
 31
0.0
  0
ARC
  5
3D5
330
1F
100
AcDbEntity
  8
0
  6
CONTINUOUS
 62
     7
100
AcDbCircle
 10
235.000000000053
 20
215.0000000000724
 30
0.0
 40
76.49999999992352
210
0.0
220
0.0
230
-1.0
100
AcDbArc
 50
211.6000429250931
 51
217.7179278891614
  0
ARC
  5
3D6
330
1F
100
AcDbEntity
  8
0
  6
CONTINUOUS
 62
     7
100
AcDbCircle
 10
235.000000000053
 20
215.0000000000724
 30
0.0
 40
76.49999999992352
210
0.0
220
0.0
230
-1.0
100
AcDbArc
 50
241.045247131873
 51
247.1631320959401
  0
LINE
  5
3D7
330
1F
100
AcDbEntity
  8
0
  6
CONTINUOUS
 62
     7
100
AcDbLine
 10
-205.556976153594
 20
142.4239915694767
 30
0.0
 11
-205.857522629716
 21
143.2228029754809
 31
0.0
  0
LINE
  5
3D8
330
1F
100
AcDbEntity
  8
0
  6
CONTINUOUS
 62
     7
100
AcDbLine
 10
-230.7701016029693
 20
122.7445327396842
 30
0.0
 11
-230.2606083377556
 21
122.3711671959498
 31
0.0
  0
ARC
  5
3D9
330
1F
100
AcDbEntity
  8
0
  6
CONTINUOUS
 62
     7
100
AcDbCircle
 10
235.000000000053
 20
215.0000000000724
 30
0.0
 40
76.49999999992352
210
0.0
220
0.0
230
-1.0
100
AcDbArc
 50
141.0452471318621
 51
147.1631320959304
  0
LINE
  5
3DA
330
1F
100
AcDbEntity
  8
0
  6
CONTINUOUS
 62
     7
100
AcDbLine
 10
-168.5005692713625
 20
175.2624143569278
 30
0.0
 11
-167.7568712391745
 21
174.8436768692445
 31
0.0
  0
ARC
  5
3DB
330
1F
100
AcDbEntity
  8
0
  6
CONTINUOUS
 62
     7
100
AcDbCircle
 10
-169.883115965107
 20
257.0242955154717
 30
0.0
 40
0.9999999999990017
100
AcDbArc
 50
212.8368679040685
 51
300.6184124894824
  0
LINE
  5
3DC
330
1F
100
AcDbEntity
  8
0
  6
CONTINUOUS
 62
     7
100
AcDbLine
 10
-182.4642581854398
 20
277.0298696862321
 30
0.0
 11
-179.4870407059935
 21
280.6567692657012
 31
0.0
  0
ARC
  5
3DD
330
1F
100
AcDbEntity
  8
0
  6
CONTINUOUS
 62
     7
100
AcDbCircle
 10
235.000000000053
 20
215.0000000000724
 30
0.0
 40
76.49999999992352
210
0.0
220
0.0
230
-1.0
100
AcDbArc
 50
131.045247131862
 51
137.7179278891497
  0
ARC
  5
3DE
330
1F
100
AcDbEntity
  8
0
  6
CONTINUOUS
 62
     7
100
AcDbCircle
 10
-198.9532725986724
 20
283.60673030868
 30
0.0
 40
0.9999999999990572
100
AcDbArc
 50
242.2820721108495
 51
330.6184124894819
  0
ARC
  5
3DF
330
1F
100
AcDbEntity
  8
0
  6
CONTINUOUS
 62
     7
100
AcDbCircle
 10
235.000000000053
 20
215.0000000000724
 30
0.0
 40
76.49999999992346
210
0.0
220
0.0
230
-1.0
100
AcDbArc
 50
221.0452471318739
 51
227.7179278891615
  0
LINE
  5
3E0
330
1F
100
AcDbEntity
  8
0
  6
CONTINUOUS
 62
     7
100
AcDbLine
 10
-175.25622366066
 20
164.3408464180341
 30
0.0
 11
-172.9701303139063
 21
162.4642581854481
 31
0.0
  0
LINE
  5
3E1
330
1F
100
AcDbEntity
  8
0
  6
CONTINUOUS
 62
     7
100
AcDbLine
 10
-183.0352392432867
 20
152.491020318864
 30
0.0
 11
-179.9804288078535
 21
148.9292289601455
 31
0.0
  0
ARC
  5
3E2
330
1F
100
AcDbEntity
  8
0
  6
CONTINUOUS
 62
     7
100
AcDbCircle
 10
-235.0000000000529
 20
215.0000000000727
 30
0.0
 40
92.74999999990722
100
AcDbArc
 50
11.36501666117939
 51
13.87180831780188
  0
LINE
  5
3E3
330
1F
100
AcDbEntity
  8
0
  6
CONTINUOUS
 62
     7
100
AcDbLine
 10
-162.0539377592022
 20
260.4958460031627
 30
0.0
 11
-166.0932180044943
 21
258.1052699366979
 31
0.0
  0
LINE
  5
3E4
330
1F
100
AcDbEntity
  8
0
  6
CONTINUOUS
 62
     7
100
AcDbLine
 10
-170.5567744151288
 20
271.9172265329421
 30
0.0
 11
-174.1185657738465
 21
268.8624160975084
 31
0.0
  0
LINE
  5
3E5
330
1F
100
AcDbEntity
  8
0
  6
CONTINUOUS
 62
     7
100
AcDbLine
 10
-155.1813536095
 20
262.2392441553291
 30
0.0
 11
-155.3964982089229
 21
262.1119146562659
 31
0.0
  0
ARC
  5
3E6
330
1F
100
AcDbEntity
  8
0
  6
CONTINUOUS
 62
     7
100
AcDbCircle
 10
235.0000000000531
 20
215.0000000000724
 30
0.0
 40
83.4999999998943
210
0.0
220
0.0
230
-1.0
100
AcDbArc
 50
269.3815875100171
 51
271.1480302134424
  0
ARC
  5
3E7
330
1F
100
AcDbEntity
  8
0
  6
CONTINUOUS
 62
     7
100
AcDbCircle
 10
-193.6081923829138
 20
149.479253192874
 30
0.0
 40
0.9999999999990017
100
AcDbArc
 50
122.2820721108386
 51
210.6184124894948
  0
ARC
  5
3E8
330
1F
100
AcDbEntity
  8
0
  6
CONTINUOUS
 62
     7
100
AcDbCircle
 10
235.0000000000531
 20
215.0000000000724
 30
0.0
 40
83.49999999989424
210
0.0
220
0.0
230
-1.0
100
AcDbArc
 50
273.6151448065917
 51
275.1480302134423
  0
ARC
  5
3E9
330
1F
100
AcDbEntity
  8
0
  6
CONTINUOUS
 62
     7
100
AcDbCircle
 10
-168.9911930276135
 20
174.3910428346713
 30
0.0
 40
0.9999999999989462
100
AcDbArc
 50
60.61841248949318
 51
148.3999570749073
  0
LINE
  5
3EA
330
1F
100
AcDbEntity
  8
0
  6
CONTINUOUS
 62
     7
100
AcDbLine
 10
-224.3383348941788
 20
306.8522156412891
 30
0.0
 11
-224.3119664313514
 21
307.1321248991381
 31
0.0
  0
LINE
  5
3EB
330
1F
100
AcDbEntity
  8
0
  6
CONTINUOUS
 62
     7
100
AcDbLine
 10
-243.651850647756
 20
123.1579722758724
 30
0.0
 11
-242.8313294036998
 21
131.8680549984541
 31
0.0
  0
ARC
  5
3EC
330
1F
100
AcDbEntity
  8
0
  6
CONTINUOUS
 62
     7
100
AcDbCircle
 10
266.3524062837106
 20
134.9186250106041
 30
0.0
 40
0.9999999999987241
210
0.0
220
0.0
230
-1.0
100
AcDbArc
 50
111.3806830741402
 51
199.381587510017
  0
ARC
  5
3ED
330
1F
100
AcDbEntity
  8
0
  6
CONTINUOUS
 62
     7
100
AcDbCircle
 10
-235.0000000000531
 20
215.0000000000724
 30
0.0
 40
83.49999999989419
100
AcDbArc
 50
94.85196978655759
 51
96.38485519340819
  0
ARC
  5
3EE
330
1F
100
AcDbEntity
  8
0
  6
CONTINUOUS
 62
     7
100
AcDbCircle
 10
235.0000000000531
 20
215.0000000000724
 30
0.0
 40
83.49999999989424
210
0.0
220
0.0
230
-1.0
100
AcDbArc
 50
16.61514480659188
 51
18.14803021344249
  0
ARC
  5
3EF
330
1F
100
AcDbEntity
  8
0
  6
CONTINUOUS
 62
     7
100
AcDbCircle
 10
235.0000000000531
 20
215.0000000000724
 30
0.0
 40
84.99999999989241
210
0.0
220
0.0
230
-1.0
100
AcDbArc
 50
310.8807760607916
 51
317.8823989592425
  0
ARC
  5
3F0
330
1F
100
AcDbEntity
  8
0
  6
CONTINUOUS
 62
     7
100
AcDbCircle
 10
-235.0000000000531
 20
215.0000000000724
 30
0.0
 40
83.49999999989433
100
AcDbArc
 50
264.6184124899829
 51
264.8519697865576
  0
LINE
  5
3F1
330
1F
100
AcDbEntity
  8
0
  6
CONTINUOUS
 62
     7
100
AcDbLine
 10
-265.4090769316425
 20
134.5867670085552
 30
0.0
 11
-266.4052367804085
 21
131.7551136541368
 31
0.0
  0
LINE
  5
3F2
330
1F
100
AcDbEntity
  8
0
  6
CONTINUOUS
 62
     7
100
AcDbLine
 10
-308.9110945011722
 20
258.9107060935299
 30
0.0
 11
-311.5267473360429
 21
260.3834434806135
 31
0.0
  0
LINE
  5
3F3
330
1F
100
AcDbEntity
  8
0
  6
CONTINUOUS
 62
     7
100
AcDbLine
 10
-242.4542185468545
 20
302.1819053809209
 30
0.0
 11
-242.0625695738596
 21
298.2007819134399
 31
0.0
  0
ARC
  5
3F4
330
1F
100
AcDbEntity
  8
0
  6
CONTINUOUS
 62
     7
100
AcDbCircle
 10
-235.0000000000531
 20
215.0000000000724
 30
0.0
 40
88.74999999988758
100
AcDbArc
 50
229.1667103298749
 51
232.0701146500915
  0
ARC
  5
3F5
330
1F
100
AcDbEntity
  8
0
  6
CONTINUOUS
 62
     7
100
AcDbCircle
 10
235.0000000000531
 20
215.0000000000724
 30
0.0
 40
84.99999999989241
210
0.0
220
0.0
230
-1.0
100
AcDbArc
 50
40.88077606079184
 51
47.8823989592426
  0
ARC
  5
3F6
330
1F
100
AcDbEntity
  8
0
  6
CONTINUOUS
 62
     7
100
AcDbCircle
 10
235.0000000000531
 20
215.0000000000724
 30
0.0
 40
84.99999999989235
210
0.0
220
0.0
230
-1.0
100
AcDbArc
 50
300.8807760607916
 51
307.8823989592423
  0
LINE
  5
3F7
330
1F
100
AcDbEntity
  8
0
  6
CONTINUOUS
 62
     7
100
AcDbLine
 10
-240.5706611358492
 20
127.6775072820516
 30
0.0
 11
-240.2650359274482
 21
131.666156954982
 31
0.0
  0
ARC
  5
3F8
330
1F
100
AcDbEntity
  8
0
  6
CONTINUOUS
 62
     7
100
AcDbCircle
 10
235.0000000000531
 20
215.0000000000724
 30
0.0
 40
84.99999999989241
210
0.0
220
0.0
230
-1.0
100
AcDbArc
 50
60.88077606079185
 51
67.38249194589565
  0
LINE
  5
3F9
330
1F
100
AcDbEntity
  8
0
  6
CONTINUOUS
 62
     7
100
AcDbLine
 10
-236.6996070366048
 20
127.5165082093356
 30
0.0
 11
-236.8141560094263
 21
122.7669715035093
 31
0.0
  0
LINE
  5
3FA
330
1F
100
AcDbEntity
  8
0
  6
CONTINUOUS
 62
     7
100
AcDbLine
 10
-244.2857217816286
 20
297.9820786133235
 30
0.0
 11
-244.6773614539353
 21
301.9632029957626
 31
0.0
  0
LINE
  5
3FB
330
1F
100
AcDbEntity
  8
0
  6
CONTINUOUS
 62
     7
100
AcDbLine
 10
-194.0342192105692
 20
148.2356872480587
 30
0.0
 11
-194.4687707806557
 21
148.9699351965909
 31
0.0
  0
ARC
  5
3FC
330
1F
100
AcDbEntity
  8
0
  6
CONTINUOUS
 62
     7
100
AcDbCircle
 10
235.0000000000531
 20
215.0000000000724
 30
0.0
 40
84.99999999989241
210
0.0
220
0.0
230
-1.0
100
AcDbArc
 50
50.88077606079185
 51
57.88239895924255
  0
ARC
  5
3FD
330
1F
100
AcDbEntity
  8
0
  6
CONTINUOUS
 62
     7
100
AcDbCircle
 10
235.0000000000531
 20
215.0000000000724
 30
0.0
 40
83.49999999989427
210
0.0
220
0.0
230
-1.0
100
AcDbArc
 50
87.38158751001706
 51
87.6151448065918
  0
LINE
  5
3FE
330
1F
100
AcDbEntity
  8
0
  6
CONTINUOUS
 62
     7
100
AcDbLine
 10
-242.7980067774306
 20
127.8481721920533
 30
0.0
 11
-243.2435876472283
 21
123.1181956513467
 31
0.0
  0
LINE
  5
3FF
330
1F
100
AcDbEntity
  8
0
  6
CONTINUOUS
 62
     7
100
AcDbLine
 10
-314.3462893419527
 20
241.0080058377381
 30
0.0
 11
-318.1639622611523
 21
242.2030399223506
 31
0.0
  0
ARC
  5
400
330
1F
100
AcDbEntity
  8
0
  6
CONTINUOUS
 62
     7
100
AcDbCircle
 10
235.0000000000531
 20
215.0000000000724
 30
0.0
 40
84.99999999989241
210
0.0
220
0.0
230
-1.0
100
AcDbArc
 50
31.38068307413885
 51
37.88239895924262
  0
LINE
  5
401
330
1F
100
AcDbEntity
  8
0
  6
CONTINUOUS
 62
     7
100
AcDbLine
 10
-242.4923908873002
 20
131.8368225789732
 30
0.0
 11
-242.7980067774306
 21
127.8481721920533
 31
0.0
  0
ARC
  5
402
330
1F
100
AcDbEntity
  8
0
  6
CONTINUOUS
 62
     7
100
AcDbCircle
 10
235.0000000000531
 20
215.0000000000724
 30
0.0
 40
84.99999999989247
210
0.0
220
0.0
230
-1.0
100
AcDbArc
 50
320.8807760607916
 51
327.3824919458953
  0
ARC
  5
403
330
1F
100
AcDbEntity
  8
0
  6
CONTINUOUS
 62
     7
100
AcDbCircle
 10
-235.0000000000531
 20
215.0000000000724
 30
0.0
 40
83.49999999989433
100
AcDbArc
 50
268.6184124899828
 51
268.8519697865576
  0
ARC
  5
404
330
1F
100
AcDbEntity
  8
0
  6
CONTINUOUS
 62
     7
100
AcDbCircle
 10
308.4204707449287
 20
259.7820776157906
 30
0.0
 40
0.9999999999987241
210
0.0
220
0.0
230
-1.0
100
AcDbArc
 50
211.3806830741392
 51
299.3815875100172
  0
LINE
  5
405
330
1F
100
AcDbEntity
  8
0
  6
CONTINUOUS
 62
     7
100
AcDbLine
 10
-245.632244319365
 20
306.6338799618933
 30
0.0
 11
-244.6239071795754
 21
297.9435374854035
 31
0.0
  0
LINE
  5
406
330
1F
100
AcDbEntity
  8
0
  6
CONTINUOUS
 62
     7
100
AcDbLine
 10
-238.5875415013423
 20
302.4264236141904
 30
0.0
 11
-238.8045824965781
 21
307.172381219727
 31
0.0
  0
LINE
  5
407
330
1F
100
AcDbEntity
  8
0
  6
CONTINUOUS
 62
     7
100
AcDbLine
 10
-244.6773614539353
 20
301.9632029957626
 30
0.0
 11
-245.2249350153164
 21
306.6824596726177
 31
0.0
  0
LINE
  5
408
330
1F
100
AcDbEntity
  8
0
  6
CONTINUOUS
 62
     7
100
AcDbLine
 10
-238.4745650420492
 20
298.4276776481379
 30
0.0
 11
-238.5875415013423
 21
302.4264236141908
 31
0.0
  0
ARC
  5
409
330
1F
100
AcDbEntity
  8
0
  6
CONTINUOUS
 62
     7
100
AcDbCircle
 10
235.0000000000531
 20
215.0000000000724
 30
0.0
 40
83.49999999989427
210
0.0
220
0.0
230
-1.0
100
AcDbArc
 50
83.38158751001706
 51
83.61514480659183
  0
LINE
  5
40A
330
1F
100
AcDbEntity
  8
0
  6
CONTINUOUS
 62
     7
100
AcDbLine
 10
-236.6729697974122
 20
131.5167611311971
 30
0.0
 11
-236.6996070366048
 21
127.5165082093356
 31
0.0
  0
ARC
  5
40B
330
1F
100
AcDbEntity
  8
0
  6
CONTINUOUS
 62
     7
100
AcDbCircle
 10
-206.470293182566
 20
287.0576562823572
 30
0.0
 40
0.9999999999989739
100
AcDbArc
 50
160.618412489485
 51
248.3999570749167
  0
LINE
  5
40C
330
1F
100
AcDbEntity
  8
0
  6
CONTINUOUS
 62
     7
100
AcDbLine
 10
-235.9443983958489
 20
302.4949033467745
 30
0.0
 11
-235.9012258977553
 21
298.4951363366407
 31
0.0
  0
ARC
  5
40D
330
1F
100
AcDbEntity
  8
0
  6
CONTINUOUS
 62
     7
100
AcDbCircle
 10
-235.0000000000531
 20
215.0000000000724
 30
0.0
 40
83.4999999998943
100
AcDbArc
 50
90.61841248998292
 51
92.38485519340821
  0
ARC
  5
40E
330
1F
100
AcDbEntity
  8
0
  6
CONTINUOUS
 62
     7
100
AcDbCircle
 10
-235.0000000000531
 20
215.0000000000724
 30
0.0
 40
83.49999999989643
100
AcDbArc
 50
161.618412489983
 51
161.8519697865578
  0
LINE
  5
40F
330
1F
100
AcDbEntity
  8
0
  6
CONTINUOUS
 62
     7
100
AcDbLine
 10
-318.1639622611523
 20
242.2030399223505
 30
0.0
 11
-323.1461452542138
 21
243.8586135635883
 31
0.0
  0
LINE
  5
410
330
1F
100
AcDbEntity
  8
0
  6
CONTINUOUS
 62
     7
100
AcDbLine
 10
-234.0556016042573
 20
127.5050966533707
 30
0.0
 11
-234.0987741023509
 21
131.5048636635048
 31
0.0
  0
ARC
  5
411
330
1F
100
AcDbEntity
  8
0
  6
CONTINUOUS
 62
     7
100
AcDbCircle
 10
-235.0000000000531
 20
215.0000000000724
 30
0.0
 40
88.74999999988763
100
AcDbArc
 50
119.1667103298746
 51
122.070114650091
  0
LINE
  5
412
330
1F
100
AcDbEntity
  8
0
  6
CONTINUOUS
 62
     7
100
AcDbLine
 10
-318.831296791029
 20
240.0711722567082
 30
0.0
 11
-315.0136266636744
 21
238.8761292532644
 31
0.0
  0
LINE
  5
413
330
1F
100
AcDbEntity
  8
0
  6
CONTINUOUS
 62
     7
100
AcDbLine
 10
-239.2142883649489
 20
307.1523323075103
 30
0.0
 11
-238.8146151305416
 21
298.4128210253013
 31
0.0
  0
LINE
  5
414
330
1F
100
AcDbEntity
  8
0
  6
CONTINUOUS
 62
     7
100
AcDbLine
 10
-237.2241991788684
 20
122.7781722468999
 30
0.0
 11
-237.0132613400703
 21
131.5242743143539
 31
0.0
  0
ARC
  5
415
330
1F
100
AcDbEntity
  8
0
  6
CONTINUOUS
 62
     7
100
AcDbCircle
 10
-174.7326907052641
 20
263.7247517218893
 30
0.0
 40
0.9999999999990017
100
AcDbArc
 50
130.6184124894817
 51
218.9547528681386
  0
LINE
  5
416
330
1F
100
AcDbEntity
  8
0
  6
CONTINUOUS
 62
     7
100
AcDbLine
 10
-251.132404362112
 20
319.8319871484447
 30
0.0
 11
-251.1216112375955
 21
318.8320453957398
 31
0.0
  0
ARC
  5
417
330
1F
100
AcDbEntity
  8
0
  6
CONTINUOUS
 62
     7
100
AcDbCircle
 10
-252.375821858632
 20
312.5399181087211
 30
0.0
 40
1.599999999998492
100
AcDbArc
 50
196.1123799900113
 51
265.6184124894881
  0
LINE
  5
418
330
1F
100
AcDbEntity
  8
0
  6
CONTINUOUS
 62
     7
100
AcDbLine
 10
-252.0891736165873
 20
315.8214270137929
 30
0.0
 11
-252.5506452035878
 21
315.8164460033631
 31
0.0
  0
LINE
  5
419
330
1F
100
AcDbEntity
  8
0
  6
CONTINUOUS
 62
     7
100
AcDbLine
 10
-217.5019403611075
 20
119.0554056595183
 30
0.0
 11
-218.9489592062676
 21
119.1662799380305
 31
0.0
  0
LINE
  5
41A
330
1F
100
AcDbEntity
  8
0
  6
CONTINUOUS
 62
     7
100
AcDbLine
 10
-252.5398520790728
 20
314.8165042508289
 30
0.0
 11
-252.0783804920725
 21
314.8214852612586
 31
0.0
  0
LINE
  5
41B
330
1F
100
AcDbEntity
  8
0
  6
CONTINUOUS
 62
     7
100
AcDbLine
 10
-253.9421749395075
 20
314.8013679239337
 30
0.0
 11
-254.29714381321
 21
314.7975364775088
 31
0.0
  0
LINE
  5
41C
330
1F
100
AcDbEntity
  8
0
  6
CONTINUOUS
 62
     7
100
AcDbLine
 10
-216.0578250605985
 20
115.1986320762114
 30
0.0
 11
-217.4601479210332
 21
115.1834957493162
 31
0.0
  0
LINE
  5
41D
330
1F
100
AcDbEntity
  8
0
  6
CONTINUOUS
 62
     7
100
AcDbLine
 10
-253.9421749395075
 20
314.8013679239337
 30
0.0
 11
-252.5398520790728
 21
314.8165042508289
 31
0.0
  0
LINE
  5
41E
330
1F
100
AcDbEntity
  8
0
  6
CONTINUOUS
 62
     7
100
AcDbLine
 10
-254.1619739310227
 20
317.725581415756
 30
0.0
 11
-254.1614118776244
 21
317.6735093156568
 31
0.0
  0
ARC
  5
41F
330
1F
100
AcDbEntity
  8
0
  6
CONTINUOUS
 62
     7
100
AcDbCircle
 10
-227.6156579453581
 20
114.5738505548262
 30
0.0
 40
11.98957880826981
100
AcDbArc
 50
349.196415313181
 51
354.3937369946875
  0
LINE
  5
420
330
1F
100
AcDbEntity
  8
0
  6
CONTINUOUS
 62
     7
100
AcDbLine
 10
-252.5506452035877
 20
315.8164460033631
 30
0.0
 11
-253.9529680640222
 21
315.8013096764679
 31
0.0
  0
LINE
  5
421
330
1F
100
AcDbEntity
  8
0
  6
CONTINUOUS
 62
     7
100
AcDbLine
 10
-252.0783804920725
 20
314.8214852612586
 30
0.0
 11
-252.0891736165872
 21
315.8214270137929
 31
0.0
  0
LINE
  5
422
330
1F
100
AcDbEntity
  8
0
  6
CONTINUOUS
 62
     7
100
AcDbLine
 10
-216.0578250605985
 20
115.1986320762114
 30
0.0
 11
-215.702856186896
 21
115.2024635226362
 31
0.0
  0
LINE
  5
423
330
1F
100
AcDbEntity
  8
0
  6
CONTINUOUS
 62
     7
100
AcDbLine
 10
-251.132404362112
 20
319.8319871484447
 30
0.0
 11
-252.5924376436622
 21
319.6883559135651
 31
0.0
  0
ARC
  5
424
330
1F
100
AcDbEntity
  8
0
  6
CONTINUOUS
 62
     7
100
AcDbCircle
 10
-235.0000000000531
 20
215.0000000000724
 30
0.0
 40
88.74999999991128
100
AcDbArc
 50
39.16671032938586
 51
42.0701146496023
  0
LINE
  5
425
330
1F
100
AcDbEntity
  8
0
  6
________________
 62
     1
100
AcDbLine
 10
-340.4999999999309
 20
215.0000000000399
 30
0.0
 11
-129.5000000001494
 21
215.0000000000399
 31
0.0
  0
LINE
  5
426
330
1F
100
AcDbEntity
  8
0
  6
CONTINUOUS
 62
     7
100
AcDbLine
 10
-252.4980596389986
 20
310.9445943406269
 30
0.0
 11
-251.0510407946225
 21
310.8337200621746
 31
0.0
  0
ARC
  5
427
330
1F
100
AcDbEntity
  8
0
  6
CONTINUOUS
 62
     7
100
AcDbCircle
 10
-242.3843420547479
 20
315.4261494453189
 30
0.0
 40
11.99999999998802
100
AcDbArc
 50
165.1244449889658
 51
168.9526984017631
  0
LINE
  5
428
330
1F
100
AcDbEntity
  8
0
  6
CONTINUOUS
 62
     7
100
AcDbLine
 10
-218.867595637994
 20
110.1680128517006
 30
0.0
 11
-218.8783887625088
 21
111.1679546042348
 31
0.0
  0
ARC
  5
429
330
1F
100
AcDbEntity
  8
0
  6
CONTINUOUS
 62
     7
100
AcDbCircle
 10
-235.000000000053
 20
215.0000000000724
 30
0.0
 40
79.74999999992028
100
AcDbArc
 50
309.7202281212168
 51
311.5165430866143
  0
ENDSEC
  0
SECTION
  2
OBJECTS
  0
DICTIONARY
  5
C
330
0
100
AcDbDictionary
  3
ACAD_GROUP
350
D
  3
ACAD_LAYOUT
350
1A
  3
ACAD_MATERIAL
350
43
  3
ACAD_MLEADERSTYLE
350
6B
  3
ACAD_MLINESTYLE
350
17
  3
ACAD_PLOTSETTINGS
350
19
  3
ACAD_SCALELIST
350
47
  3
ACAD_VISUALSTYLE
350
2A
  3
ACDBHEADERROUNDTRIPXREC
350
42A
  3
ACDBVARIABLEDICTIONARY
350
44B
  0
DICTIONARY
  5
452
330
8
100
AcDbDictionary
280
     1
  3
ACAD_XREC_ROUNDTRIP
360
453
  0
DICTIONARY
  5
D
102
{ACAD_REACTORS
330
C
102
}
330
C
100
AcDbDictionary
  0
DICTIONARY
  5
1A
102
{ACAD_REACTORS
330
C
102
}
330
C
100
AcDbDictionary
  0
DICTIONARY
  5
43
102
{ACAD_REACTORS
330
C
102
}
330
C
100
AcDbDictionary
  3
BYBLOCK
350
45
  3
BYLAYER
350
44
  3
GLOBAL
350
46
  0
DICTIONARY
  5
6B
102
{ACAD_REACTORS
330
C
102
}
330
C
100
AcDbDictionary
  3
STANDARD
350
6C
  0
DICTIONARY
  5
17
102
{ACAD_REACTORS
330
C
102
}
330
C
100
AcDbDictionary
  3
STANDARD
350
18
  0
DICTIONARY
  5
19
102
{ACAD_REACTORS
330
C
102
}
330
C
100
AcDbDictionary
  0
DICTIONARY
  5
47
102
{ACAD_REACTORS
330
C
102
}
330
C
100
AcDbDictionary
  3
A0
350
48
  3
A1
350
49
  3
A2
350
4A
  3
A3
350
4B
  3
A4
350
4C
  3
A5
350
4D
  3
A6
350
4E
  3
A7
350
4F
  3
A8
350
50
  3
A9
350
51
  3
B0
350
52
  3
B1
350
53
  3
B2
350
54
  3
B3
350
55
  3
B4
350
56
  3
B5
350
57
  3
B6
350
58
  3
B7
350
59
  3
B8
350
5A
  3
B9
350
5B
  3
C0
350
5C
  3
C1
350
5D
  3
C2
350
5E
  3
C3
350
5F
  3
C4
350
60
  3
C5
350
61
  3
C6
350
62
  3
C7
350
63
  3
C8
350
64
  3
C9
350
65
  3
D0
350
66
  3
D1
350
67
  3
D2
350
68
  0
DICTIONARY
  5
2A
102
{ACAD_REACTORS
330
C
102
}
330
C
100
AcDbDictionary
  3
2DWIREFRAME
350
2F
  3
BASIC
350
32
  3
BRIGHTEN
350
36
  3
COLORCHANGE
350
3A
  3
CONCEPTUAL
350
34
  3
DIM
350
35
  3
EDGECOLOROFF
350
3D
  3
FACEPATTERN
350
39
  3
FLAT
350
2B
  3
FLATWITHEDGES
350
2C
  3
GOURAUD
350
2D
  3
GOURAUDWITHEDGES
350
2E
  3
HIDDEN
350
31
  3
JITTEROFF
350
3B
  3
LINEPATTERN
350
38
  3
OVERHANGOFF
350
3C
  3
REALISTIC
350
33
  3
SHADED
350
42
  3
SHADED_WITH_EDGES
350
41
  3
SHADES_OF_GRAY
350
3E
  3
SKETCHY
350
3F
  3
THICKEN
350
37
  3
WIREFRAME
350
30
  3
X-RAY
350
40
  0
DICTIONARY
  5
42A
102
{ACAD_REACTORS
330
C
102
}
330
C
100
AcDbDictionary
  3
CEPSNID
350
434
  3
CEPSNTYPE
350
433
  3
DIMSTYLEDATA
350
44A
  3
FINGERPRINTGUID
350
435
  3
HYPERLINKBASE
350
42D
  3
INSUNITS
350
432
  3
LAYOUTDICT
350
42F
  3
LWETCUNION
350
431
  3
PLOTSETDICT
350
430
  3
PSVPSCALE
350
437
  3
PUCSBASE
350
43A
  3
PUCSORGBACK
350
440
  3
PUCSORGBOTTOM
350
43C
  3
PUCSORGFRONT
350
43F
  3
PUCSORGLEFT
350
43D
  3
PUCSORGRIGHT
350
43E
  3
PUCSORGTOP
350
43B
  3
PUCSORTHOREF
350
438
  3
PUCSORTHOVIEW
350
439
  3
STYLESHEET
350
42E
  3
TSTACKALIGN
350
42B
  3
TSTACKSIZE
350
42C
  3
UCSBASE
350
443
  3
UCSORGBACK
350
449
  3
UCSORGBOTTOM
350
445
  3
UCSORGFRONT
350
448
  3
UCSORGLEFT
350
446
  3
UCSORGRIGHT
350
447
  3
UCSORGTOP
350
444
  3
UCSORTHOREF
350
441
  3
UCSORTHOVIEW
350
442
  3
VERSIONGUID
350
436
  0
DICTIONARY
  5
44B
102
{ACAD_REACTORS
330
C
102
}
330
C
100
AcDbDictionary
  3
CANNOSCALE
350
454
  3
CMLEADERSTYLE
350
44D
  3
CTABLESTYLE
350
44C
  3
DIMASSOC
350
450
  3
HIDETEXT
350
451
  3
MSLTSCALE
350
455
  0
XRECORD
  5
453
102
{ACAD_REACTORS
330
452
102
}
330
452
100
AcDbXrecord
102
VTR_0.000_0.000_1.000_1.000_VISUALSTYLE
340
2F
102
VTR_0.000_0.000_1.000_1.000_GRIDDISPLAY
 70
     3
102
VTR_0.000_0.000_1.000_1.000_GRIDMAJOR
 70
     5
102
VTR_0.000_0.000_1.000_1.000_DEFAULTLIGHTING
280
     1
102
VTR_0.000_0.000_1.000_1.000_DEFAULTLIGHTINGTYPE
 70
     1
102
VTR_0.000_0.000_1.000_1.000_BRIGHTNESS
141
0.0
102
VTR_0.000_0.000_1.000_1.000_CONTRAST
142
0.0
  0
MATERIAL
  5
45
102
{ACAD_REACTORS
330
43
102
}
102
{ACAD_XDICTIONARY
360
458
102
}
330
43
100
AcDbMaterial
  1
BYBLOCK
  0
MATERIAL
  5
44
102
{ACAD_REACTORS
330
43
102
}
102
{ACAD_XDICTIONARY
360
456
102
}
330
43
100
AcDbMaterial
  1
BYLAYER
  0
MATERIAL
  5
46
102
{ACAD_REACTORS
330
43
102
}
102
{ACAD_XDICTIONARY
360
45A
102
}
330
43
100
AcDbMaterial
  1
GLOBAL
  0
ACAD_PROXY_OBJECT
  5
6C
102
{ACAD_REACTORS
330
6B
102
}
330
6B
100
AcDbProxyObject
 90
      499
 91
      505
 93
      610
310
40901902A4063FBFFFFFE056BD1B81E855B9FC0AD7A3703D0AD73F4214DD185B99185C9900AD7A3703D0AC73F90141901A02B5E8DC0F42B1CFC02B5E8DC0F42B1CFE5764000000000000300FC0
340
14
340
0
340
11
340
0
 94
        0
1001
ACAD_MLEADERVER
1070
     2
  0
MLINESTYLE
  5
18
102
{ACAD_REACTORS
330
17
102
}
330
17
100
AcDbMlineStyle
  2
Standard
 70
     0
  3

 62
   256
 51
90.0
 52
90.0
 71
     2
 49
0.5
 62
   256
  6
BYLAYER
 49
-0.5
 62
   256
  6
BYLAYER
  0
ACAD_PROXY_OBJECT
  5
48
102
{ACAD_REACTORS
330
47
102
}
330
47
100
AcDbProxyObject
 90
      499
 91
      503
 93
       41
310
903313A31580
  0
ACAD_PROXY_OBJECT
  5
49
102
{ACAD_REACTORS
330
47
102
}
330
47
100
AcDbProxyObject
 90
      499
 91
      503
 93
      105
310
903313A324000000000000004000
  0
ACAD_PROXY_OBJECT
  5
4A
102
{ACAD_REACTORS
330
47
102
}
330
47
100
AcDbProxyObject
 90
      499
 91
      503
 93
      105
310
903313A344000000000000104000
  0
ACAD_PROXY_OBJECT
  5
4B
102
{ACAD_REACTORS
330
47
102
}
330
47
100
AcDbProxyObject
 90
      499
 91
      503
 93
      105
310
903313A354000000000000144000
  0
ACAD_PROXY_OBJECT
  5
4C
102
{ACAD_REACTORS
330
47
102
}
330
47
100
AcDbProxyObject
 90
      499
 91
      503
 93
      105
310
903313A384000000000000204000
  0
ACAD_PROXY_OBJECT
  5
4D
102
{ACAD_REACTORS
330
47
102
}
330
47
100
AcDbProxyObject
 90
      499
 91
      503
 93
      113
310
904313A31304000000000000244000
  0
ACAD_PROXY_OBJECT
  5
4E
102
{ACAD_REACTORS
330
47
102
}
330
47
100
AcDbProxyObject
 90
      499
 91
      503
 93
      113
310
904313A31364000000000000304000
  0
ACAD_PROXY_OBJECT
  5
4F
102
{ACAD_REACTORS
330
47
102
}
330
47
100
AcDbProxyObject
 90
      499
 91
      503
 93
      113
310
904313A32304000000000000344000
  0
ACAD_PROXY_OBJECT
  5
50
102
{ACAD_REACTORS
330
47
102
}
330
47
100
AcDbProxyObject
 90
      499
 91
      503
 93
      113
310
904313A333040000000000003E4000
  0
ACAD_PROXY_OBJECT
  5
51
102
{ACAD_REACTORS
330
47
102
}
330
47
100
AcDbProxyObject
 90
      499
 91
      503
 93
      113
310
904313A34304000000000000444000
  0
ACAD_PROXY_OBJECT
  5
52
102
{ACAD_REACTORS
330
47
102
}
330
47
100
AcDbProxyObject
 90
      499
 91
      503
 93
      113
310
904313A35304000000000000494000
  0
ACAD_PROXY_OBJECT
  5
53
102
{ACAD_REACTORS
330
47
102
}
330
47
100
AcDbProxyObject
 90
      499
 91
      503
 93
      121
310
905313A3130304000000000000594000
  0
ACAD_PROXY_OBJECT
  5
54
102
{ACAD_REACTORS
330
47
102
}
330
47
100
AcDbProxyObject
 90
      499
 91
      503
 93
      105
310
903323A310000000000000010100
  0
ACAD_PROXY_OBJECT
  5
55
102
{ACAD_REACTORS
330
47
102
}
330
47
100
AcDbProxyObject
 90
      499
 91
      503
 93
      105
310
903343A310000000000000410100
  0
ACAD_PROXY_OBJECT
  5
56
102
{ACAD_REACTORS
330
47
102
}
330
47
100
AcDbProxyObject
 90
      499
 91
      503
 93
      105
310
903383A310000000000000810100
  0
ACAD_PROXY_OBJECT
  5
57
102
{ACAD_REACTORS
330
47
102
}
330
47
100
AcDbProxyObject
 90
      499
 91
      503
 93
      113
310
90431303A310000000000000910100
  0
ACAD_PROXY_OBJECT
  5
58
102
{ACAD_REACTORS
330
47
102
}
330
47
100
AcDbProxyObject
 90
      499
 91
      503
 93
      121
310
9053130303A310000000000001650100
  0
ACAD_PROXY_OBJECT
  5
59
102
{ACAD_REACTORS
330
47
102
}
330
47
100
AcDbProxyObject
 90
      499
 91
      503
 93
      257
310
90E312F31323822203D2031272D3022000000000000200FC000000000000284000
  0
ACAD_PROXY_OBJECT
  5
5A
102
{ACAD_REACTORS
330
47
102
}
330
47
100
AcDbProxyObject
 90
      499
 91
      503
 93
      249
310
90D312F363422203D2031272D3022000000000000240FC000000000000284000
  0
ACAD_PROXY_OBJECT
  5
5B
102
{ACAD_REACTORS
330
47
102
}
330
47
100
AcDbProxyObject
 90
      499
 91
      503
 93
      249
310
90D312F333222203D2031272D3022000000000000280FC000000000000284000
  0
ACAD_PROXY_OBJECT
  5
5C
102
{ACAD_REACTORS
330
47
102
}
330
47
100
AcDbProxyObject
 90
      499
 91
      503
 93
      249
310
90D312F313622203D2031272D30220000000000002C0FC000000000000284000
  0
ACAD_PROXY_OBJECT
  5
5D
102
{ACAD_REACTORS
330
47
102
}
330
47
100
AcDbProxyObject
 90
      499
 91
      503
 93
      249
310
90D332F333222203D2031272D30220000000000002E0FC000000000000284000
  0
ACAD_PROXY_OBJECT
  5
5E
102
{ACAD_REACTORS
330
47
102
}
330
47
100
AcDbProxyObject
 90
      499
 91
      503
 93
      241
310
90C312F3822203D2031272D3022000000000000300FC000000000000284000
  0
ACAD_PROXY_OBJECT
  5
5F
102
{ACAD_REACTORS
330
47
102
}
330
47
100
AcDbProxyObject
 90
      499
 91
      503
 93
      249
310
90D332F313622203D2031272D3022000000000000320FC000000000000284000
  0
ACAD_PROXY_OBJECT
  5
60
102
{ACAD_REACTORS
330
47
102
}
330
47
100
AcDbProxyObject
 90
      499
 91
      503
 93
      241
310
90C312F3422203D2031272D3022000000000000340FC000000000000284000
  0
ACAD_PROXY_OBJECT
  5
61
102
{ACAD_REACTORS
330
47
102
}
330
47
100
AcDbProxyObject
 90
      499
 91
      503
 93
      241
310
90C332F3822203D2031272D3022000000000000360FC000000000000284000
  0
ACAD_PROXY_OBJECT
  5
62
102
{ACAD_REACTORS
330
47
102
}
330
47
100
AcDbProxyObject
 90
      499
 91
      503
 93
      241
310
90C312F3222203D2031272D3022000000000000380FC000000000000284000
  0
ACAD_PROXY_OBJECT
  5
63
102
{ACAD_REACTORS
330
47
102
}
330
47
100
AcDbProxyObject
 90
      499
 91
      503
 93
      241
310
90C332F3422203D2031272D30220000000000003A0FC000000000000284000
  0
ACAD_PROXY_OBJECT
  5
64
102
{ACAD_REACTORS
330
47
102
}
330
47
100
AcDbProxyObject
 90
      499
 91
      503
 93
      161
310
90A3122203D2031272D30224000000000000284000
  0
ACAD_PROXY_OBJECT
  5
65
102
{ACAD_REACTORS
330
47
102
}
330
47
100
AcDbProxyObject
 90
      499
 91
      503
 93
      257
310
90E312D312F3222203D2031272D30220000000000003E0FC000000000000284000
  0
ACAD_PROXY_OBJECT
  5
66
102
{ACAD_REACTORS
330
47
102
}
330
47
100
AcDbProxyObject
 90
      499
 91
      503
 93
      225
310
90A3322203D2031272D302200000000000002100000000000000284000
  0
ACAD_PROXY_OBJECT
  5
67
102
{ACAD_REACTORS
330
47
102
}
330
47
100
AcDbProxyObject
 90
      499
 91
      503
 93
      225
310
90A3622203D2031272D302200000000000006100000000000000284000
  0
ACAD_PROXY_OBJECT
  5
68
102
{ACAD_REACTORS
330
47
102
}
330
47
100
AcDbProxyObject
 90
      499
 91
      503
 93
      249
310
90D31272D3022203D2031272D30220000000000000A100000000000000284000
  0
ACAD_PROXY_OBJECT
  5
2F
102
{ACAD_REACTORS
330
2A
102
}
330
2A
100
AcDbProxyObject
 90
      499
 91
      501
 93
      436
310
42CC9915DA5C99599C985B595049028333333333333E33F0000000000000F90107901411070040501600405405064090741402480A0340
1001
ACAD
1000
AcDbSavedByObjectVersion
1070
     0
  0
ACAD_PROXY_OBJECT
  5
32
102
{ACAD_REACTORS
330
2A
102
}
330
2A
100
AcDbProxyObject
 90
      499
 91
      501
 93
      388
310
4150985CDA58D07406404333333333333E33F0000000000000F90107A41107004050150841D405064090741402480A0350
1001
ACAD
1000
AcDbSavedByObjectVersion
1070
     0
  0
ACAD_PROXY_OBJECT
  5
36
102
{ACAD_REACTORS
330
2A
102
}
330
2A
100
AcDbProxyObject
 90
      499
 91
      501
 93
      428
310
42109C9A59DA1D195B90C409028333333333333E33F0000000000000F9010790141107004050150841D405064090741402480A029950
1001
ACAD
1000
AcDbSavedByObjectVersion
1070
     0
  0
ACAD_PROXY_OBJECT
  5
3A
102
{ACAD_REACTORS
330
2A
102
}
330
2A
100
AcDbProxyObject
 90
      499
 91
      501
 93
      452
310
42D0DBDB1BDC90DA185B99D95104090240C333333333333E33F0000000000000F90108901411070040501508421405064090741402480A0350
1001
ACAD
1000
AcDbSavedByObjectVersion
1070
     0
  0
ACAD_PROXY_OBJECT
  5
34
102
{ACAD_REACTORS
330
2A
102
}
330
2A
100
AcDbProxyObject
 90
      499
 91
      501
 93
      500
310
4290DBDB98D95C1D1D585B10940D028333333333333E33F0000000000000F90107902409070040501000000000018199010841D405064090740C02480A0340
1001
ACAD
1000
AcDbSavedByObjectVersion
1070
     0
  0
ACAD_PROXY_OBJECT
  5
35
102
{ACAD_REACTORS
330
2A
102
}
330
2A
100
AcDbProxyObject
 90
      499
 91
      501
 93
      412
310
40D11A5B50B409028333333333333E33F0000000000000F9010790141107004050150841D405064090741402480A02677FFFFFD0
1001
ACAD
1000
AcDbSavedByObjectVersion
1070
     0
  0
ACAD_PROXY_OBJECT
  5
3D
102
{ACAD_REACTORS
330
2A
102
}
330
2A
100
AcDbProxyObject
 90
      499
 91
      501
 93
      452
310
43115919D950DBDB1BDC93D999916409028333333333333E33F0000000000000F9010790141107004050150841D405064090741402480A0350
1001
ACAD
1000
AcDbSavedByObjectVersion
1070
     0
  0
ACAD_PROXY_OBJECT
  5
39
102
{ACAD_REACTORS
330
2A
102
}
330
2A
100
AcDbProxyObject
 90
      499
 91
      501
 93
      444
310
42D19858D95C185D1D195C9B90F409028333333333333E33F0000000000000F9010790141107004050150841D405064090741402480A0350
1001
ACAD
1000
AcDbSavedByObjectVersion
1070
     0
  0
ACAD_PROXY_OBJECT
  5
2B
102
{ACAD_REACTORS
330
2A
102
}
330
2A
100
AcDbProxyObject
 90
      499
 91
      501
 93
      380
310
41119B185D240901404333333333333E33F0000000000000F9010740A907004050150841D405064090741402480A1B50
1001
ACAD
1000
AcDbSavedByObjectVersion
1070
     0
  0
ACAD_PROXY_OBJECT
  5
2C
102
{ACAD_REACTORS
330
2A
102
}
330
2A
100
AcDbProxyObject
 90
      499
 91
      501
 93
      468
310
43519B185D15DA5D1A115919D95CD0140901404333333333333E33F0000000000000F90107409019070040501600405405064090741402480A1B50
1001
ACAD
1000
AcDbSavedByObjectVersion
1070
     0
  0
ACAD_PROXY_OBJECT
  5
2D
102
{ACAD_REACTORS
330
2A
102
}
330
2A
100
AcDbProxyObject
 90
      499
 91
      501
 93
      404
310
41D1DBDD5C985D5910240902404333333333333E33F0000000000000F9010740A9070040501641D405064090741402480A1B50
1001
ACAD
1000
AcDbSavedByObjectVersion
1070
     0
  0
ACAD_PROXY_OBJECT
  5
2E
102
{ACAD_REACTORS
330
2A
102
}
330
2A
100
AcDbProxyObject
 90
      499
 91
      501
 93
      492
310
4411DBDD5C985D5915DA5D1A115919D95CD0340902404333333333333E33F0000000000000F90107409019070040501600405405064090741402480A1B50
1001
ACAD
1000
AcDbSavedByObjectVersion
1070
     0
  0
ACAD_PROXY_OBJECT
  5
31
102
{ACAD_REACTORS
330
2A
102
}
330
2A
100
AcDbProxyObject
 90
      499
 91
      501
 93
      476
310
41921A5919195B90640502408333333333333E33F0000000000000F901079024090700405020000000000001110200405405064090740C02480A0340
1001
ACAD
1000
AcDbSavedByObjectVersion
1070
     0
  0
ACAD_PROXY_OBJECT
  5
3B
102
{ACAD_REACTORS
330
2A
102
}
330
2A
100
AcDbProxyObject
 90
      499
 91
      501
 93
      428
310
42529A5D1D195C93D999914409028333333333333E33F0000000000000F9010790141107004050150A41D405064090741402480A0350
1001
ACAD
1000
AcDbSavedByObjectVersion
1070
     0
  0
ACAD_PROXY_OBJECT
  5
38
102
{ACAD_REACTORS
330
2A
102
}
330
2A
100
AcDbProxyObject
 90
      499
 91
      501
 93
      444
310
42D31A5B995C185D1D195C9B90E409028333333333333E33F0000000000000F9010790141107004050750841D405064090741402483A0350
1001
ACAD
1000
AcDbSavedByObjectVersion
1070
     0
  0
ACAD_PROXY_OBJECT
  5
3C
102
{ACAD_REACTORS
330
2A
102
}
330
2A
100
AcDbProxyObject
 90
      499
 91
      501
 93
      444
310
42D3DD995C9A185B99D3D999915409028333333333333E33F0000000000000F9010790141107004050150941D405064090741402480A0350
1001
ACAD
1000
AcDbSavedByObjectVersion
1070
     0
  0
ACAD_PROXY_OBJECT
  5
33
102
{ACAD_REACTORS
330
2A
102
}
330
2A
100
AcDbProxyObject
 90
      499
 91
      501
 93
      428
310
425499585B1A5CDD1A58D08409038333333333333E33F0000000000000F9010740A907004050150800405405064090740C02480A1B40
1001
ACAD
1000
AcDbSavedByObjectVersion
1070
     0
  0
ACAD_PROXY_OBJECT
  5
42
102
{ACAD_REACTORS
330
2A
102
}
330
2A
100
AcDbProxyObject
 90
      499
 91
      501
 93
      420
310
4194DA1859195911B40902404333333333333E33F0000000000000F9010740A41107004050150800405405064090840C02480A0B40
1001
ACAD
1000
AcDbSavedByObjectVersion
1070
     0
  0
ACAD_PROXY_OBJECT
  5
41
102
{ACAD_REACTORS
330
2A
102
}
330
2A
100
AcDbProxyObject
 90
      499
 91
      501
 93
      516
310
4454DA18591959081DDA5D1A08195919D95CD1A40902404333333333333E33F0000000000000F901074090142907004050250800405405064090740C02480A0B40
1001
ACAD
1000
AcDbSavedByObjectVersion
1070
     0
  0
ACAD_PROXY_OBJECT
  5
3E
102
{ACAD_REACTORS
330
2A
102
}
330
2A
100
AcDbProxyObject
 90
      499
 91
      501
 93
      532
310
4394DA1859195CC81BD98811DC985E5174090240C333333333333E33F0000000000000F901079024090741D01000000000000111010841D405064090740C02480A0340
1001
ACAD
1000
AcDbSavedByObjectVersion
1070
     0
  0
ACAD_PROXY_OBJECT
  5
3F
102
{ACAD_REACTORS
330
2A
102
}
330
2A
100
AcDbProxyObject
 90
      499
 91
      501
 93
      476
310
41D4DAD95D18DA1E51840502408333333333333E33F0000000000000F901079024090741D01000000000000111010B41D405064090741802480A0340
1001
ACAD
1000
AcDbSavedByObjectVersion
1070
     0
  0
ACAD_PROXY_OBJECT
  5
37
102
{ACAD_REACTORS
330
2A
102
}
330
2A
100
AcDbProxyObject
 90
      499
 91
      501
 93
      412
310
41D51A1A58DAD95B90D409028333333333333E33F0000000000000F9010790141107004050150C41D405064090741402480A0350
1001
ACAD
1000
AcDbSavedByObjectVersion
1070
     0
  0
ACAD_PROXY_OBJECT
  5
30
102
{ACAD_REACTORS
330
2A
102
}
330
2A
100
AcDbProxyObject
 90
      499
 91
      501
 93
      420
310
4255DA5C99599C985B595059028333333333333E33F0000000000000F90107901411070040501600405405064090740C02480A0340
1001
ACAD
1000
AcDbSavedByObjectVersion
1070
     0
  0
ACAD_PROXY_OBJECT
  5
40
102
{ACAD_REACTORS
330
2A
102
}
330
2A
100
AcDbProxyObject
 90
      499
 91
      501
 93
      404
310
41560B54985E51940902404000000000000E03F0000000000000F9010740501907004050150841D405064090740C02480A1B40
1001
ACAD
1000
AcDbSavedByObjectVersion
1070
     0
  0
XRECORD
  5
434
102
{ACAD_REACTORS
330
42A
102
}
330
42A
100
AcDbXrecord
340
0
  0
XRECORD
  5
433
102
{ACAD_REACTORS
330
42A
102
}
330
42A
100
AcDbXrecord
 90
        0
  0
XRECORD
  5
44A
102
{ACAD_REACTORS
330
42A
102
}
330
42A
100
AcDbXrecord
1000
DSTYLE
1002
{
1070
   179
 70
     2
1070
   171
 70
     2
1070
   143
 40
25.4
1070
   274
 70
     2
1070
    41
 40
3.0
1070
   141
 40
0.09
1070
    43
 40
0.38
1070
   278
 70
    46
1070
    44
 40
1.5
1070
    42
 40
0.0625
1070
   147
 40
1.5
1070
   272
 70
     4
1070
    73
 70
     1
1070
   172
 70
     0
1070
    74
 70
     1
1070
   283
 70
     1
1070
   340
340
6E
1070
   140
 40
3.0
1070
   284
 70
     0
1070
    78
 70
     0
1002
}
  0
XRECORD
  5
435
102
{ACAD_REACTORS
330
42A
102
}
330
42A
100
AcDbXrecord
  1
{290048C5-0ED1-4C00-8410-5EBF6EF5399E}
  0
XRECORD
  5
42D
102
{ACAD_REACTORS
330
42A
102
}
330
42A
100
AcDbXrecord
  1

  0
XRECORD
  5
432
102
{ACAD_REACTORS
330
42A
102
}
330
42A
100
AcDbXrecord
 90
        4
  0
XRECORD
  5
42F
102
{ACAD_REACTORS
330
42A
102
}
330
42A
100
AcDbXrecord
340
1A
  0
XRECORD
  5
431
102
{ACAD_REACTORS
330
42A
102
}
330
42A
100
AcDbXrecord
 90
    10269
  0
XRECORD
  5
430
102
{ACAD_REACTORS
330
42A
102
}
330
42A
100
AcDbXrecord
340
19
  0
XRECORD
  5
437
102
{ACAD_REACTORS
330
42A
102
}
330
42A
100
AcDbXrecord
 40
0.0
  0
XRECORD
  5
43A
102
{ACAD_REACTORS
330
42A
102
}
330
42A
100
AcDbXrecord
340
0
  0
XRECORD
  5
440
102
{ACAD_REACTORS
330
42A
102
}
330
42A
100
AcDbXrecord
 10
0.0
 20
0.0
 30
0.0
  0
XRECORD
  5
43C
102
{ACAD_REACTORS
330
42A
102
}
330
42A
100
AcDbXrecord
 10
0.0
 20
0.0
 30
0.0
  0
XRECORD
  5
43F
102
{ACAD_REACTORS
330
42A
102
}
330
42A
100
AcDbXrecord
 10
0.0
 20
0.0
 30
0.0
  0
XRECORD
  5
43D
102
{ACAD_REACTORS
330
42A
102
}
330
42A
100
AcDbXrecord
 10
0.0
 20
0.0
 30
0.0
  0
XRECORD
  5
43E
102
{ACAD_REACTORS
330
42A
102
}
330
42A
100
AcDbXrecord
 10
0.0
 20
0.0
 30
0.0
  0
XRECORD
  5
43B
102
{ACAD_REACTORS
330
42A
102
}
330
42A
100
AcDbXrecord
 10
0.0
 20
0.0
 30
0.0
  0
XRECORD
  5
438
102
{ACAD_REACTORS
330
42A
102
}
330
42A
100
AcDbXrecord
340
0
  0
XRECORD
  5
439
102
{ACAD_REACTORS
330
42A
102
}
330
42A
100
AcDbXrecord
 70
     0
  0
XRECORD
  5
42E
102
{ACAD_REACTORS
330
42A
102
}
330
42A
100
AcDbXrecord
  1

  0
XRECORD
  5
42B
102
{ACAD_REACTORS
330
42A
102
}
330
42A
100
AcDbXrecord
 90
        1
  0
XRECORD
  5
42C
102
{ACAD_REACTORS
330
42A
102
}
330
42A
100
AcDbXrecord
 90
       70
  0
XRECORD
  5
443
102
{ACAD_REACTORS
330
42A
102
}
330
42A
100
AcDbXrecord
340
0
  0
XRECORD
  5
449
102
{ACAD_REACTORS
330
42A
102
}
330
42A
100
AcDbXrecord
 10
0.0
 20
0.0
 30
0.0
  0
XRECORD
  5
445
102
{ACAD_REACTORS
330
42A
102
}
330
42A
100
AcDbXrecord
 10
0.0
 20
0.0
 30
0.0
  0
XRECORD
  5
448
102
{ACAD_REACTORS
330
42A
102
}
330
42A
100
AcDbXrecord
 10
0.0
 20
0.0
 30
0.0
  0
XRECORD
  5
446
102
{ACAD_REACTORS
330
42A
102
}
330
42A
100
AcDbXrecord
 10
0.0
 20
0.0
 30
0.0
  0
XRECORD
  5
447
102
{ACAD_REACTORS
330
42A
102
}
330
42A
100
AcDbXrecord
 10
0.0
 20
0.0
 30
0.0
  0
XRECORD
  5
444
102
{ACAD_REACTORS
330
42A
102
}
330
42A
100
AcDbXrecord
 10
0.0
 20
0.0
 30
0.0
  0
XRECORD
  5
441
102
{ACAD_REACTORS
330
42A
102
}
330
42A
100
AcDbXrecord
340
0
  0
XRECORD
  5
442
102
{ACAD_REACTORS
330
42A
102
}
330
42A
100
AcDbXrecord
 70
     0
  0
XRECORD
  5
436
102
{ACAD_REACTORS
330
42A
102
}
330
42A
100
AcDbXrecord
  1
{FAEB1C32-E019-11D5-929B-00C0DF256EC4}
  0
DICTIONARYVAR
  5
454
102
{ACAD_REACTORS
330
44B
102
}
330
44B
100
DictionaryVariables
280
     0
  1
1:1
  0
DICTIONARYVAR
  5
44D
102
{ACAD_REACTORS
330
44B
102
}
330
44B
100
DictionaryVariables
280
     0
  1
Standard
  0
DICTIONARYVAR
  5
44C
102
{ACAD_REACTORS
330
44B
102
}
330
44B
100
DictionaryVariables
280
     0
  1
Standard
  0
DICTIONARYVAR
  5
450
102
{ACAD_REACTORS
330
44B
102
}
330
44B
100
DictionaryVariables
280
     0
  1
2
  0
DICTIONARYVAR
  5
451
102
{ACAD_REACTORS
330
44B
102
}
330
44B
100
DictionaryVariables
280
     0
  1
1
  0
DICTIONARYVAR
  5
455
102
{ACAD_REACTORS
330
44B
102
}
330
44B
100
DictionaryVariables
280
     0
  1
1
  0
DICTIONARY
  5
458
330
45
100
AcDbDictionary
280
     1
  3
ACAD_XREC_ROUNDTRIP
360
459
  0
DICTIONARY
  5
456
330
44
100
AcDbDictionary
280
     1
  3
ACAD_XREC_ROUNDTRIP
360
457
  0
DICTIONARY
  5
45A
330
46
100
AcDbDictionary
280
     1
  3
ACAD_XREC_ROUNDTRIP
360
45B
  0
XRECORD
  5
459
102
{ACAD_REACTORS
330
458
102
}
330
458
100
AcDbXrecord
102
MATERIAL
148
0.0
149
0.0
149
0.0
 93
        0
 94
      127
282
     0
 72
     1
 77
     1
171
     1
175
     1
179
     1
273
     0
  0
XRECORD
  5
457
102
{ACAD_REACTORS
330
456
102
}
330
456
100
AcDbXrecord
102
MATERIAL
148
0.0
149
0.0
149
0.0
 93
        0
 94
      127
282
     0
 72
     1
 77
     1
171
     1
175
     1
179
     1
273
     0
  0
XRECORD
  5
45B
102
{ACAD_REACTORS
330
45A
102
}
330
45A
100
AcDbXrecord
102
MATERIAL
148
0.0
149
0.0
149
0.0
 93
        0
 94
      127
282
     0
 72
     1
 77
     1
171
     1
175
     1
179
     1
273
     0
  0
ENDSEC
  0
EOF
