  0
SECTION
  2
HEADER
  9
$ACADVER
  1
AC1006
  9
$DWGCODEPAGE
  3
ansi_932
  9
$INSBASE
 10
0.0
 20
0.0
 30
0.0
  9
$EXTMIN
 10
-109.4452628292739
 20
334.6518638955112
  9
$EXTMAX
 10
186.3297371707254
 20
636.9109597628872
  9
$LIMMIN
 10
0.0
 20
0.0
  9
$LIMMAX
 10
12.0
 20
9.0
  9
$ORTHOMODE
 70
     0
  9
$REGENMODE
 70
     1
  9
$FILLMODE
 70
     1
  9
$QTEXTMODE
 70
     0
  9
$MIRRTEXT
 70
     1
  9
$DRAGMODE
 70
     2
  9
$LTSCALE
 40
1.0
  9
$OSMODE
 70
    37
  9
$ATTMODE
 70
     1
  9
$TEXTSIZE
 40
0.2
  9
$TRACEWID
 40
0.05
  9
$TEXTSTYLE
  7
STANDARD
  9
$CLAYER
  8
0
  9
$CELTYPE
  6
BYLAYER
  9
$CECOLOR
 62
   256
  9
$DIMSCALE
 40
1.0
  9
$DIMASZ
 40
3.0
  9
$DIMEXO
 40
0.0625
  9
$DIMDLI
 40
0.38
  9
$DIMRND
 40
0.0
  9
$DIMDLE
 40
0.0
  9
$DIMEXE
 40
1.5
  9
$DIMTP
 40
0.0
  9
$DIMTM
 40
0.0
  9
$DIMTXT
 40
3.0
  9
$DIMCEN
 40
0.09
  9
$DIMTSZ
 40
0.0
  9
$DIMTOL
 70
     0
  9
$DIMLIM
 70
     0
  9
$DIMTIH
 70
     1
  9
$DIMTOH
 70
     1
  9
$DIMSE1
 70
     0
  9
$DIMSE2
 70
     0
  9
$DIMTAD
 70
     1
  9
$DIMZIN
 70
     0
  9
$DIMBLK
  1

  9
$DIMASO
 70
     1
  9
$DIMSHO
 70
     1
  9
$DIMPOST
  1

  9
$DIMAPOST
  1

  9
$DIMALT
 70
     0
  9
$DIMALTD
 70
     2
  9
$DIMALTF
 40
25.4
  9
$DIMLFAC
 40
1.0
  9
$DIMTOFL
 70
     0
  9
$DIMTVP
 40
0.0
  9
$DIMTIX
 70
     0
  9
$DIMSOXD
 70
     0
  9
$DIMSAH
 70
     0
  9
$DIMBLK1
  1

  9
$DIMBLK2
  1

  9
$LUNITS
 70
     2
  9
$LUPREC
 70
     4
  9
$SKETCHINC
 40
0.1
  9
$FILLETRAD
 40
0.5
  9
$AUNITS
 70
     0
  9
$AUPREC
 70
     0
  9
$MENU
  1
.
  9
$ELEVATION
 40
0.0
  9
$THICKNESS
 40
0.0
  9
$LIMCHECK
 70
     0
  9
$CHAMFERA
 40
0.0
  9
$CHAMFERB
 40
0.0
  9
$SKPOLY
 70
     0
  9
$TDCREATE
 40
2460669.607431215
  9
$TDUPDATE
 40
2460669.607431528
  9
$TDINDWG
 40
0.0000000116
  9
$TDUSRTIMER
 40
0.0000000116
  9
$USRTIMER
 70
     1
  9
$ANGBASE
 50
0.0
  9
$ANGDIR
 70
     0
  9
$PDMODE
 70
     0
  9
$PDSIZE
 40
0.0
  9
$PLINEWID
 40
0.0
  9
$COORDS
 70
     1
  9
$SPLFRAME
 70
     0
  9
$SPLINETYPE
 70
     6
  9
$SPLINESEGS
 70
     8
  9
$ATTDIA
 70
     0
  9
$ATTREQ
 70
     1
  9
$HANDLING
 70
     1
  9
$HANDSEED
  5
36B
  9
$SURFTAB1
 70
     6
  9
$SURFTAB2
 70
     6
  9
$SURFTYPE
 70
     6
  9
$SURFU
 70
     6
  9
$SURFV
 70
     6
  9
$UCSNAME
  2

  9
$UCSORG
 10
0.0
 20
0.0
 30
0.0
  9
$UCSXDIR
 10
1.0
 20
0.0
 30
0.0
  9
$UCSYDIR
 10
0.0
 20
1.0
 30
0.0
  9
$USERI1
 70
     0
  9
$USERI2
 70
     0
  9
$USERI3
 70
     0
  9
$USERI4
 70
     0
  9
$USERI5
 70
     0
  9
$USERR1
 40
0.0
  9
$USERR2
 40
0.0
  9
$USERR3
 40
0.0
  9
$USERR4
 40
0.0
  9
$USERR5
 40
0.0
  9
$WORLDVIEW
 70
     1
  0
ENDSEC
  0
SECTION
  2
TABLES
  0
TABLE
  2
VPORT
 70
     1
  0
VPORT
  2
*ACTIVE
 70
     0
 10
0.0
 20
0.0
 11
1.0
 21
1.0
 12
38.44223717072574
 22
485.7814118291992
 13
0.0
 23
0.0
 14
0.5
 24
0.5
 15
0.5
 25
0.5
 16
0.0
 26
0.0
 36
1.0
 17
0.0
 27
0.0
 37
0.0
 40
302.2590958673759
 41
1.6
 42
50.0
 43
0.0
 44
0.0
 50
0.0
 51
0.0
 71
     0
 72
   100
 73
     1
 74
     3
 75
     0
 76
     0
 77
     0
 78
     0
  0
ENDTAB
  0
TABLE
  2
LTYPE
 70
     2
  0
LTYPE
  2
CONTINUOUS
 70
     0
  3
Solid line
 72
    65
 73
     0
 40
0.0
  0
LTYPE
  2
CENTER
 70
     0
  3

 72
    65
 73
     0
 40
0.0
  0
ENDTAB
  0
TABLE
  2
LAYER
 70
     1
  0
LAYER
  2
0
 70
     0
 62
     7
  6
CONTINUOUS
  0
ENDTAB
  0
TABLE
  2
STYLE
 70
     2
  0
STYLE
  2
STANDARD
 70
     0
 40
0.0
 41
1.0
 50
0.0
 71
     0
 42
0.2
  3
txt
  4

  0
STYLE
  2
ＭＳ_ゴシック
 70
     0
 40
0.0
 41
1.0
 50
0.0
 71
     0
 42
0.2
  3
ＭＳ ゴシック.shx
  4

  0
ENDTAB
  0
TABLE
  2
VIEW
 70
     0
  0
ENDTAB
  0
TABLE
  2
UCS
 70
     0
  0
ENDTAB
  0
ENDSEC
  0
SECTION
  2
BLOCKS
  0
ENDSEC
  0
SECTION
  2
ENTITIES
  0
LINE
  5
6F
  8
0
  6
CONTINUOUS
 62
     7
 10
-16.09153851179762
 20
614.5660244544734
 30
0.0
 11
-16.09153851179762
 21
606.7558950713011
 31
0.0
  0
LINE
  5
70
  8
0
  6
CONTINUOUS
 62
     7
 10
184.529737170726
 20
501.0371423602795
 30
0.0
 11
183.2297371707261
 21
501.014450775873
 31
0.0
  0
LINE
  5
71
  8
0
  6
CONTINUOUS
 62
     7
 10
-31.9452628292739
 20
596.4109597628873
 30
0.0
 11
-31.9452628292739
 21
605.4642291729542
 31
0.0
  0
LINE
  5
72
  8
0
  6
CONTINUOUS
 62
     7
 10
-31.02198558198466
 20
572.5150139715112
 30
0.0
 11
-35.44526282927393
 21
569.4109597628872
 31
0.0
  0
LINE
  5
73
  8
0
  6
CONTINUOUS
 62
     7
 10
184.529737170726
 20
539.5371423602795
 30
0.0
 11
183.2297371707261
 21
539.514450775873
 31
0.0
  0
ARC
  5
74
  8
0
  6
CONTINUOUS
 62
     7
 10
-52.1452643816952
 20
583.9508855277355
 30
0.0
 40
2.999996734620092
 50
113.6820827017799
 51
138.743780067645
  0
LINE
  5
75
  8
0
  6
CONTINUOUS
 62
     7
 10
-29.74526282927398
 20
583.9508826429723
 30
0.0
 11
-30.0914166754278
 21
585.3498467567779
 31
0.0
  0
LINE
  5
76
  8
0
  6
CONTINUOUS
 62
     7
 10
-16.09153851179768
 20
596.2558950713011
 30
0.0
 11
-18.46449815679518
 21
596.2901326051613
 31
0.0
  0
LINE
  5
77
  8
0
  6
CONTINUOUS
 62
     7
 10
-35.4452628292739
 20
588.4109597628873
 30
0.0
 11
-35.4452628292739
 21
593.1109597628872
 31
0.0
  0
LINE
  5
78
  8
0
  6
CONTINUOUS
 62
     7
 10
17.38018652144391
 20
602.7855104121695
 30
0.0
 11
29.72928782000819
 21
602.7855104121695
 31
0.0
  0
LINE
  5
79
  8
0
  6
CONTINUOUS
 62
     7
 10
-31.9452628292739
 20
605.4642291729541
 30
0.0
 11
-20.44526282927392
 21
611.0731539414616
 31
0.0
  0
LINE
  5
7A
  8
0
  6
CONTINUOUS
 62
     7
 10
-29.74526282927398
 20
583.9508826429723
 30
0.0
 11
-29.74526282927398
 21
574.9706840488984
 31
0.0
  0
LINE
  5
7B
  8
0
  6
CONTINUOUS
 62
     7
 10
184.529737170726
 20
517.5371423602797
 30
0.0
 11
183.2297371707261
 21
517.5144507758731
 31
0.0
  0
LINE
  5
7C
  8
0
  6
CONTINUOUS
 62
     7
 10
-36.27071217999173
 20
596.236409113605
 30
0.0
 11
-36.27071217999173
 21
602.7855104121693
 31
0.0
  0
LINE
  5
7D
  8
0
  6
CONTINUOUS
 62
     7
 10
-16.09153851179762
 20
604.0660244544733
 30
0.0
 11
-18.46449815679513
 21
604.0317869206131
 31
0.0
  0
LINE
  5
7E
  8
0
  6
CONTINUOUS
 62
     7
 10
183.2297371707261
 20
531.8074687499017
 30
0.0
 11
183.2297371707261
 21
534.0144507758729
 31
0.0
  0
LINE
  5
7F
  8
0
  6
CONTINUOUS
 62
   253
 10
-49.70002367269494
 20
582.4233712027715
 30
0.0
 11
-35.19050198585086
 21
582.4233712027715
 31
0.0
  0
LINE
  5
80
  8
0
  6
CONTINUOUS
 62
     7
 10
-17.09526282927387
 20
618.4109597628873
 30
0.0
 11
-17.94526282927389
 21
618.9017074916985
 31
0.0
  0
LINE
  5
81
  8
0
  6
CONTINUOUS
 62
     7
 10
-18.46449815679513
 20
606.7901326051613
 30
0.0
 11
-18.46449815679513
 21
614.5317869206132
 31
0.0
  0
LINE
  5
82
  8
0
  6
CONTINUOUS
 62
     7
 10
-9.445262829273881
 20
618.4109597628873
 30
0.0
 11
-17.09526282927387
 21
618.4109597628873
 31
0.0
  0
LINE
  5
83
  8
0
  6
CONTINUOUS
 62
     7
 10
-16.09153851179762
 20
606.755895071301
 30
0.0
 11
-18.46449815679513
 21
606.7901326051613
 31
0.0
  0
LINE
  5
84
  8
0
  6
CONTINUOUS
 62
     7
 10
-53.35024731452914
 20
586.6982472693543
 30
0.0
 11
-49.44526282927394
 21
588.4109597628873
 31
0.0
  0
ARC
  5
85
  8
0
  6
CONTINUOUS
 62
     7
 10
-52.14526282927395
 20
574.9706840488986
 30
0.0
 40
3.000000000000058
 50
180.0000000000011
 51
234.9405730331126
  0
LINE
  5
86
  8
0
  6
CONTINUOUS
 62
     7
 10
-51.69526282927389
 20
593.1130393713062
 30
0.0
 11
-51.69526282927389
 21
596.2364091136051
 31
0.0
  0
LINE
  5
87
  8
0
  6
CONTINUOUS
 62
     7
 10
-17.94526282927389
 20
619.6608968702533
 30
0.0
 11
-17.94526282927389
 21
625.161022655521
 31
0.0
  0
LINE
  5
88
  8
0
  6
CONTINUOUS
 62
     7
 10
-49.44526282927391
 20
569.4109597628874
 30
0.0
 11
-53.86854007656333
 21
572.5150139715114
 31
0.0
  0
LINE
  5
89
  8
0
  6
CONTINUOUS
 62
     7
 10
-17.94526282927389
 20
625.161022655521
 30
0.0
 11
-17.94526282927389
 21
625.9202120256059
 31
0.0
  0
LINE
  5
8A
  8
0
  6
CONTINUOUS
 62
     7
 10
-18.46449815679518
 20
596.2901326051613
 30
0.0
 11
-18.46449815679518
 21
604.0317869206132
 31
0.0
  0
LINE
  5
8B
  8
0
  6
CONTINUOUS
 62
     7
 10
-49.44526282927391
 20
593.1109597628872
 30
0.0
 11
-49.44526282927391
 21
588.4109597628873
 31
0.0
  0
LINE
  5
8C
  8
0
  6
CONTINUOUS
 62
     7
 10
-35.4452628292739
 20
588.4109597628873
 30
0.0
 11
-31.54027834401879
 21
586.6982472693543
 31
0.0
  0
LINE
  5
8D
  8
0
  6
CONTINUOUS
 62
   253
 10
-49.69932199583371
 20
576.9109597628872
 30
0.0
 11
-49.70002367269491
 21
582.4233712027715
 31
0.0
  0
LINE
  5
8E
  8
0
  6
CONTINUOUS
 62
     7
 10
-48.6198134785561
 20
602.7855104121695
 30
0.0
 11
-36.27071217999173
 21
602.7855104121695
 31
0.0
  0
LINE
  5
8F
  8
0
  6
CONTINUOUS
 62
     7
 10
-16.09153851179762
 20
604.0660244544733
 30
0.0
 11
-16.09153851179762
 21
596.255895071301
 31
0.0
  0
LINE
  5
90
  8
0
  6
CONTINUOUS
 62
     7
 10
-20.44526282927395
 20
596.4109597628873
 30
0.0
 11
-31.94526282927393
 21
596.4109597628873
 31
0.0
  0
LINE
  5
91
  8
0
  6
CONTINUOUS
 62
     7
 10
-9.445262829273881
 20
618.4109597628873
 30
0.0
 11
-9.445262829273881
 21
626.4109597628873
 31
0.0
  0
ARC
  5
92
  8
0
  6
CONTINUOUS
 62
     7
 10
-32.74532855869256
 20
583.9507932775623
 30
0.0
 40
3.00010824086383
 50
40.31408653990138
 51
66.31744820436886
  0
LINE
  5
93
  8
0
  6
CONTINUOUS
 62
   253
 10
-35.19050198585083
 20
582.4233712027715
 30
0.0
 11
-35.1912036627231
 21
576.9109597628873
 31
0.0
  0
LINE
  5
94
  8
0
  6
CONTINUOUS
 62
     7
 10
183.2297371707261
 20
509.8074687499017
 30
0.0
 11
183.2297371707261
 21
512.014450775873
 31
0.0
  0
LINE
  5
95
  8
0
  6
CONTINUOUS
 62
   253
 10
-35.85751194399056
 20
571.3245882448534
 30
0.0
 11
-35.85751194399064
 21
571.3358401132049
 31
0.0
  0
LINE
  5
96
  8
0
  6
CONTINUOUS
 62
     7
 10
183.2297371707261
 20
509.8074687499017
 30
0.0
 11
184.529737170726
 21
509.7847771654951
 31
0.0
  0
ARC
  5
97
  8
0
  6
CONTINUOUS
 62
     7
 10
-32.74526282927387
 20
574.9706840488984
 30
0.0
 40
2.999999999999892
 50
305.0594269668869
 51
0.00000000000108
  0
LINE
  5
98
  8
0
  6
CONTINUOUS
 62
     7
 10
-17.94526282927389
 20
625.9202120340761
 30
0.0
 11
-17.09526282927387
 21
626.4109597628873
 31
0.0
  0
LINE
  5
99
  8
0
  6
CONTINUOUS
 62
     7
 10
-35.1912036627231
 20
576.9109597628872
 30
0.0
 11
-49.69932199583371
 21
576.9109597628872
 31
0.0
  0
LINE
  5
9A
  8
0
  6
CONTINUOUS
 62
   253
 10
-55.14526282927398
 20
583.9508826429725
 30
0.0
 11
-55.14425525512517
 21
583.9833874250115
 31
0.0
  0
LINE
  5
9B
  8
0
  6
CONTINUOUS
 62
     7
 10
-51.69526282927389
 20
596.236409113605
 30
0.0
 11
-33.1952628292739
 21
596.236409113605
 31
0.0
  0
LINE
  5
9C
  8
0
  6
CONTINUOUS
 62
     7
 10
-16.09153851179762
 20
614.5660244544734
 30
0.0
 11
-18.46449815679513
 21
614.5317869206133
 31
0.0
  0
LINE
  5
9D
  8
0
  6
CONTINUOUS
 62
     7
 10
153.3297371707264
 20
592.4109597628873
 30
0.0
 11
136.5797371707262
 21
592.4109597628873
 31
0.0
  0
LINE
  5
9E
  8
0
  6
CONTINUOUS
 62
     7
 10
-9.445262829273881
 20
626.4109597628873
 30
0.0
 11
-17.09526282927387
 21
626.4109597628873
 31
0.0
  0
LINE
  5
9F
  8
0
  6
CONTINUOUS
 62
     7
 10
29.72928782000822
 20
602.7855104121695
 30
0.0
 11
29.72928782000822
 21
596.2364091136052
 31
0.0
  0
LINE
  5
A0
  8
0
  6
CONTINUOUS
 62
     7
 10
-33.19526282927393
 20
593.1109597628872
 30
0.0
 11
-33.19526282927393
 21
596.236409113605
 31
0.0
  0
LINE
  5
A1
  8
0
  6
CONTINUOUS
 62
     7
 10
-35.4452628292739
 20
555.4109597628874
 30
0.0
 11
16.55473717072611
 21
555.4109597628874
 31
0.0
  0
LINE
  5
A2
  8
0
  6
CONTINUOUS
 62
   253
 10
-49.03301371450053
 20
571.3245882448541
 30
0.0
 11
-49.03301371450053
 21
571.3358401132049
 31
0.0
  0
LINE
  5
A3
  8
0
  6
CONTINUOUS
 62
     7
 10
-55.14526282927398
 20
574.9706840488984
 30
0.0
 11
-55.14526282927398
 21
583.9508826429723
 31
0.0
  0
LINE
  5
A4
  8
0
  6
CONTINUOUS
 62
     7
 10
184.529737170726
 20
534.0371423602796
 30
0.0
 11
183.2297371707261
 21
534.014450775873
 31
0.0
  0
LINE
  5
A5
  8
0
  6
CONTINUOUS
 62
     7
 10
-55.14526282927398
 20
583.9508826429725
 30
0.0
 11
-54.79910898312014
 21
585.349846756778
 31
0.0
  0
LINE
  5
A6
  8
0
  6
CONTINUOUS
 62
     7
 10
-48.61981347855615
 20
596.236409113605
 30
0.0
 11
-48.6198134785561
 21
602.7855104121693
 31
0.0
  0
LINE
  5
A7
  8
0
  6
CONTINUOUS
 62
     7
 10
183.2297371707261
 20
504.3074687499016
 30
0.0
 11
184.529737170726
 21
504.284777165495
 31
0.0
  0
LINE
  5
A8
  8
0
  6
CONTINUOUS
 62
     7
 10
184.529737170726
 20
490.0371423602797
 30
0.0
 11
184.529737170726
 21
493.2847771654951
 31
0.0
  0
LINE
  5
A9
  8
0
  6
CONTINUOUS
 62
     7
 10
184.529737170726
 20
484.5371423602796
 30
0.0
 11
184.529737170726
 21
487.784777165495
 31
0.0
  0
LINE
  5
AA
  8
0
  6
CONTINUOUS
 62
     7
 10
-14.25141383586981
 20
603.9177249348511
 30
0.0
 11
-14.25141383586981
 21
596.4041945909236
 31
0.0
  0
LINE
  5
AB
  8
0
  6
CONTINUOUS
 62
     7
 10
-48.94587204864836
 20
606.1109597628873
 30
0.0
 11
-37.46278471438205
 21
606.1109597628873
 31
0.0
  0
LINE
  5
AC
  8
0
  6
CONTINUOUS
 62
     7
 10
184.529737170726
 20
523.0371423602795
 30
0.0
 11
183.2297371707261
 21
523.0144507758729
 31
0.0
  0
LINE
  5
AD
  8
0
  6
CONTINUOUS
 62
     7
 10
184.529737170726
 20
528.5371423602796
 30
0.0
 11
184.529737170726
 21
531.784777165495
 31
0.0
  0
LINE
  5
AE
  8
0
  6
CONTINUOUS
 62
     7
 10
184.529737170726
 20
495.5371423602796
 30
0.0
 11
184.529737170726
 21
498.784777165495
 31
0.0
  0
LINE
  5
AF
  8
0
  6
CONTINUOUS
 62
     7
 10
-20.44526282927389
 20
630.9109597628873
 30
0.0
 11
-20.44526282927389
 21
592.4109597628873
 31
0.0
  0
LINE
  5
B0
  8
0
  6
CONTINUOUS
 62
     7
 10
184.529737170726
 20
512.0371423602796
 30
0.0
 11
183.2297371707261
 21
512.014450775873
 31
0.0
  0
LINE
  5
B1
  8
0
  6
CONTINUOUS
 62
     7
 10
183.2297371707261
 20
482.3074687499017
 30
0.0
 11
183.2297371707261
 21
484.5144507758731
 31
0.0
  0
LINE
  5
B2
  8
0
  6
CONTINUOUS
 62
     7
 10
-14.25141383586981
 20
614.417724934851
 30
0.0
 11
-14.25141383586981
 21
606.9041945909235
 31
0.0
  0
LINE
  5
B3
  8
0
  6
CONTINUOUS
 62
     7
 10
-37.46278471438202
 20
606.1109597628873
 30
0.0
 11
-20.44526282927389
 21
614.4109597628873
 31
0.0
  0
LINE
  5
B4
  8
0
  6
CONTINUOUS
 62
     7
 10
-17.94526282927389
 20
618.9017074916985
 30
0.0
 11
-17.94526282927389
 21
619.6608968702533
 31
0.0
  0
LINE
  5
B5
  8
0
  6
CONTINUOUS
 62
     7
 10
-14.25141383586981
 20
603.9177249348511
 30
0.0
 11
-9.44526282927391
 21
603.9177249348511
 31
0.0
  0
LINE
  5
B6
  8
0
  6
CONTINUOUS
 62
     7
 10
184.529737170726
 20
490.0371423602797
 30
0.0
 11
183.2297371707261
 21
490.0144507758731
 31
0.0
  0
LINE
  5
B7
  8
0
  6
CONTINUOUS
 62
     7
 10
-14.25141383586981
 20
614.417724934851
 30
0.0
 11
-9.44526282927391
 21
614.417724934851
 31
0.0
  0
LINE
  5
B8
  8
0
  6
CONTINUOUS
 62
     7
 10
184.529737170726
 20
501.0371423602795
 30
0.0
 11
184.529737170726
 21
504.2847771654949
 31
0.0
  0
LINE
  5
B9
  8
0
  6
CONTINUOUS
 62
     7
 10
183.2297371707261
 20
526.3074687499019
 30
0.0
 11
184.529737170726
 21
526.284777165495
 31
0.0
  0
LINE
  5
BA
  8
0
  6
CONTINUOUS
 62
     7
 10
183.2297371707261
 20
537.3074687499018
 30
0.0
 11
183.2297371707261
 21
539.514450775873
 31
0.0
  0
LINE
  5
BB
  8
0
  6
CONTINUOUS
 62
     7
 10
183.2297371707261
 20
531.8074687499017
 30
0.0
 11
184.529737170726
 21
531.7847771654949
 31
0.0
  0
LINE
  5
BC
  8
0
  6
CONTINUOUS
 62
     7
 10
183.2297371707261
 20
498.8074687499016
 30
0.0
 11
184.529737170726
 21
498.784777165495
 31
0.0
  0
LINE
  5
BD
  8
0
  6
CONTINUOUS
 62
     7
 10
184.529737170726
 20
506.5371423602796
 30
0.0
 11
184.529737170726
 21
509.784777165495
 31
0.0
  0
LINE
  5
BE
  8
0
  6
CONTINUOUS
 62
     7
 10
183.2297371707261
 20
487.8074687499017
 30
0.0
 11
184.529737170726
 21
487.784777165495
 31
0.0
  0
LINE
  5
BF
  8
0
  6
CONTINUOUS
 62
     7
 10
183.2297371707261
 20
493.3074687499017
 30
0.0
 11
183.2297371707261
 21
495.5144507758731
 31
0.0
  0
LINE
  5
C0
  8
0
  6
CONTINUOUS
 62
     7
 10
184.529737170726
 20
506.5371423602796
 30
0.0
 11
183.2297371707261
 21
506.5144507758729
 31
0.0
  0
LINE
  5
C1
  8
0
  6
CONTINUOUS
 62
     7
 10
183.2297371707261
 20
493.3074687499017
 30
0.0
 11
184.529737170726
 21
493.284777165495
 31
0.0
  0
LINE
  5
C2
  8
0
  6
CONTINUOUS
 62
     7
 10
184.529737170726
 20
512.0371423602796
 30
0.0
 11
184.529737170726
 21
515.284777165495
 31
0.0
  0
LINE
  5
C3
  8
0
  6
CONTINUOUS
 62
     7
 10
183.2297371707261
 20
504.3074687499016
 30
0.0
 11
183.2297371707261
 21
506.5144507758729
 31
0.0
  0
LINE
  5
C4
  8
0
  6
CONTINUOUS
 62
     7
 10
-14.25141383586981
 20
596.4041945909236
 30
0.0
 11
-9.44526282927391
 21
596.4041945909236
 31
0.0
  0
LINE
  5
C5
  8
0
  6
CONTINUOUS
 62
     7
 10
-20.44526282927395
 20
593.1109597628872
 30
0.0
 11
-52.94526282927392
 21
593.1109597628872
 31
0.0
  0
LINE
  5
C6
  8
0
  6
CONTINUOUS
 62
     7
 10
184.529737170726
 20
479.0371423602795
 30
0.0
 11
184.529737170726
 21
482.2847771654949
 31
0.0
  0
LINE
  5
C7
  8
0
  6
CONTINUOUS
 62
     7
 10
183.2297371707261
 20
542.8074687499018
 30
0.0
 11
183.2297371707261
 21
545.0144507758731
 31
0.0
  0
LINE
  5
C8
  8
0
  6
CONTINUOUS
 62
     7
 10
-9.445262829273936
 20
592.4109597628873
 30
0.0
 11
-20.44526282927395
 21
592.4109597628873
 31
0.0
  0
LINE
  5
C9
  8
0
  6
CONTINUOUS
 62
     7
 10
-9.445262829273881
 20
630.9109597628873
 30
0.0
 11
-20.44526282927389
 21
630.9109597628873
 31
0.0
  0
LINE
  5
CA
  8
0
  6
CONTINUOUS
 62
     7
 10
183.2297371707261
 20
482.3074687499017
 30
0.0
 11
184.529737170726
 21
482.284777165495
 31
0.0
  0
LINE
  5
CB
  8
0
  6
CONTINUOUS
 62
     7
 10
-14.25141383586981
 20
606.9041945909235
 30
0.0
 11
-9.44526282927391
 21
606.9041945909235
 31
0.0
  0
LINE
  5
CC
  8
0
  6
CONTINUOUS
 62
     7
 10
183.2297371707261
 20
498.8074687499016
 30
0.0
 11
183.2297371707261
 21
501.014450775873
 31
0.0
  0
LINE
  5
CD
  8
0
  6
CONTINUOUS
 62
     7
 10
-52.94526282927392
 20
593.1109597628872
 30
0.0
 11
-52.94526282927392
 21
602.1115689822616
 31
0.0
  0
LINE
  5
CE
  8
0
  6
CONTINUOUS
 62
     7
 10
183.2297371707261
 20
515.3074687499018
 30
0.0
 11
183.2297371707261
 21
517.5144507758731
 31
0.0
  0
LINE
  5
CF
  8
0
  6
CONTINUOUS
 62
     7
 10
183.2297371707261
 20
520.8074687499018
 30
0.0
 11
184.529737170726
 21
520.7847771654949
 31
0.0
  0
LINE
  5
D0
  8
0
  6
CONTINUOUS
 62
     7
 10
184.529737170726
 20
495.5371423602796
 30
0.0
 11
183.2297371707261
 21
495.5144507758731
 31
0.0
  0
LINE
  5
D1
  8
0
  6
CONTINUOUS
 62
     7
 10
184.529737170726
 20
484.5371423602796
 30
0.0
 11
183.2297371707261
 21
484.5144507758731
 31
0.0
  0
LINE
  5
D2
  8
0
  6
CONTINUOUS
 62
     7
 10
183.2297371707261
 20
537.3074687499018
 30
0.0
 11
184.529737170726
 21
537.2847771654949
 31
0.0
  0
LINE
  5
D3
  8
0
  6
CONTINUOUS
 62
     7
 10
184.529737170726
 20
534.0371423602796
 30
0.0
 11
184.529737170726
 21
537.284777165495
 31
0.0
  0
LINE
  5
D4
  8
0
  6
CONTINUOUS
 62
     7
 10
184.529737170726
 20
523.0371423602795
 30
0.0
 11
184.529737170726
 21
526.2847771654949
 31
0.0
  0
LINE
  5
D5
  8
0
  6
CONTINUOUS
 62
     7
 10
184.529737170726
 20
528.5371423602796
 30
0.0
 11
183.2297371707261
 21
528.514450775873
 31
0.0
  0
LINE
  5
D6
  8
0
  6
CONTINUOUS
 62
     7
 10
183.2297371707261
 20
526.3074687499019
 30
0.0
 11
183.2297371707261
 21
528.5144507758731
 31
0.0
  0
LINE
  5
D7
  8
0
  6
CONTINUOUS
 62
     7
 10
184.529737170726
 20
517.5371423602797
 30
0.0
 11
184.529737170726
 21
520.784777165495
 31
0.0
  0
LINE
  5
D8
  8
0
  6
CONTINUOUS
 62
     7
 10
183.2297371707261
 20
515.3074687499018
 30
0.0
 11
184.529737170726
 21
515.2847771654951
 31
0.0
  0
LINE
  5
D9
  8
0
  6
CONTINUOUS
 62
     7
 10
-72.34526282927368
 20
517.4497176984191
 30
0.0
 11
-63.54526282927368
 21
517.4497176984191
 31
0.0
  0
ARC
  5
DA
  8
0
  6
CONTINUOUS
 62
     7
 10
-85.34526282927368
 20
499.9109597628873
 30
0.0
 40
1.038757935531875
 50
180.0
 51
270.0
  0
ARC
  5
DB
  8
0
  6
CONTINUOUS
 62
     7
 10
-85.34526282927366
 20
532.9109597628874
 30
0.0
 40
1.03875793553182
 50
180.0
 51
269.9999999999992
  0
ARC
  5
DC
  8
0
  6
CONTINUOUS
 62
     7
 10
-89.54526282927371
 20
527.4109597628873
 30
0.0
 40
1.038757935531875
 50
270.0
 51
0.0
  0
ARC
  5
DD
  8
0
  6
CONTINUOUS
 62
     7
 10
-63.5452628292737
 20
516.4109597628874
 30
0.0
 40
1.03875793553182
 50
0.0
 51
89.99999999999962
  0
ARC
  5
DE
  8
0
  6
CONTINUOUS
 62
     7
 10
-89.5452628292737
 20
505.4109597628873
 30
0.0
 40
1.038757935531861
 50
269.9999999999992
 51
0.0
  0
LINE
  5
DF
  8
0
  6
CONTINUOUS
 62
     7
 10
-4.63911182267801
 20
596.4041945909236
 30
0.0
 11
-9.44526282927391
 21
596.4041945909236
 31
0.0
  0
LINE
  5
E0
  8
0
  6
CONTINUOUS
 62
     7
 10
-4.63911182267801
 20
603.9177249348511
 30
0.0
 11
-4.63911182267801
 21
596.4041945909236
 31
0.0
  0
LINE
  5
E1
  8
0
  6
CONTINUOUS
 62
     7
 10
136.5797371707262
 20
617.2777626186601
 30
0.0
 11
140.765569937042
 21
617.4971328183929
 31
0.0
  0
LINE
  5
E2
  8
0
  6
CONTINUOUS
 62
     7
 10
-85.34526282927366
 20
533.9497176984191
 30
0.0
 11
-76.54526282927368
 21
533.9497176984191
 31
0.0
  0
ARC
  5
E3
  8
0
  6
CONTINUOUS
 62
     7
 10
-76.54526282927368
 20
521.9109597628875
 30
0.0
 40
1.038757935531861
 50
270.0
 51
0.0
  0
LINE
  5
E4
  8
0
  6
CONTINUOUS
 62
     7
 10
-89.5452628292737
 20
537.3722018273556
 30
0.0
 11
-98.3452628292737
 21
537.3722018273556
 31
0.0
  0
LINE
  5
E5
  8
0
  6
CONTINUOUS
 62
     7
 10
-76.54526282927368
 20
509.8722018273554
 30
0.0
 11
-85.34526282927368
 21
509.8722018273554
 31
0.0
  0
ARC
  5
E6
  8
0
  6
CONTINUOUS
 62
     7
 10
-89.5452628292737
 20
538.4109597628874
 30
0.0
 40
1.038757935531875
 50
0.0
 51
90.0
  0
LINE
  5
E7
  8
0
  6
CONTINUOUS
 62
     7
 10
-98.34526282927368
 20
539.4497176984192
 30
0.0
 11
-89.5452628292737
 21
539.4497176984192
 31
0.0
  0
LINE
  5
E8
  8
0
  6
CONTINUOUS
 62
     7
 10
-98.3452628292737
 20
528.4497176984192
 30
0.0
 11
-89.54526282927374
 21
528.4497176984192
 31
0.0
  0
LINE
  5
E9
  8
0
  6
CONTINUOUS
 62
     7
 10
-9.445262829273881
 20
630.9109597628873
 30
0.0
 11
1.554737170726128
 21
630.9109597628873
 31
0.0
  0
LINE
  5
EA
  8
0
  6
CONTINUOUS
 62
     7
 10
-4.63911182267801
 20
614.417724934851
 30
0.0
 11
-4.63911182267801
 21
606.9041945909235
 31
0.0
  0
LINE
  5
EB
  8
0
  6
CONTINUOUS
 62
     7
 10
138.5147825945024
 20
619.6608968702533
 30
0.0
 11
138.5147825945024
 21
625.161022655521
 31
0.0
  0
LINE
  5
EC
  8
0
  6
CONTINUOUS
 62
     7
 10
-0.9452628292738741
 20
618.9017074916985
 30
0.0
 11
-0.9452628292738741
 21
619.6608968702533
 31
0.0
  0
ARC
  5
ED
  8
0
  6
CONTINUOUS
 62
     7
 10
-72.34526282927366
 20
549.4109597628873
 30
0.0
 40
1.038757935531861
 50
90.0
 51
180.0
  0
LINE
  5
EE
  8
0
  6
CONTINUOUS
 62
     7
 10
34.05473717072621
 20
593.1109597628872
 30
0.0
 11
34.05473717072621
 21
602.1115689822616
 31
0.0
  0
ARC
  5
EF
  8
0
  6
CONTINUOUS
 62
     7
 10
-92.8452628292737
 20
483.4109597628873
 30
0.0
 40
1.03875793553182
 50
90.00000000000075
 51
180.0000000000015
  0
LINE
  5
F0
  8
0
  6
CONTINUOUS
 62
     7
 10
153.3297371707262
 20
592.4109597628873
 30
0.0
 11
153.3297371707262
 21
630.9109597628873
 31
0.0
  0
ARC
  5
F1
  8
0
  6
CONTINUOUS
 62
     7
 10
-63.5452628292737
 20
549.4109597628873
 30
0.0
 40
1.038757935531875
 50
270.0000000000004
 51
0.0
  0
LINE
  5
F2
  8
0
  6
CONTINUOUS
 62
     7
 10
-98.3452628292737
 20
506.4497176984193
 30
0.0
 11
-89.5452628292737
 21
506.4497176984193
 31
0.0
  0
ARC
  5
F3
  8
0
  6
CONTINUOUS
 62
     7
 10
-98.3452628292737
 20
527.4109597628873
 30
0.0
 40
1.038757935531875
 50
180.0
 51
270.0
  0
LINE
  5
F4
  8
0
  6
CONTINUOUS
 62
     7
 10
-9.445262829273881
 20
592.4109597628873
 30
0.0
 11
1.554737170726128
 21
592.4109597628873
 31
0.0
  0
LINE
  5
F5
  8
0
  6
CONTINUOUS
 62
     7
 10
30.0553463901006
 20
606.1109597628873
 30
0.0
 11
18.57225905583426
 21
606.1109597628873
 31
0.0
  0
LINE
  5
F6
  8
0
  6
CONTINUOUS
 62
     7
 10
-85.34526282927368
 20
511.9497176984191
 30
0.0
 11
-76.54526282927368
 21
511.9497176984191
 31
0.0
  0
ARC
  5
F7
  8
0
  6
CONTINUOUS
 62
     7
 10
-89.5452628292737
 20
505.4109597628873
 30
0.0
 40
1.038757935531875
 50
0.0
 51
90.0
  0
ARC
  5
F8
  8
0
  6
CONTINUOUS
 62
     7
 10
-72.34526282927368
 20
516.4109597628874
 30
0.0
 40
1.038757935531875
 50
180.0
 51
270.0000000000007
  0
ARC
  5
F9
  8
0
  6
CONTINUOUS
 62
     7
 10
-76.54526282927368
 20
510.9109597628871
 30
0.0
 40
1.038757935531861
 50
270.0
 51
0.0
  0
ARC
  5
FA
  8
0
  6
CONTINUOUS
 62
     7
 10
-89.5452628292737
 20
483.4109597628873
 30
0.0
 40
1.038757935531861
 50
0.0
 51
90.00000000000153
  0
LINE
  5
FB
  8
0
  6
CONTINUOUS
 62
     7
 10
-50.54526282927368
 20
520.8722018273555
 30
0.0
 11
-59.34526282927369
 21
520.8722018273555
 31
0.0
  0
ARC
  5
FC
  8
0
  6
CONTINUOUS
 62
     7
 10
-63.5452628292737
 20
549.4109597628873
 30
0.0
 40
1.03875793553182
 50
0.0
 51
90.0000000000008
  0
ARC
  5
FD
  8
0
  6
CONTINUOUS
 62
     7
 10
-76.54526282927368
 20
499.9109597628873
 30
0.0
 40
1.038757935531861
 50
269.9999999999999
 51
0.000000000000739
  0
LINE
  5
FE
  8
0
  6
CONTINUOUS
 62
     7
 10
-4.63911182267801
 20
614.417724934851
 30
0.0
 11
-9.44526282927391
 21
614.417724934851
 31
0.0
  0
ARC
  5
FF
  8
0
  6
CONTINUOUS
 62
     7
 10
-89.5452628292737
 20
494.4109597628872
 30
0.0
 40
1.038757935531861
 50
269.9999999999992
 51
0.0
  0
LINE
  5
100
  8
0
  6
CONTINUOUS
 62
     7
 10
18.57225905583426
 20
606.1109597628873
 30
0.0
 11
1.554737170726128
 21
614.4109597628873
 31
0.0
  0
LINE
  5
101
  8
0
  6
CONTINUOUS
 62
     7
 10
140.6797371707262
 20
618.4109597628873
 30
0.0
 11
140.7559267267197
 21
618.4109597628873
 31
0.0
  0
LINE
  5
102
  8
0
  6
CONTINUOUS
 62
     7
 10
-89.54526282927371
 20
504.3722018273555
 30
0.0
 11
-98.3452628292737
 21
504.3722018273555
 31
0.0
  0
LINE
  5
103
  8
0
  6
CONTINUOUS
 62
     7
 10
-63.5452628292737
 20
515.3722018273554
 30
0.0
 11
-72.34526282927368
 21
515.3722018273554
 31
0.0
  0
LINE
  5
104
  8
0
  6
CONTINUOUS
 62
     7
 10
-4.63911182267801
 20
606.9041945909235
 30
0.0
 11
-9.44526282927391
 21
606.9041945909235
 31
0.0
  0
LINE
  5
105
  8
0
  6
CONTINUOUS
 62
     7
 10
184.529737170726
 20
550.5371423602799
 30
0.0
 11
183.2297371707261
 21
550.514450775873
 31
0.0
  0
LINE
  5
106
  8
0
  6
CONTINUOUS
 62
     7
 10
-9.445262829273881
 20
618.4109597628873
 30
0.0
 11
-1.795262829273892
 21
618.4109597628873
 31
0.0
  0
ARC
  5
107
  8
0
  6
CONTINUOUS
 62
     7
 10
-59.34526282927366
 20
521.9109597628875
 30
0.0
 40
1.038757935531848
 50
90.0000000000004
 51
180.0
  0
LINE
  5
108
  8
0
  6
CONTINUOUS
 62
     7
 10
-89.54526282927374
 20
484.4497176984191
 30
0.0
 11
-92.84526282927371
 21
484.4497176984191
 31
0.0
  0
LINE
  5
109
  8
0
  6
CONTINUOUS
 62
     7
 10
-4.63911182267801
 20
603.9177249348511
 30
0.0
 11
-9.44526282927391
 21
603.9177249348511
 31
0.0
  0
LINE
  5
10A
  8
0
  6
CONTINUOUS
 62
     7
 10
1.554737170726128
 20
593.1109597628872
 30
0.0
 11
34.05473717072621
 21
593.1109597628872
 31
0.0
  0
LINE
  5
10B
  8
0
  6
CONTINUOUS
 62
     7
 10
-0.9452628292738741
 20
619.6608968702533
 30
0.0
 11
-0.9452628292738741
 21
625.161022655521
 31
0.0
  0
ARC
  5
10C
  8
0
  6
CONTINUOUS
 62
     7
 10
-76.54526282927368
 20
532.9109597628874
 30
0.0
 40
1.038757935531875
 50
359.9999999999993
 51
90.0
  0
LINE
  5
10D
  8
0
  6
CONTINUOUS
 62
     7
 10
32.80473717072601
 20
593.1130393713062
 30
0.0
 11
32.80473717072601
 21
596.2364091136051
 31
0.0
  0
LINE
  5
10E
  8
0
  6
CONTINUOUS
 62
     7
 10
1.554737170726128
 20
630.9109597628873
 30
0.0
 11
1.554737170726128
 21
592.4109597628873
 31
0.0
  0
LINE
  5
10F
  8
0
  6
CONTINUOUS
 62
     7
 10
-72.34526282927366
 20
550.4497176984194
 30
0.0
 11
-63.54526282927372
 21
550.4497176984194
 31
0.0
  0
ARC
  5
110
  8
0
  6
CONTINUOUS
 62
     7
 10
-98.3452628292737
 20
494.4109597628872
 30
0.0
 40
1.038757935531861
 50
90.0
 51
180.0
  0
ARC
  5
111
  8
0
  6
CONTINUOUS
 62
     7
 10
66.45473717072598
 20
499.9109597628873
 30
0.0
 40
1.038757935531875
 50
270.0
 51
0.0
  0
TEXT
  5
112
  8
0
  6
CONTINUOUS
 62
     7
 10
12.61806968893888
 20
334.0245911682385
 30
0.0
 40
6.0
  1
ＦＬＢ－Ｔ４５７０
  0
LINE
  5
113
  8
0
  6
CONTINUOUS
 62
     7
 10
70.65473717072601
 20
493.3722018273555
 30
0.0
 11
79.45473717072599
 21
493.3722018273555
 31
0.0
  0
LINE
  5
114
  8
0
  6
CONTINUOUS
 62
     7
 10
66.45473717072598
 20
522.9497176984192
 30
0.0
 11
57.654737170726
 21
522.9497176984192
 31
0.0
  0
LINE
  5
115
  8
0
  6
CONTINUOUS
 62
     7
 10
66.45473717072598
 20
500.9497176984192
 30
0.0
 11
57.654737170726
 21
500.9497176984192
 31
0.0
  0
ARC
  5
116
  8
0
  6
CONTINUOUS
 62
     7
 10
53.45473717072596
 20
549.4109597628873
 30
0.0
 40
1.038757935531875
 50
0.0
 51
90.0
  0
ARC
  5
117
  8
0
  6
CONTINUOUS
 62
     7
 10
66.45473717072598
 20
521.9109597628875
 30
0.0
 40
1.038757935531875
 50
270.0
 51
0.0
  0
ARC
  5
118
  8
0
  6
CONTINUOUS
 62
     7
 10
66.45473717072598
 20
499.9109597628873
 30
0.0
 40
1.038757935531875
 50
0.0
 51
90.0
  0
ARC
  5
119
  8
0
  6
CONTINUOUS
 62
     7
 10
57.654737170726
 20
499.9109597628873
 30
0.0
 40
1.038757935531875
 50
90.0
 51
179.9999999999992
  0
ARC
  5
11A
  8
0
  6
CONTINUOUS
 62
     7
 10
66.45473717072598
 20
510.9109597628871
 30
0.0
 40
1.038757935531875
 50
0.0
 51
90.0
  0
ARC
  5
11B
  8
0
  6
CONTINUOUS
 62
     7
 10
57.654737170726
 20
510.9109597628871
 30
0.0
 40
1.038757935531875
 50
180.0
 51
270.0
  0
LINE
  5
11C
  8
0
  6
CONTINUOUS
 62
     7
 10
53.45473717072596
 20
517.4497176984191
 30
0.0
 11
44.65473717072599
 21
517.4497176984191
 31
0.0
  0
ARC
  5
11D
  8
0
  6
CONTINUOUS
 62
     7
 10
57.654737170726
 20
521.9109597628875
 30
0.0
 40
1.038757935531875
 50
90.0
 51
180.0
  0
ARC
  5
11E
  8
0
  6
CONTINUOUS
 62
     7
 10
53.45473717072596
 20
549.4109597628873
 30
0.0
 40
1.038757935531875
 50
270.0
 51
0.0
  0
ARC
  5
11F
  8
0
  6
CONTINUOUS
 62
     7
 10
31.65473717072603
 20
521.9109597628875
 30
0.0
 40
1.03875793553182
 50
180.0
 51
270.0000000000004
  0
LINE
  5
120
  8
0
  6
CONTINUOUS
 62
     7
 10
44.65473717072599
 20
515.3722018273554
 30
0.0
 11
53.45473717072596
 21
515.3722018273554
 31
0.0
  0
ARC
  5
121
  8
0
  6
CONTINUOUS
 62
     7
 10
40.45473717072601
 20
521.9109597628875
 30
0.0
 40
1.03875793553182
 50
0.0
 51
89.99999999999962
  0
LINE
  5
122
  8
0
  6
CONTINUOUS
 62
     7
 10
57.654737170726
 20
531.8722018273556
 30
0.0
 11
66.45473717072598
 21
531.8722018273556
 31
0.0
  0
ARC
  5
123
  8
0
  6
CONTINUOUS
 62
     7
 10
-92.8452628292737
 20
483.4109597628873
 30
0.0
 40
1.038757935531848
 50
180.0
 51
270.0
  0
ARC
  5
124
  8
0
  6
CONTINUOUS
 62
     7
 10
-34.34526282927369
 20
532.9109597628874
 30
0.0
 40
1.038757935531875
 50
180.0
 51
269.9999999999992
  0
ARC
  5
125
  8
0
  6
CONTINUOUS
 62
     7
 10
-26.54526282927366
 20
532.9109597628874
 30
0.0
 40
1.038757935531875
 50
270.0
 51
0.0000000000007958
  0
LINE
  5
126
  8
0
  6
CONTINUOUS
 62
     7
 10
-8.445262829273881
 20
481.4109597628871
 30
0.0
 11
-8.445262829273881
 21
501.4109597628873
 31
0.0
  0
ARC
  5
127
  8
0
  6
CONTINUOUS
 62
     7
 10
15.45473717072587
 20
488.9109597628873
 30
0.0
 40
1.038757935531875
 50
0.0000000000007958
 51
89.9999999999992
  0
ARC
  5
128
  8
0
  6
CONTINUOUS
 62
     7
 10
15.45473717072587
 20
510.9109597628871
 30
0.0
 40
1.038757935531875
 50
0.0000000000007958
 51
89.9999999999992
  0
ARC
  5
129
  8
0
  6
CONTINUOUS
 62
     7
 10
-4.445262829273877
 20
481.4109597628871
 30
0.0
 40
4.000000000000004
 50
180.0
 51
270.0
  0
ARC
  5
12A
  8
0
  6
CONTINUOUS
 62
     7
 10
-22.34526282927368
 20
516.4109597628874
 30
0.0
 40
1.038757935531875
 50
90.0
 51
179.9999999999992
  0
ARC
  5
12B
  8
0
  6
CONTINUOUS
 62
     7
 10
7.6547371707259
 20
543.9109597628875
 30
0.0
 40
1.03875793553182
 50
90.0
 51
180.0
  0
ARC
  5
12C
  8
0
  6
CONTINUOUS
 62
     7
 10
7.6547371707259
 20
543.9109597628875
 30
0.0
 40
1.038757935531875
 50
179.9999999999992
 51
270.0
  0
ARC
  5
12D
  8
0
  6
CONTINUOUS
 62
     7
 10
15.45473717072587
 20
510.9109597628873
 30
0.0
 40
1.038757935531875
 50
270.0000000000007
 51
0.0
  0
ARC
  5
12E
  8
0
  6
CONTINUOUS
 62
     7
 10
24.41722328348039
 20
373.9109597628872
 30
0.0
 40
5.000000000000004
 50
270.0
 51
349.2157021324373
  0
LINE
  5
12F
  8
0
  6
CONTINUOUS
 62
     7
 10
-43.30774894202816
 20
368.9109597628873
 30
0.0
 11
-41.58277671651958
 21
368.9109597628873
 31
0.0
  0
ARC
  5
130
  8
0
  6
CONTINUOUS
 62
     7
 10
-9.445262829273881
 20
501.4109597628873
 30
0.0
 40
1.000000000000001
 50
0.0
 51
90.00000000000001
  0
LINE
  5
131
  8
0
  6
CONTINUOUS
 62
     7
 10
24.41722328348039
 20
368.9109597628873
 30
0.0
 11
22.69225105797176
 21
368.9109597628873
 31
0.0
  0
LINE
  5
132
  8
0
  6
CONTINUOUS
 62
     7
 10
-49.44526282927386
 20
477.4109597628871
 30
0.0
 11
-89.44526282927373
 21
477.4109597628871
 31
0.0
  0
LINE
  5
133
  8
0
  6
CONTINUOUS
 62
     7
 10
15.45473717072593
 20
487.8722018273554
 30
0.0
 11
7.654737170725928
 21
487.8722018273554
 31
0.0
  0
LINE
  5
134
  8
0
  6
CONTINUOUS
 62
     7
 10
-49.44526282927391
 20
379.4109597628872
 30
0.0
 11
-49.44526282927389
 21
477.410959762887
 31
0.0
  0
LINE
  5
135
  8
0
  6
CONTINUOUS
 62
     7
 10
30.55473717072621
 20
477.4109597628871
 30
0.0
 11
30.55473717072621
 21
379.4109597628875
 31
0.0
  0
ARC
  5
136
  8
0
  6
CONTINUOUS
 62
     7
 10
15.45473717072587
 20
543.9109597628875
 30
0.0
 40
1.038757935531875
 50
270.0
 51
0.0
  0
ARC
  5
137
  8
0
  6
CONTINUOUS
 62
     7
 10
15.45473717072587
 20
488.9109597628873
 30
0.0
 40
1.038757935531875
 50
270.0000000000007
 51
0.0
  0
LINE
  5
138
  8
0
  6
CONTINUOUS
 62
     7
 10
-35.4452628292739
 20
477.4109597628871
 30
0.0
 11
-35.4452628292739
 21
379.4109597628873
 31
0.0
  0
LINE
  5
139
  8
0
  6
CONTINUOUS
 62
     7
 10
-63.5452628292737
 20
482.3722018273555
 30
0.0
 11
-72.34526282927368
 21
482.3722018273555
 31
0.0
  0
LINE
  5
13A
  8
0
  6
CONTINUOUS
 62
     7
 10
70.55473717072603
 20
477.4109597628871
 30
0.0
 11
82.26294110322563
 21
483.2650617291369
 31
0.0
  0
ARC
  5
13B
  8
0
  6
CONTINUOUS
 62
     7
 10
-43.30774894202816
 20
373.9109597628872
 30
0.0
 40
5.000000000000004
 50
190.7842978675627
 51
270.0
  0
LINE
  5
13C
  8
0
  6
CONTINUOUS
 62
     7
 10
90.5547371707262
 20
496.6814695941355
 30
0.0
 11
90.5547371707262
 21
536.1404499316386
 31
0.0
  0
LINE
  5
13D
  8
0
  6
CONTINUOUS
 62
     7
 10
-48.21944177414056
 20
372.9753992234373
 30
0.0
 11
-49.44526282927389
 21
379.4109597628873
 31
0.0
  0
LINE
  5
13E
  8
0
  6
CONTINUOUS
 62
     7
 10
16.55473717072614
 20
477.4109597628871
 30
0.0
 11
-4.445262829273877
 21
477.4109597628871
 31
0.0
  0
ARC
  5
13F
  8
0
  6
CONTINUOUS
 62
     7
 10
7.6547371707259
 20
488.9109597628873
 30
0.0
 40
1.03875793553182
 50
89.9999999999992
 51
180.0
  0
ARC
  5
140
  8
0
  6
CONTINUOUS
 62
     7
 10
22.69225105797179
 20
373.9109597628872
 30
0.0
 40
5.000000000000004
 50
190.7842978675627
 51
270.0
  0
ARC
  5
141
  8
0
  6
CONTINUOUS
 62
     7
 10
75.55473717072624
 20
496.6814695941355
 30
0.0
 40
15.00000000000001
 50
296.565051177078
 51
0.0000000000000568
  0
LINE
  5
142
  8
0
  6
CONTINUOUS
 62
     7
 10
7.6547371707259
 20
544.9497176984192
 30
0.0
 11
15.4547371707259
 21
544.9497176984192
 31
0.0
  0
ARC
  5
143
  8
0
  6
CONTINUOUS
 62
     7
 10
-22.34526282927368
 20
516.4109597628874
 30
0.0
 40
1.038757935531875
 50
180.0
 51
270.0
  0
LINE
  5
144
  8
0
  6
CONTINUOUS
 62
     7
 10
-26.54526282927366
 20
533.9497176984191
 30
0.0
 11
-34.34526282927366
 21
533.9497176984191
 31
0.0
  0
LINE
  5
145
  8
0
  6
CONTINUOUS
 62
   253
 10
-9.445262829273881
 20
502.4109597628872
 30
0.0
 11
-9.445262829273881
 21
503.1109597628871
 31
0.0
  0
ARC
  5
146
  8
0
  6
CONTINUOUS
 62
     7
 10
-41.58277671651961
 20
373.9109597628872
 30
0.0
 40
5.000000000000004
 50
270.0
 51
349.2157021324373
  0
LINE
  5
147
  8
0
  6
CONTINUOUS
 62
     7
 10
-34.34526282927369
 20
498.8722018273555
 30
0.0
 11
-26.54526282927369
 21
498.8722018273555
 31
0.0
  0
ARC
  5
148
  8
0
  6
CONTINUOUS
 62
     7
 10
-26.54526282927366
 20
499.9109597628873
 30
0.0
 40
1.038757935531875
 50
270.0
 51
0.0000000000007958
  0
ARC
  5
149
  8
0
  6
CONTINUOUS
 62
     7
 10
-34.34526282927369
 20
532.9109597628874
 30
0.0
 40
1.038757935531875
 50
90.0
 51
179.9999999999992
  0
ARC
  5
14A
  8
0
  6
CONTINUOUS
 62
     7
 10
-14.54526282927365
 20
516.4109597628874
 30
0.0
 40
1.038757935531875
 50
270.0
 51
0.0000000000007958
  0
LINE
  5
14B
  8
0
  6
CONTINUOUS
 62
     7
 10
-14.44526282927389
 20
477.4109597628871
 30
0.0
 11
-35.4452628292739
 21
477.4109597628871
 31
0.0
  0
ARC
  5
14C
  8
0
  6
CONTINUOUS
 62
     7
 10
-14.54526282927365
 20
516.4109597628874
 30
0.0
 40
1.038757935531875
 50
0.0
 51
90.00000000000075
  0
LINE
  5
14D
  8
0
  6
CONTINUOUS
 62
     7
 10
-22.34526282927368
 20
515.3722018273554
 30
0.0
 11
-14.54526282927368
 21
515.3722018273554
 31
0.0
  0
LINE
  5
14E
  8
0
  6
CONTINUOUS
 62
     7
 10
7.6547371707259
 20
489.9497176984191
 30
0.0
 11
15.4547371707259
 21
489.9497176984191
 31
0.0
  0
ARC
  5
14F
  8
0
  6
CONTINUOUS
 62
     7
 10
7.6547371707259
 20
488.9109597628873
 30
0.0
 40
1.038757935531875
 50
179.9999999999992
 51
270.0
  0
LINE
  5
150
  8
0
  6
CONTINUOUS
 62
     7
 10
70.55473717072603
 20
477.4109597628871
 30
0.0
 11
30.55473717072624
 21
477.4109597628871
 31
0.0
  0
ARC
  5
151
  8
0
  6
CONTINUOUS
 62
     7
 10
-34.34526282927369
 20
499.9109597628873
 30
0.0
 40
1.038757935531875
 50
180.0
 51
269.9999999999992
  0
ARC
  5
152
  8
0
  6
CONTINUOUS
 62
     7
 10
15.45473717072587
 20
521.9109597628875
 30
0.0
 40
1.03875793553182
 50
0.0000000000007958
 51
89.9999999999992
  0
LINE
  5
153
  8
0
  6
CONTINUOUS
 62
     7
 10
15.45473717072587
 20
542.8722018273555
 30
0.0
 11
7.654737170725901
 21
542.8722018273555
 31
0.0
  0
ARC
  5
154
  8
0
  6
CONTINUOUS
 62
     7
 10
-26.54526282927366
 20
499.9109597628873
 30
0.0
 40
1.038757935531875
 50
0.0
 51
90.00000000000075
  0
ARC
  5
155
  8
0
  6
CONTINUOUS
 62
     7
 10
-14.44526282927389
 20
481.4109597628871
 30
0.0
 40
4.000000000000004
 50
270.0
 51
0.0
  0
LINE
  5
156
  8
0
  6
CONTINUOUS
 62
     7
 10
-89.44526282927397
 20
555.4109597628874
 30
0.0
 11
-49.4452628292739
 21
555.4109597628874
 31
0.0
  0
ARC
  5
157
  8
0
  6
CONTINUOUS
 62
     7
 10
-34.34526282927369
 20
499.9109597628873
 30
0.0
 40
1.038757935531875
 50
90.00000000000075
 51
179.9999999999992
  0
ARC
  5
158
  8
0
  6
CONTINUOUS
 62
     7
 10
-9.445262829273881
 20
501.4109597628873
 30
0.0
 40
1.000000000000001
 50
90.00000000000001
 51
180.0
  0
LINE
  5
159
  8
0
  6
CONTINUOUS
 62
     7
 10
-35.4452628292739
 20
379.4109597628872
 30
0.0
 11
-36.67108388440721
 21
372.9753992234373
 31
0.0
  0
ARC
  5
15A
  8
0
  6
CONTINUOUS
 62
     7
 10
7.6547371707259
 20
510.9109597628873
 30
0.0
 40
1.03875793553182
 50
89.9999999999992
 51
180.0
  0
LINE
  5
15B
  8
0
  6
CONTINUOUS
 62
     7
 10
-26.54526282927366
 20
500.9497176984192
 30
0.0
 11
-34.34526282927366
 21
500.9497176984192
 31
0.0
  0
LINE
  5
15C
  8
0
  6
CONTINUOUS
 62
     7
 10
16.55473717072614
 20
379.4109597628872
 30
0.0
 11
17.78055822585947
 21
372.9753992234373
 31
0.0
  0
LINE
  5
15D
  8
0
  6
CONTINUOUS
 62
     7
 10
70.55473717072624
 20
555.4109597628874
 30
0.0
 11
82.26294110322563
 21
549.5568577966376
 31
0.0
  0
LINE
  5
15E
  8
0
  6
CONTINUOUS
 62
     7
 10
-10.44526282927388
 20
501.4109597628873
 30
0.0
 11
-10.44526282927388
 21
481.410959762887
 31
0.0
  0
LINE
  5
15F
  8
0
  6
CONTINUOUS
 62
     7
 10
-14.54526282927365
 20
517.4497176984191
 30
0.0
 11
-22.34526282927365
 21
517.4497176984191
 31
0.0
  0
LINE
  5
160
  8
0
  6
CONTINUOUS
 62
     7
 10
30.55473717072621
 20
555.4109597628874
 30
0.0
 11
70.55473717072621
 21
555.4109597628874
 31
0.0
  0
ARC
  5
161
  8
0
  6
CONTINUOUS
 62
     7
 10
7.6547371707259
 20
510.9109597628871
 30
0.0
 40
1.03875793553182
 50
179.9999999999992
 51
270.0
  0
ARC
  5
162
  8
0
  6
CONTINUOUS
 62
     7
 10
15.45473717072587
 20
543.9109597628875
 30
0.0
 40
1.03875793553182
 50
0.0000000000007958
 51
90.0
  0
LINE
  5
163
  8
0
  6
CONTINUOUS
 62
     7
 10
-76.54526282927368
 20
487.8722018273554
 30
0.0
 11
-85.34526282927368
 21
487.8722018273554
 31
0.0
  0
LINE
  5
164
  8
0
  6
CONTINUOUS
 62
     7
 10
-59.34526282927369
 20
500.9497176984192
 30
0.0
 11
-50.5452628292737
 21
500.9497176984192
 31
0.0
  0
ARC
  5
165
  8
0
  6
CONTINUOUS
 62
     7
 10
-72.34526282927366
 20
494.4109597628872
 30
0.0
 40
1.038757935531861
 50
90.0
 51
180.0
  0
ARC
  5
166
  8
0
  6
CONTINUOUS
 62
     7
 10
-59.34526282927369
 20
499.9109597628873
 30
0.0
 40
1.038757935531848
 50
90.0
 51
180.0
  0
ARC
  5
167
  8
0
  6
CONTINUOUS
 62
     7
 10
-72.34526282927368
 20
505.4109597628873
 30
0.0
 40
1.03875793553182
 50
180.0
 51
270.0000000000007
  0
LINE
  5
168
  8
0
  6
CONTINUOUS
 62
     7
 10
30.55473717072621
 20
569.4109597628874
 30
0.0
 11
34.97801441801537
 21
572.5150139715113
 31
0.0
  0
LINE
  5
169
  8
0
  6
CONTINUOUS
 62
     7
 10
-49.44526282927391
 20
569.4109597628874
 30
0.0
 11
-49.44526282927391
 21
555.4109597628874
 31
0.0
  0
ARC
  5
16A
  8
0
  6
CONTINUOUS
 62
     7
 10
-76.54526282927368
 20
488.9109597628873
 30
0.0
 40
1.038757935531875
 50
0.0
 51
90.0
  0
ARC
  5
16B
  8
0
  6
CONTINUOUS
 62
     7
 10
-59.34526282927369
 20
488.9109597628873
 30
0.0
 40
1.038757935531848
 50
90.0
 51
180.0
  0
ARC
  5
16C
  8
0
  6
CONTINUOUS
 62
     7
 10
-72.34526282927366
 20
483.4109597628873
 30
0.0
 40
1.03875793553182
 50
180.0
 51
270.0
  0
ARC
  5
16D
  8
0
  6
CONTINUOUS
 62
     7
 10
-50.54526282927368
 20
499.9109597628873
 30
0.0
 40
1.038757935531875
 50
0.0
 51
90.0
  0
LINE
  5
16E
  8
0
  6
CONTINUOUS
 62
     7
 10
-72.34526282927366
 20
495.4497176984192
 30
0.0
 11
-63.54526282927372
 21
495.4497176984192
 31
0.0
  0
ARC
  5
16F
  8
0
  6
CONTINUOUS
 62
     7
 10
-72.34526282927366
 20
483.4109597628873
 30
0.0
 40
1.038757935531861
 50
90.0
 51
180.0
  0
ARC
  5
170
  8
0
  6
CONTINUOUS
 62
     7
 10
-63.5452628292737
 20
505.4109597628873
 30
0.0
 40
1.038757935531875
 50
269.9999999999996
 51
0.0
  0
LINE
  5
171
  8
0
  6
CONTINUOUS
 62
     7
 10
30.55473717072621
 20
555.4109597628874
 30
0.0
 11
30.55473717072621
 21
569.4109597628874
 31
0.0
  0
LINE
  5
172
  8
0
  6
CONTINUOUS
 62
   253
 10
16.29997632730301
 20
582.4233712027715
 30
0.0
 11
16.30067800417529
 21
576.9109597628873
 31
0.0
  0
LINE
  5
173
  8
0
  6
CONTINUOUS
 62
     7
 10
36.25473717072619
 20
574.9706840488984
 30
0.0
 11
36.25473717072619
 21
583.9508826429723
 31
0.0
  0
LINE
  5
174
  8
0
  6
CONTINUOUS
 62
     7
 10
-72.34526282927366
 20
484.4497176984191
 30
0.0
 11
-63.54526282927368
 21
484.4497176984191
 31
0.0
  0
LINE
  5
175
  8
0
  6
CONTINUOUS
 62
   253
 10
30.808796337286
 20
576.9109597628872
 30
0.0
 11
30.80949801414701
 21
582.4233712027715
 31
0.0
  0
ARC
  5
176
  8
0
  6
CONTINUOUS
 62
     7
 10
-72.34526282927366
 20
494.4109597628872
 30
0.0
 40
1.038757935531875
 50
180.0
 51
270.0
  0
ARC
  5
177
  8
0
  6
CONTINUOUS
 62
     7
 10
-59.34526282927369
 20
488.9109597628873
 30
0.0
 40
1.038757935531875
 50
180.0
 51
269.9999999999995
  0
LINE
  5
178
  8
0
  6
CONTINUOUS
 62
     7
 10
35.90858332457236
 20
585.3498467567779
 30
0.0
 11
36.25473717072619
 21
583.9508826429723
 31
0.0
  0
LINE
  5
179
  8
0
  6
CONTINUOUS
 62
     7
 10
34.45972165598143
 20
586.6982472693543
 30
0.0
 11
30.55473717072624
 21
588.4109597628873
 31
0.0
  0
ARC
  5
17A
  8
0
  6
CONTINUOUS
 62
     7
 10
-59.34526282927366
 20
510.9109597628871
 30
0.0
 40
1.038757935531875
 50
90.0000000000004
 51
180.0
  0
LINE
  5
17B
  8
0
  6
CONTINUOUS
 62
     7
 10
16.55473717072609
 20
569.4109597628874
 30
0.0
 11
16.55473717072609
 21
555.4109597628874
 31
0.0
  0
ARC
  5
17C
  8
0
  6
CONTINUOUS
 62
     7
 10
-50.54526282927368
 20
510.9109597628871
 30
0.0
 40
1.038757935531875
 50
0.0
 51
90.0000000000004
  0
LINE
  5
17D
  8
0
  6
CONTINUOUS
 62
     7
 10
16.30067800417529
 20
576.9109597628872
 30
0.0
 11
30.80879633728598
 21
576.9109597628872
 31
0.0
  0
LINE
  5
17E
  8
0
  6
CONTINUOUS
 62
   253
 10
16.96698628544274
 20
571.3245882448534
 30
0.0
 11
16.96698628544283
 21
571.3358401132049
 31
0.0
  0
ARC
  5
17F
  8
0
  6
CONTINUOUS
 62
     7
 10
-63.5452628292737
 20
505.4109597628873
 30
0.0
 40
1.038757935531875
 50
0.0
 51
89.99999999999962
  0
LINE
  5
180
  8
0
  6
CONTINUOUS
 62
   253
 10
30.1424880559526
 20
571.3245882448541
 30
0.0
 11
30.1424880559526
 21
571.3358401132049
 31
0.0
  0
ARC
  5
181
  8
0
  6
CONTINUOUS
 62
     7
 10
-72.34526282927368
 20
505.4109597628873
 30
0.0
 40
1.038757935531875
 50
90.0
 51
180.0
  0
ARC
  5
182
  8
0
  6
CONTINUOUS
 62
     7
 10
-92.8452628292737
 20
549.4109597628873
 30
0.0
 40
1.038757935531875
 50
179.9999999999989
 51
270.0
  0
LINE
  5
183
  8
0
  6
CONTINUOUS
 62
     7
 10
-63.5452628292737
 20
493.3722018273555
 30
0.0
 11
-72.34526282927368
 21
493.3722018273555
 31
0.0
  0
LINE
  5
184
  8
0
  6
CONTINUOUS
 62
     7
 10
-63.5452628292737
 20
504.3722018273555
 30
0.0
 11
-72.34526282927368
 21
504.3722018273555
 31
0.0
  0
LINE
  5
185
  8
0
  6
CONTINUOUS
 62
     7
 10
-34.34526282927369
 20
531.8722018273556
 30
0.0
 11
-26.54526282927369
 21
531.8722018273554
 31
0.0
  0
ARC
  5
186
  8
0
  6
CONTINUOUS
 62
     7
 10
-59.34526282927366
 20
510.9109597628871
 30
0.0
 40
1.038757935531875
 50
180.0
 51
269.9999999999992
  0
ARC
  5
187
  8
0
  6
CONTINUOUS
 62
     7
 10
-26.54526282927366
 20
532.9109597628874
 30
0.0
 40
1.038757935531875
 50
0.0
 51
90.0
  0
ARC
  5
188
  8
0
  6
CONTINUOUS
 62
     7
 10
-63.5452628292737
 20
483.4109597628873
 30
0.0
 40
1.038757935531875
 50
0.0
 51
89.99999999999962
  0
ARC
  5
189
  8
0
  6
CONTINUOUS
 62
     7
 10
-50.54526282927368
 20
510.9109597628871
 30
0.0
 40
1.038757935531875
 50
269.9999999999996
 51
0.0
  0
LINE
  5
18A
  8
0
  6
CONTINUOUS
 62
   253
 10
36.25473717072619
 20
583.9508826429725
 30
0.0
 11
36.25372959657738
 21
583.9833874250115
 31
0.0
  0
LINE
  5
18B
  8
0
  6
CONTINUOUS
 62
     7
 10
-35.4452628292739
 20
555.4109597628874
 30
0.0
 11
-35.4452628292739
 21
569.4109597628874
 31
0.0
  0
ARC
  5
18C
  8
0
  6
CONTINUOUS
 62
     7
 10
-85.34526282927368
 20
488.9109597628873
 30
0.0
 40
1.038757935531875
 50
180.0
 51
270.0
  0
ARC
  5
18D
  8
0
  6
CONTINUOUS
 62
     7
 10
-92.8452628292737
 20
549.4109597628873
 30
0.0
 40
1.038757935531848
 50
90.0
 51
180.0
  0
ARC
  5
18E
  8
0
  6
CONTINUOUS
 62
     7
 10
-59.34526282927369
 20
499.9109597628873
 30
0.0
 40
1.038757935531875
 50
180.0
 51
269.9999999999995
  0
ARC
  5
18F
  8
0
  6
CONTINUOUS
 62
     7
 10
-50.54526282927368
 20
499.9109597628873
 30
0.0
 40
1.038757935531875
 50
270.0
 51
0.0
  0
ARC
  5
190
  8
0
  6
CONTINUOUS
 62
     7
 10
-63.5452628292737
 20
483.4109597628873
 30
0.0
 40
1.038757935531875
 50
270.0
 51
0.0
  0
LINE
  5
191
  8
0
  6
CONTINUOUS
 62
     7
 10
-85.34526282927368
 20
489.9497176984191
 30
0.0
 11
-76.54526282927368
 21
489.9497176984191
 31
0.0
  0
LINE
  5
192
  8
0
  6
CONTINUOUS
 62
     7
 10
10.85473717072616
 20
583.9508826429723
 30
0.0
 11
10.85473717072616
 21
574.9706840488984
 31
0.0
  0
LINE
  5
193
  8
0
  6
CONTINUOUS
 62
     7
 10
-59.34526282927369
 20
511.9497176984191
 30
0.0
 11
-50.5452628292737
 21
511.9497176984191
 31
0.0
  0
POINT
  5
194
  8
0
 62
     7
 10
153.3297371707264
 20
592.4109597628873
 30
0.0
  0
ARC
  5
195
  8
0
  6
CONTINUOUS
 62
     7
 10
-98.3452628292737
 20
516.4109597628874
 30
0.0
 40
1.038757935531875
 50
180.0
 51
270.0
  0
ARC
  5
196
  8
0
  6
CONTINUOUS
 62
     7
 10
-22.34526282927368
 20
483.4109597628873
 30
0.0
 40
1.038757935531875
 50
180.0
 51
270.0
  0
ARC
  5
197
  8
0
  6
CONTINUOUS
 62
     7
 10
-89.54526282927371
 20
516.4109597628874
 30
0.0
 40
1.038757935531861
 50
270.0
 51
0.0
  0
ARC
  5
198
  8
0
  6
CONTINUOUS
 62
     7
 10
-22.34526282927368
 20
483.4109597628873
 30
0.0
 40
1.038757935531875
 50
90.0
 51
179.9999999999992
  0
ARC
  5
199
  8
0
  6
CONTINUOUS
 62
     7
 10
-14.54526282927365
 20
527.4109597628873
 30
0.0
 40
1.038757935531875
 50
270.0
 51
0.0000000000015348
  0
LINE
  5
19A
  8
0
  6
CONTINUOUS
 62
     7
 10
-50.54526282927368
 20
542.8722018273555
 30
0.0
 11
-59.34526282927369
 21
542.8722018273555
 31
0.0
  0
LINE
  5
19B
  8
0
  6
CONTINUOUS
 62
     7
 10
-30.4452628292739
 20
555.4109597628874
 30
0.0
 11
11.55473717072611
 21
555.4109597628874
 31
0.0
  0
ARC
  5
19C
  8
0
  6
CONTINUOUS
 62
     7
 10
-72.34526282927366
 20
538.4109597628874
 30
0.0
 40
1.03875793553182
 50
180.0
 51
270.0
  0
ARC
  5
19D
  8
0
  6
CONTINUOUS
 62
     7
 10
-76.54526282927368
 20
543.9109597628875
 30
0.0
 40
1.03875793553182
 50
0.0
 51
90.0
  0
ARC
  5
19E
  8
0
  6
CONTINUOUS
 62
     7
 10
-76.54526282927368
 20
543.9109597628875
 30
0.0
 40
1.038757935531861
 50
270.0
 51
0.0
  0
ARC
  5
19F
  8
0
  6
CONTINUOUS
 62
     7
 10
-22.34526282927368
 20
527.4109597628873
 30
0.0
 40
1.038757935531875
 50
180.0
 51
270.0
  0
ARC
  5
1A0
  8
0
  6
CONTINUOUS
 62
     7
 10
-50.54526282927368
 20
532.9109597628874
 30
0.0
 40
1.038757935531875
 50
0.0
 51
90.0000000000004
  0
LINE
  5
1A1
  8
0
  6
CONTINUOUS
 62
     7
 10
-63.5452628292737
 20
548.3722018273555
 30
0.0
 11
-72.34526282927368
 21
548.3722018273555
 31
0.0
  0
ARC
  5
1A2
  8
0
  6
CONTINUOUS
 62
     7
 10
-89.54526282927371
 20
516.4109597628874
 30
0.0
 40
1.038757935531875
 50
0.0
 51
90.0000000000008
  0
ARC
  5
1A3
  8
0
  6
CONTINUOUS
 62
     7
 10
-63.5452628292737
 20
527.4109597628873
 30
0.0
 40
1.038757935531875
 50
269.9999999999996
 51
0.0
  0
ARC
  5
1A4
  8
0
  6
CONTINUOUS
 62
     7
 10
-22.34526282927368
 20
549.4109597628873
 30
0.0
 40
1.038757935531875
 50
180.0
 51
270.0000000000007
  0
ARC
  5
1A5
  8
0
  6
CONTINUOUS
 62
     7
 10
-14.54526282927365
 20
483.4109597628873
 30
0.0
 40
1.038757935531875
 50
0.0
 51
90.0
  0
LINE
  5
1A6
  8
0
  6
CONTINUOUS
 62
     7
 10
-14.54526282927365
 20
484.4497176984191
 30
0.0
 11
-22.34526282927365
 21
484.4497176984191
 31
0.0
  0
ARC
  5
1A7
  8
0
  6
CONTINUOUS
 62
     7
 10
-63.5452628292737
 20
527.4109597628873
 30
0.0
 40
1.038757935531875
 50
0.0
 51
89.99999999999962
  0
ARC
  5
1A8
  8
0
  6
CONTINUOUS
 62
     7
 10
-59.34526282927366
 20
532.9109597628874
 30
0.0
 40
1.03875793553182
 50
180.0
 51
269.9999999999992
  0
LINE
  5
1A9
  8
0
  6
CONTINUOUS
 62
     7
 10
-22.34526282927368
 20
526.3722018273553
 30
0.0
 11
-14.54526282927368
 21
526.3722018273553
 31
0.0
  0
LINE
  5
1AA
  8
0
  6
CONTINUOUS
 62
     7
 10
-22.34526282927368
 20
482.3722018273555
 30
0.0
 11
-14.54526282927368
 21
482.3722018273555
 31
0.0
  0
ARC
  5
1AB
  8
0
  6
CONTINUOUS
 62
     7
 10
-59.34526282927366
 20
543.9109597628875
 30
0.0
 40
1.038757935531848
 50
89.99999999999962
 51
180.0
  0
LINE
  5
1AC
  8
0
  6
CONTINUOUS
 62
     7
 10
-63.5452628292737
 20
537.3722018273556
 30
0.0
 11
-72.34526282927368
 21
537.3722018273556
 31
0.0
  0
ARC
  5
1AD
  8
0
  6
CONTINUOUS
 62
     7
 10
-85.34526282927366
 20
543.9109597628875
 30
0.0
 40
1.038757935531875
 50
180.0
 51
269.9999999999992
  0
LINE
  5
1AE
  8
0
  6
CONTINUOUS
 62
     7
 10
-22.34526282927368
 20
548.3722018273555
 30
0.0
 11
-14.54526282927368
 21
548.3722018273555
 31
0.0
  0
ARC
  5
1AF
  8
0
  6
CONTINUOUS
 62
     7
 10
-72.34526282927368
 20
527.4109597628873
 30
0.0
 40
1.038757935531875
 50
180.0
 51
270.0000000000007
  0
LINE
  5
1B0
  8
0
  6
CONTINUOUS
 62
     7
 10
-89.54526282927371
 20
515.3722018273554
 30
0.0
 11
-98.3452628292737
 21
515.3722018273554
 31
0.0
  0
LINE
  5
1B1
  8
0
  6
CONTINUOUS
 62
     7
 10
-50.54526282927368
 20
531.8722018273556
 30
0.0
 11
-59.34526282927369
 21
531.8722018273556
 31
0.0
  0
ARC
  5
1B2
  8
0
  6
CONTINUOUS
 62
     7
 10
-50.54526282927368
 20
543.9109597628875
 30
0.0
 40
1.038757935531875
 50
270.0000000000004
 51
0.0
  0
LINE
  5
1B3
  8
0
  6
CONTINUOUS
 62
     7
 10
-14.54526282927365
 20
550.4497176984194
 30
0.0
 11
-22.34526282927368
 21
550.4497176984194
 31
0.0
  0
ARC
  5
1B4
  8
0
  6
CONTINUOUS
 62
     7
 10
-22.34526282927368
 20
549.4109597628873
 30
0.0
 40
1.03875793553182
 50
89.99999999999922
 51
179.9999999999992
  0
ARC
  5
1B5
  8
0
  6
CONTINUOUS
 62
     7
 10
-14.54526282927365
 20
527.4109597628873
 30
0.0
 40
1.038757935531875
 50
0.0
 51
90.00000000000075
  0
ARC
  5
1B6
  8
0
  6
CONTINUOUS
 62
     7
 10
-59.34526282927366
 20
532.9109597628874
 30
0.0
 40
1.038757935531848
 50
89.99999999999962
 51
180.0
  0
ARC
  5
1B7
  8
0
  6
CONTINUOUS
 62
     7
 10
-72.34526282927366
 20
549.4109597628873
 30
0.0
 40
1.038757935531875
 50
180.0
 51
270.0
  0
ARC
  5
1B8
  8
0
  6
CONTINUOUS
 62
     7
 10
-72.34526282927368
 20
527.4109597628873
 30
0.0
 40
1.038757935531861
 50
90.0
 51
180.0
  0
LINE
  5
1B9
  8
0
  6
CONTINUOUS
 62
     7
 10
-85.34526282927366
 20
544.9497176984192
 30
0.0
 11
-76.54526282927368
 21
544.9497176984192
 31
0.0
  0
LINE
  5
1BA
  8
0
  6
CONTINUOUS
 62
     7
 10
-59.34526282927366
 20
544.9497176984192
 30
0.0
 11
-50.54526282927368
 21
544.9497176984192
 31
0.0
  0
ARC
  5
1BB
  8
0
  6
CONTINUOUS
 62
     7
 10
-85.34526282927366
 20
543.9109597628875
 30
0.0
 40
1.038757935531861
 50
90.0
 51
180.0
  0
ARC
  5
1BC
  8
0
  6
CONTINUOUS
 62
     7
 10
-14.54526282927365
 20
483.4109597628873
 30
0.0
 40
1.03875793553182
 50
270.0
 51
0.0000000000007958
  0
LINE
  5
1BD
  8
0
  6
CONTINUOUS
 62
     7
 10
-59.34526282927366
 20
533.9497176984191
 30
0.0
 11
-50.54526282927368
 21
533.9497176984191
 31
0.0
  0
ARC
  5
1BE
  8
0
  6
CONTINUOUS
 62
     7
 10
-50.54526282927368
 20
543.9109597628875
 30
0.0
 40
1.03875793553182
 50
0.0
 51
90.0000000000004
  0
ARC
  5
1BF
  8
0
  6
CONTINUOUS
 62
     7
 10
-22.34526282927368
 20
494.4109597628872
 30
0.0
 40
1.038757935531875
 50
180.0
 51
270.0
  0
LINE
  5
1C0
  8
0
  6
CONTINUOUS
 62
     7
 10
-14.54526282927365
 20
528.4497176984192
 30
0.0
 11
-22.34526282927365
 21
528.4497176984192
 31
0.0
  0
ARC
  5
1C1
  8
0
  6
CONTINUOUS
 62
     7
 10
-50.54526282927368
 20
532.9109597628874
 30
0.0
 40
1.038757935531875
 50
269.9999999999996
 51
0.0
  0
ARC
  5
1C2
  8
0
  6
CONTINUOUS
 62
     7
 10
-59.34526282927366
 20
543.9109597628875
 30
0.0
 40
1.038757935531875
 50
180.0
 51
270.0000000000007
  0
LINE
  5
1C3
  8
0
  6
CONTINUOUS
 62
     7
 10
-72.34526282927368
 20
528.4497176984192
 30
0.0
 11
-63.54526282927368
 21
528.4497176984192
 31
0.0
  0
ARC
  5
1C4
  8
0
  6
CONTINUOUS
 62
     7
 10
-63.5452628292737
 20
538.4109597628874
 30
0.0
 40
1.038757935531875
 50
270.0000000000004
 51
0.0
  0
ARC
  5
1C5
  8
0
  6
CONTINUOUS
 62
     7
 10
-98.3452628292737
 20
516.4109597628874
 30
0.0
 40
1.038757935531861
 50
90.0
 51
180.0
  0
ARC
  5
1C6
  8
0
  6
CONTINUOUS
 62
     7
 10
-63.5452628292737
 20
538.4109597628874
 30
0.0
 40
1.038757935531875
 50
0.0
 51
89.99999999999962
  0
LINE
  5
1C7
  8
0
  6
CONTINUOUS
 62
     7
 10
-76.54526282927368
 20
542.8722018273555
 30
0.0
 11
-85.34526282927368
 21
542.8722018273555
 31
0.0
  0
LINE
  5
1C8
  8
0
  6
CONTINUOUS
 62
     7
 10
-63.5452628292737
 20
526.3722018273553
 30
0.0
 11
-72.34526282927368
 21
526.3722018273553
 31
0.0
  0
LINE
  5
1C9
  8
0
  6
CONTINUOUS
 62
     7
 10
-72.34526282927366
 20
539.4497176984192
 30
0.0
 11
-63.54526282927368
 21
539.4497176984192
 31
0.0
  0
ARC
  5
1CA
  8
0
  6
CONTINUOUS
 62
     7
 10
-14.54526282927365
 20
549.4109597628873
 30
0.0
 40
1.038757935531875
 50
270.0
 51
0.0000000000007958
  0
ARC
  5
1CB
  8
0
  6
CONTINUOUS
 62
     7
 10
-22.34526282927368
 20
527.4109597628873
 30
0.0
 40
1.038757935531875
 50
90.0
 51
179.9999999999992
  0
LINE
  5
1CC
  8
0
  6
CONTINUOUS
 62
     7
 10
-98.3452628292737
 20
517.4497176984191
 30
0.0
 11
-89.54526282927374
 21
517.4497176984191
 31
0.0
  0
ARC
  5
1CD
  8
0
  6
CONTINUOUS
 62
     7
 10
-14.54526282927365
 20
549.4109597628873
 30
0.0
 40
1.038757935531875
 50
0.0
 51
90.0
  0
ARC
  5
1CE
  8
0
  6
CONTINUOUS
 62
     7
 10
-72.34526282927366
 20
538.4109597628874
 30
0.0
 40
1.038757935531861
 50
90.0
 51
180.0
  0
ARC
  5
1CF
  8
0
  6
CONTINUOUS
 62
     7
 10
-22.34526282927368
 20
494.4109597628872
 30
0.0
 40
1.038757935531875
 50
90.0
 51
179.9999999999992
  0
ARC
  5
1D0
  8
0
  6
CONTINUOUS
 62
     7
 10
40.45473717072601
 20
499.9109597628873
 30
0.0
 40
1.038757935531875
 50
270.0
 51
0.0
  0
ARC
  5
1D1
  8
0
  6
CONTINUOUS
 62
     7
 10
-26.54526282927366
 20
543.9109597628875
 30
0.0
 40
1.038757935531875
 50
270.0
 51
0.0000000000007958
  0
ARC
  5
1D2
  8
0
  6
CONTINUOUS
 62
     7
 10
40.45473717072601
 20
499.9109597628873
 30
0.0
 40
1.03875793553182
 50
0.0
 51
90.0
  0
ARC
  5
1D3
  8
0
  6
CONTINUOUS
 62
     7
 10
-14.54526282927365
 20
505.4109597628873
 30
0.0
 40
1.038757935531875
 50
0.0
 51
90.0
  0
ARC
  5
1D4
  8
0
  6
CONTINUOUS
 62
     7
 10
-34.34526282927369
 20
543.9109597628875
 30
0.0
 40
1.038757935531875
 50
180.0
 51
270.0
  0
ARC
  5
1D5
  8
0
  6
CONTINUOUS
 62
     7
 10
-22.34526282927368
 20
538.4109597628874
 30
0.0
 40
1.038757935531875
 50
89.99999999999922
 51
179.9999999999996
  0
ARC
  5
1D6
  8
0
  6
CONTINUOUS
 62
     7
 10
31.65473717072603
 20
499.9109597628873
 30
0.0
 40
1.038757935531875
 50
90.0
 51
180.0
  0
ARC
  5
1D7
  8
0
  6
CONTINUOUS
 62
     7
 10
31.65473717072603
 20
499.9109597628873
 30
0.0
 40
1.03875793553182
 50
180.0
 51
270.0
  0
ARC
  5
1D8
  8
0
  6
CONTINUOUS
 62
     7
 10
-34.34526282927369
 20
510.9109597628871
 30
0.0
 40
1.038757935531875
 50
90.00000000000075
 51
179.9999999999992
  0
LINE
  5
1D9
  8
0
  6
CONTINUOUS
 62
     7
 10
31.65473717072603
 20
498.8722018273555
 30
0.0
 11
40.45473717072601
 21
498.8722018273555
 31
0.0
  0
ARC
  5
1DA
  8
0
  6
CONTINUOUS
 62
     7
 10
-22.34526282927368
 20
505.4109597628873
 30
0.0
 40
1.038757935531875
 50
90.0
 51
179.9999999999992
  0
ARC
  5
1DB
  8
0
  6
CONTINUOUS
 62
     7
 10
31.65473717072603
 20
510.9109597628871
 30
0.0
 40
1.038757935531875
 50
90.0
 51
180.0
  0
LINE
  5
1DC
  8
0
  6
CONTINUOUS
 62
     7
 10
-26.54526282927366
 20
511.9497176984191
 30
0.0
 11
-34.34526282927366
 21
511.9497176984191
 31
0.0
  0
LINE
  5
1DD
  8
0
  6
CONTINUOUS
 62
     7
 10
-34.34526282927369
 20
542.8722018273555
 30
0.0
 11
-26.54526282927369
 21
542.8722018273555
 31
0.0
  0
LINE
  5
1DE
  8
0
  6
CONTINUOUS
 62
     7
 10
-22.34526282927368
 20
537.3722018273556
 30
0.0
 11
-14.54526282927368
 21
537.3722018273556
 31
0.0
  0
ARC
  5
1DF
  8
0
  6
CONTINUOUS
 62
     7
 10
31.65473717072603
 20
510.9109597628871
 30
0.0
 40
1.03875793553182
 50
180.0
 51
270.0000000000004
  0
ARC
  5
1E0
  8
0
  6
CONTINUOUS
 62
     7
 10
-22.34526282927368
 20
505.4109597628873
 30
0.0
 40
1.038757935531875
 50
180.0
 51
270.0
  0
ARC
  5
1E1
  8
0
  6
CONTINUOUS
 62
     7
 10
-34.34526282927369
 20
543.9109597628875
 30
0.0
 40
1.03875793553182
 50
90.0
 51
179.9999999999992
  0
ARC
  5
1E2
  8
0
  6
CONTINUOUS
 62
     7
 10
40.45473717072601
 20
510.9109597628871
 30
0.0
 40
1.03875793553182
 50
0.0
 51
89.99999999999962
  0
ARC
  5
1E3
  8
0
  6
CONTINUOUS
 62
     7
 10
-26.54526282927366
 20
488.9109597628873
 30
0.0
 40
1.038757935531875
 50
270.0
 51
0.0000000000007958
  0
LINE
  5
1E4
  8
0
  6
CONTINUOUS
 62
     7
 10
-14.54526282927365
 20
495.4497176984192
 30
0.0
 11
-22.34526282927365
 21
495.4497176984192
 31
0.0
  0
ARC
  5
1E5
  8
0
  6
CONTINUOUS
 62
     7
 10
31.65473717072603
 20
488.9109597628873
 30
0.0
 40
1.03875793553182
 50
180.0
 51
270.0
  0
ARC
  5
1E6
  8
0
  6
CONTINUOUS
 62
     7
 10
-26.54526282927366
 20
521.9109597628875
 30
0.0
 40
1.038757935531875
 50
0.0
 51
90.00000000000075
  0
LINE
  5
1E7
  8
0
  6
CONTINUOUS
 62
     7
 10
-26.54526282927366
 20
544.9497176984192
 30
0.0
 11
-34.34526282927366
 21
544.9497176984192
 31
0.0
  0
ARC
  5
1E8
  8
0
  6
CONTINUOUS
 62
     7
 10
-34.34526282927369
 20
488.9109597628873
 30
0.0
 40
1.038757935531875
 50
180.0
 51
269.9999999999992
  0
LINE
  5
1E9
  8
0
  6
CONTINUOUS
 62
     7
 10
-26.54526282927366
 20
522.9497176984192
 30
0.0
 11
-34.34526282927366
 21
522.9497176984192
 31
0.0
  0
ARC
  5
1EA
  8
0
  6
CONTINUOUS
 62
     7
 10
40.45473717072601
 20
510.9109597628871
 30
0.0
 40
1.038757935531875
 50
270.0000000000004
 51
0.0
  0
ARC
  5
1EB
  8
0
  6
CONTINUOUS
 62
     7
 10
-34.34526282927369
 20
521.9109597628875
 30
0.0
 40
1.03875793553182
 50
90.00000000000075
 51
179.9999999999992
  0
LINE
  5
1EC
  8
0
  6
CONTINUOUS
 62
     7
 10
-34.34526282927369
 20
509.8722018273554
 30
0.0
 11
-26.54526282927369
 21
509.8722018273554
 31
0.0
  0
ARC
  5
1ED
  8
0
  6
CONTINUOUS
 62
     7
 10
-34.34526282927369
 20
488.9109597628873
 30
0.0
 40
1.038757935531875
 50
90.00000000000075
 51
179.9999999999992
  0
LINE
  5
1EE
  8
0
  6
CONTINUOUS
 62
     7
 10
-14.54526282927365
 20
506.4497176984193
 30
0.0
 11
-22.34526282927365
 21
506.4497176984193
 31
0.0
  0
LINE
  5
1EF
  8
0
  6
CONTINUOUS
 62
     7
 10
-22.34526282927368
 20
504.3722018273555
 30
0.0
 11
-14.54526282927368
 21
504.3722018273555
 31
0.0
  0
ARC
  5
1F0
  8
0
  6
CONTINUOUS
 62
     7
 10
-14.54526282927365
 20
538.4109597628874
 30
0.0
 40
1.03875793553182
 50
270.0
 51
0.0000000000007958
  0
ARC
  5
1F1
  8
0
  6
CONTINUOUS
 62
     7
 10
-14.54526282927365
 20
494.4109597628872
 30
0.0
 40
1.038757935531875
 50
0.0
 51
90.0
  0
LINE
  5
1F2
  8
0
  6
CONTINUOUS
 62
     7
 10
40.45473717072601
 20
489.9497176984191
 30
0.0
 11
31.65473717072603
 21
489.9497176984191
 31
0.0
  0
LINE
  5
1F3
  8
0
  6
CONTINUOUS
 62
     7
 10
-22.34526282927368
 20
493.3722018273555
 30
0.0
 11
-14.54526282927368
 21
493.3722018273555
 31
0.0
  0
ARC
  5
1F4
  8
0
  6
CONTINUOUS
 62
     7
 10
-22.34526282927368
 20
538.4109597628874
 30
0.0
 40
1.038757935531875
 50
180.0000000000004
 51
270.0000000000007
  0
ARC
  5
1F5
  8
0
  6
CONTINUOUS
 62
     7
 10
-14.54526282927365
 20
538.4109597628874
 30
0.0
 40
1.038757935531875
 50
0.0
 51
90.0
  0
ARC
  5
1F6
  8
0
  6
CONTINUOUS
 62
     7
 10
-34.34526282927369
 20
521.9109597628875
 30
0.0
 40
1.038757935531875
 50
180.0
 51
269.9999999999992
  0
ARC
  5
1F7
  8
0
  6
CONTINUOUS
 62
     7
 10
-14.54526282927365
 20
505.4109597628873
 30
0.0
 40
1.03875793553182
 50
270.0
 51
0.0000000000007958
  0
ARC
  5
1F8
  8
0
  6
CONTINUOUS
 62
     7
 10
-14.54526282927365
 20
494.4109597628872
 30
0.0
 40
1.038757935531875
 50
270.0
 51
0.0000000000007958
  0
LINE
  5
1F9
  8
0
  6
CONTINUOUS
 62
     7
 10
40.45473717072601
 20
511.9497176984191
 30
0.0
 11
31.65473717072603
 21
511.9497176984191
 31
0.0
  0
LINE
  5
1FA
  8
0
  6
CONTINUOUS
 62
     7
 10
-34.34526282927369
 20
487.8722018273554
 30
0.0
 11
-26.54526282927369
 21
487.8722018273554
 31
0.0
  0
ARC
  5
1FB
  8
0
  6
CONTINUOUS
 62
     7
 10
40.45473717072601
 20
488.9109597628873
 30
0.0
 40
1.038757935531875
 50
270.0
 51
0.0
  0
LINE
  5
1FC
  8
0
  6
CONTINUOUS
 62
     7
 10
-26.54526282927366
 20
489.9497176984191
 30
0.0
 11
-34.34526282927366
 21
489.9497176984191
 31
0.0
  0
ARC
  5
1FD
  8
0
  6
CONTINUOUS
 62
     7
 10
31.65473717072603
 20
488.9109597628873
 30
0.0
 40
1.038757935531875
 50
90.0
 51
180.0
  0
ARC
  5
1FE
  8
0
  6
CONTINUOUS
 62
     7
 10
-34.34526282927369
 20
510.9109597628873
 30
0.0
 40
1.038757935531875
 50
180.0
 51
269.9999999999992
  0
LINE
  5
1FF
  8
0
  6
CONTINUOUS
 62
     7
 10
-14.54526282927365
 20
539.4497176984192
 30
0.0
 11
-22.34526282927368
 21
539.4497176984192
 31
0.0
  0
LINE
  5
200
  8
0
  6
CONTINUOUS
 62
     7
 10
11.20089101687999
 20
585.3498467567779
 30
0.0
 11
11.36659145248997
 21
585.6269299371834
 31
0.0
  0
LINE
  5
201
  8
0
  6
CONTINUOUS
 62
     7
 10
11.36659145248997
 20
585.6269299371835
 30
0.0
 11
11.56719249795563
 21
585.891795107725
 31
0.0
  0
LINE
  5
202
  8
0
  6
CONTINUOUS
 62
     7
 10
-48.9458720486483
 20
606.1109597628873
 30
0.0
 11
-49.72617937643867
 21
606.0341188893581
 31
0.0
  0
LINE
  5
203
  8
0
  6
CONTINUOUS
 62
     7
 10
-49.72617937643869
 20
606.0341188893581
 30
0.0
 11
-50.47646471256162
 21
605.8065480790498
 31
0.0
  0
LINE
  5
204
  8
0
  6
CONTINUOUS
 62
     7
 10
-50.47646471256162
 20
605.8065480790498
 30
0.0
 11
-51.16790615708902
 21
605.4369893702316
 31
0.0
  0
LINE
  5
205
  8
0
  6
CONTINUOUS
 62
     7
 10
-51.16790615708899
 20
605.4369893702316
 30
0.0
 11
-51.77394227377658
 21
604.9396392073897
 31
0.0
  0
LINE
  5
206
  8
0
  6
CONTINUOUS
 62
     7
 10
-51.77394227377658
 20
604.9396392073897
 30
0.0
 11
-52.27129243661837
 21
604.3336030907021
 31
0.0
  0
LINE
  5
207
  8
0
  6
CONTINUOUS
 62
     7
 10
-52.27129243661837
 20
604.3336030907022
 30
0.0
 11
-52.64085114543654
 21
603.6421616461749
 31
0.0
  0
LINE
  5
208
  8
0
  6
CONTINUOUS
 62
     7
 10
-52.64085114543654
 20
603.6421616461749
 30
0.0
 11
-52.86842195574481
 21
602.8918763100519
 31
0.0
  0
LINE
  5
209
  8
0
  6
CONTINUOUS
 62
     7
 10
-52.86842195574481
 20
602.8918763100519
 30
0.0
 11
-52.94526282927387
 21
602.1115689822617
 31
0.0
  0
LINE
  5
20A
  8
0
  6
CONTINUOUS
 62
     7
 10
34.05473717072599
 20
602.1115689822616
 30
0.0
 11
33.97789629719697
 21
602.8918763100518
 31
0.0
  0
LINE
  5
20B
  8
0
  6
CONTINUOUS
 62
     7
 10
33.977896297197
 20
602.8918763100519
 30
0.0
 11
33.75032548688883
 21
603.6421616461749
 31
0.0
  0
LINE
  5
20C
  8
0
  6
CONTINUOUS
 62
     7
 10
33.75032548688883
 20
603.6421616461749
 30
0.0
 11
33.38076677807062
 21
604.3336030907021
 31
0.0
  0
LINE
  5
20D
  8
0
  6
CONTINUOUS
 62
     7
 10
33.38076677807062
 20
604.3336030907022
 30
0.0
 11
32.88341661522881
 21
604.9396392073899
 31
0.0
  0
LINE
  5
20E
  8
0
  6
CONTINUOUS
 62
     7
 10
32.88341661522881
 20
604.9396392073897
 30
0.0
 11
32.2773804985412
 21
605.4369893702316
 31
0.0
  0
LINE
  5
20F
  8
0
  6
CONTINUOUS
 62
     7
 10
32.27738049854118
 20
605.4369893702316
 30
0.0
 11
31.5859390540138
 21
605.8065480790498
 31
0.0
  0
LINE
  5
210
  8
0
  6
CONTINUOUS
 62
     7
 10
31.5859390540138
 20
605.8065480790498
 30
0.0
 11
30.83565371789079
 21
606.0341188893581
 31
0.0
  0
LINE
  5
211
  8
0
  6
CONTINUOUS
 62
     7
 10
30.83565371789082
 20
606.0341188893581
 30
0.0
 11
30.0553463901006
 21
606.1109597628871
 31
0.0
  0
LINE
  5
212
  8
0
  6
CONTINUOUS
 62
     7
 10
-54.400566603653
 20
585.9291656634502
 30
0.0
 11
-54.604479234969
 21
585.6690973227966
 31
0.0
  0
LINE
  5
213
  8
0
  6
CONTINUOUS
 62
     7
 10
-54.60447923496903
 20
585.6690973227967
 30
0.0
 11
-54.79910898312015
 21
585.349846756778
 31
0.0
  0
LINE
  5
214
  8
0
  6
CONTINUOUS
 62
     7
 10
35.51004094510518
 20
585.9291656634502
 30
0.0
 11
35.71395357642118
 21
585.6690973227966
 31
0.0
  0
LINE
  5
215
  8
0
  6
CONTINUOUS
 62
     7
 10
35.71395357642121
 20
585.6690973227967
 30
0.0
 11
35.90858332457239
 21
585.3498467567781
 31
0.0
  0
LINE
  5
216
  8
0
  6
CONTINUOUS
 62
     7
 10
31.27728976551003
 20
592.9518842082575
 30
0.0
 11
30.99912630283522
 21
592.8540018698094
 31
0.0
  0
LINE
  5
217
  8
0
  6
CONTINUOUS
 62
     7
 10
30.99912630283519
 20
592.8540018698094
 30
0.0
 11
30.78781607877221
 21
592.7298881012214
 31
0.0
  0
LINE
  5
218
  8
0
  6
CONTINUOUS
 62
     7
 10
30.78781607877223
 20
592.7298881012215
 30
0.0
 11
30.64110981925561
 21
592.5740169255853
 31
0.0
  0
LINE
  5
219
  8
0
  6
CONTINUOUS
 62
     7
 10
-30.0914166754278
 20
585.3498467567779
 30
0.0
 11
-30.25711711103782
 21
585.6269299371834
 31
0.0
  0
LINE
  5
21A
  8
0
  6
CONTINUOUS
 62
     7
 10
-30.25711711103779
 20
585.6269299371835
 30
0.0
 11
-30.45771815650341
 21
585.891795107725
 31
0.0
  0
ARC
  5
21B
  8
0
  6
CONTINUOUS
 62
     7
 10
7.6547371707259
 20
532.9109597628874
 30
0.0
 40
1.03875793553182
 50
90.0
 51
180.0
  0
LINE
  5
21C
  8
0
  6
CONTINUOUS
 62
     7
 10
7.6547371707259
 20
500.9497176984192
 30
0.0
 11
15.4547371707259
 21
500.9497176984192
 31
0.0
  0
ARC
  5
21D
  8
0
  6
CONTINUOUS
 62
     7
 10
-26.54526282927366
 20
521.9109597628875
 30
0.0
 40
1.038757935531875
 50
270.0
 51
0.0
  0
ARC
  5
21E
  8
0
  6
CONTINUOUS
 62
     7
 10
15.45473717072587
 20
532.9109597628874
 30
0.0
 40
1.038757935531875
 50
270.0000000000007
 51
0.0
  0
ARC
  5
21F
  8
0
  6
CONTINUOUS
 62
     7
 10
53.45473717072596
 20
505.4109597628873
 30
0.0
 40
1.03875793553182
 50
270.0
 51
0.0
  0
LINE
  5
220
  8
0
  6
CONTINUOUS
 62
     7
 10
53.45473717072596
 20
495.4497176984192
 30
0.0
 11
44.65473717072599
 21
495.4497176984192
 31
0.0
  0
LINE
  5
221
  8
0
  6
CONTINUOUS
 62
     7
 10
70.65473717072601
 20
548.3722018273555
 30
0.0
 11
73.95473717072598
 21
548.3722018273553
 31
0.0
  0
LINE
  5
222
  8
0
  6
CONTINUOUS
 62
     7
 10
53.45473717072596
 20
506.4497176984193
 30
0.0
 11
44.65473717072599
 21
506.4497176984193
 31
0.0
  0
ARC
  5
223
  8
0
  6
CONTINUOUS
 62
     7
 10
44.65473717072599
 20
505.4109597628873
 30
0.0
 40
1.038757935531875
 50
90.0
 51
180.0
  0
LINE
  5
224
  8
0
  6
CONTINUOUS
 62
     7
 10
31.65473717072603
 20
487.8722018273554
 30
0.0
 11
40.45473717072601
 21
487.8722018273554
 31
0.0
  0
LINE
  5
225
  8
0
  6
CONTINUOUS
 62
     7
 10
66.45473717072598
 20
489.9497176984191
 30
0.0
 11
57.654737170726
 21
489.9497176984191
 31
0.0
  0
ARC
  5
226
  8
0
  6
CONTINUOUS
 62
     7
 10
7.6547371707259
 20
499.9109597628873
 30
0.0
 40
1.038757935531875
 50
179.9999999999992
 51
270.0
  0
LINE
  5
227
  8
0
  6
CONTINUOUS
 62
     7
 10
-4.34526282927411
 20
517.4497176984191
 30
0.0
 11
3.454737170725919
 21
517.4497176984191
 31
0.0
  0
ARC
  5
228
  8
0
  6
CONTINUOUS
 62
     7
 10
53.45473717072596
 20
483.4109597628873
 30
0.0
 40
1.038757935531875
 50
0.0
 51
90.0
  0
LINE
  5
229
  8
0
  6
CONTINUOUS
 62
     7
 10
15.45473717072593
 20
498.8722018273555
 30
0.0
 11
7.654737170725928
 21
498.8722018273555
 31
0.0
  0
LINE
  5
22A
  8
0
  6
CONTINUOUS
 62
     7
 10
44.65473717072599
 20
493.3722018273555
 30
0.0
 11
53.45473717072596
 21
493.3722018273555
 31
0.0
  0
ARC
  5
22B
  8
0
  6
CONTINUOUS
 62
     7
 10
-26.54526282927366
 20
488.9109597628873
 30
0.0
 40
1.038757935531875
 50
0.0
 51
90.00000000000075
  0
ARC
  5
22C
  8
0
  6
CONTINUOUS
 62
     7
 10
-26.54526282927366
 20
543.9109597628875
 30
0.0
 40
1.038757935531875
 50
0.0
 51
90.0
  0
ARC
  5
22D
  8
0
  6
CONTINUOUS
 62
     7
 10
7.6547371707259
 20
499.9109597628873
 30
0.0
 40
1.03875793553182
 50
89.9999999999992
 51
180.0
  0
ARC
  5
22E
  8
0
  6
CONTINUOUS
 62
     7
 10
53.45473717072596
 20
494.4109597628872
 30
0.0
 40
1.038757935531875
 50
0.0
 51
90.0
  0
ARC
  5
22F
  8
0
  6
CONTINUOUS
 62
     7
 10
66.45473717072598
 20
488.9109597628873
 30
0.0
 40
1.038757935531875
 50
270.0
 51
0.0
  0
ARC
  5
230
  8
0
  6
CONTINUOUS
 62
     7
 10
-4.34526282927411
 20
516.4109597628874
 30
0.0
 40
1.038757935531875
 50
89.99999999999926
 51
180.0
  0
LINE
  5
231
  8
0
  6
CONTINUOUS
 62
     7
 10
73.95473717072598
 20
550.4497176984194
 30
0.0
 11
70.65473717072601
 21
550.4497176984194
 31
0.0
  0
LINE
  5
232
  8
0
  6
CONTINUOUS
 62
     7
 10
57.654737170726
 20
487.8722018273554
 30
0.0
 11
66.45473717072598
 21
487.8722018273554
 31
0.0
  0
ARC
  5
233
  8
0
  6
CONTINUOUS
 62
     7
 10
57.654737170726
 20
488.9109597628873
 30
0.0
 40
1.038757935531875
 50
180.0
 51
270.0
  0
LINE
  5
234
  8
0
  6
CONTINUOUS
 62
     7
 10
3.454737170725919
 20
515.3722018273554
 30
0.0
 11
-4.34526282927411
 21
515.3722018273554
 31
0.0
  0
ARC
  5
235
  8
0
  6
CONTINUOUS
 62
     7
 10
73.95473717072598
 20
549.4109597628873
 30
0.0
 40
1.038757935531875
 50
0.0
 51
90.0
  0
ARC
  5
236
  8
0
  6
CONTINUOUS
 62
     7
 10
3.454737170725919
 20
516.4109597628874
 30
0.0
 40
1.038757935531875
 50
0.0000000000007958
 51
90.0
  0
LINE
  5
237
  8
0
  6
CONTINUOUS
 62
     7
 10
31.65473717072603
 20
509.8722018273554
 30
0.0
 11
40.45473717072601
 21
509.8722018273554
 31
0.0
  0
LINE
  5
238
  8
0
  6
CONTINUOUS
 62
     7
 10
40.45473717072601
 20
500.9497176984192
 30
0.0
 11
31.65473717072603
 21
500.9497176984192
 31
0.0
  0
ARC
  5
239
  8
0
  6
CONTINUOUS
 62
     7
 10
44.65473717072599
 20
494.4109597628872
 30
0.0
 40
1.038757935531875
 50
180.0
 51
270.0
  0
ARC
  5
23A
  8
0
  6
CONTINUOUS
 62
     7
 10
73.95473717072598
 20
549.4109597628873
 30
0.0
 40
1.038757935531875
 50
270.0
 51
0.0000000000011369
  0
LINE
  5
23B
  8
0
  6
CONTINUOUS
 62
     7
 10
44.65473717072599
 20
504.3722018273555
 30
0.0
 11
53.45473717072596
 21
504.3722018273555
 31
0.0
  0
ARC
  5
23C
  8
0
  6
CONTINUOUS
 62
     7
 10
-26.54526282927366
 20
510.9109597628871
 30
0.0
 40
1.03875793553182
 50
270.0
 51
0.0000000000007958
  0
ARC
  5
23D
  8
0
  6
CONTINUOUS
 62
     7
 10
70.65473717072601
 20
549.4109597628873
 30
0.0
 40
1.038757935531875
 50
180.0
 51
270.0
  0
ARC
  5
23E
  8
0
  6
CONTINUOUS
 62
     7
 10
70.65473717072601
 20
549.4109597628873
 30
0.0
 40
1.038757935531875
 50
90.00000000000075
 51
180.0000000000004
  0
ARC
  5
23F
  8
0
  6
CONTINUOUS
 62
     7
 10
57.654737170726
 20
488.9109597628873
 30
0.0
 40
1.038757935531875
 50
90.0
 51
180.0
  0
LINE
  5
240
  8
0
  6
CONTINUOUS
 62
     7
 10
-34.34526282927369
 20
520.8722018273555
 30
0.0
 11
-26.54526282927369
 21
520.8722018273555
 31
0.0
  0
LINE
  5
241
  8
0
  6
CONTINUOUS
 62
     7
 10
53.45473717072596
 20
484.4497176984191
 30
0.0
 11
44.65473717072599
 21
484.4497176984191
 31
0.0
  0
ARC
  5
242
  8
0
  6
CONTINUOUS
 62
     7
 10
3.454737170725919
 20
516.4109597628874
 30
0.0
 40
1.03875793553182
 50
270.0
 51
0.0
  0
ARC
  5
243
  8
0
  6
CONTINUOUS
 62
     7
 10
44.65473717072599
 20
505.4109597628873
 30
0.0
 40
1.038757935531875
 50
180.0
 51
270.0000000000004
  0
LINE
  5
244
  8
0
  6
CONTINUOUS
 62
     7
 10
15.45473717072593
 20
531.8722018273556
 30
0.0
 11
7.654737170725928
 21
531.8722018273556
 31
0.0
  0
ARC
  5
245
  8
0
  6
CONTINUOUS
 62
     7
 10
44.65473717072599
 20
494.4109597628872
 30
0.0
 40
1.038757935531875
 50
90.0
 51
180.0
  0
ARC
  5
246
  8
0
  6
CONTINUOUS
 62
     7
 10
53.45473717072596
 20
505.4109597628873
 30
0.0
 40
1.038757935531875
 50
0.0
 51
90.0
  0
ARC
  5
247
  8
0
  6
CONTINUOUS
 62
     7
 10
53.45473717072596
 20
494.4109597628872
 30
0.0
 40
1.038757935531875
 50
270.0
 51
0.0
  0
ARC
  5
248
  8
0
  6
CONTINUOUS
 62
     7
 10
15.45473717072587
 20
499.9109597628873
 30
0.0
 40
1.038757935531875
 50
0.0000000000007958
 51
89.9999999999992
  0
ARC
  5
249
  8
0
  6
CONTINUOUS
 62
     7
 10
44.65473717072599
 20
483.4109597628873
 30
0.0
 40
1.038757935531875
 50
90.0
 51
180.0
  0
ARC
  5
24A
  8
0
  6
CONTINUOUS
 62
     7
 10
44.65473717072599
 20
483.4109597628873
 30
0.0
 40
1.038757935531875
 50
180.0
 51
270.0
  0
ARC
  5
24B
  8
0
  6
CONTINUOUS
 62
     7
 10
66.45473717072598
 20
488.9109597628873
 30
0.0
 40
1.038757935531875
 50
0.0
 51
90.0
  0
ARC
  5
24C
  8
0
  6
CONTINUOUS
 62
     7
 10
15.45473717072587
 20
499.9109597628873
 30
0.0
 40
1.038757935531875
 50
270.0000000000007
 51
0.0
  0
ARC
  5
24D
  8
0
  6
CONTINUOUS
 62
     7
 10
-4.34526282927411
 20
516.4109597628874
 30
0.0
 40
1.038757935531875
 50
179.9999999999992
 51
270.0
  0
ARC
  5
24E
  8
0
  6
CONTINUOUS
 62
     7
 10
-26.54526282927366
 20
510.9109597628873
 30
0.0
 40
1.038757935531875
 50
0.0
 51
90.00000000000075
  0
ARC
  5
24F
  8
0
  6
CONTINUOUS
 62
     7
 10
40.45473717072601
 20
488.9109597628873
 30
0.0
 40
1.03875793553182
 50
0.0
 51
90.0
  0
ARC
  5
250
  8
0
  6
CONTINUOUS
 62
     7
 10
7.6547371707259
 20
532.9109597628874
 30
0.0
 40
1.038757935531875
 50
179.9999999999992
 51
270.0
  0
LINE
  5
251
  8
0
  6
CONTINUOUS
 62
     7
 10
44.65473717072599
 20
482.3722018273555
 30
0.0
 11
53.45473717072596
 21
482.3722018273555
 31
0.0
  0
ARC
  5
252
  8
0
  6
CONTINUOUS
 62
     7
 10
53.45473717072596
 20
483.4109597628873
 30
0.0
 40
1.03875793553182
 50
270.0
 51
0.0
  0
LINE
  5
253
  8
0
  6
CONTINUOUS
 62
     7
 10
7.6547371707259
 20
533.9497176984191
 30
0.0
 11
15.4547371707259
 21
533.9497176984191
 31
0.0
  0
LINE
  5
254
  8
0
  6
CONTINUOUS
 62
     7
 10
70.65473717072601
 20
484.4497176984191
 30
0.0
 11
73.95473717072598
 21
484.4497176984191
 31
0.0
  0
LINE
  5
255
  8
0
  6
CONTINUOUS
 62
     7
 10
31.65473717072603
 20
520.8722018273555
 30
0.0
 11
40.45473717072601
 21
520.8722018273555
 31
0.0
  0
ARC
  5
256
  8
0
  6
CONTINUOUS
 62
     7
 10
79.45473717072599
 20
538.4109597628874
 30
0.0
 40
1.038757935531875
 50
0.0
 51
90.0
  0
ARC
  5
257
  8
0
  6
CONTINUOUS
 62
     7
 10
15.45473717072587
 20
532.9109597628874
 30
0.0
 40
1.038757935531875
 50
0.0000000000007958
 51
90.0
  0
ARC
  5
258
  8
0
  6
CONTINUOUS
 62
     7
 10
70.65473717072601
 20
538.4109597628874
 30
0.0
 40
1.038757935531875
 50
180.0
 51
270.0
  0
ARC
  5
259
  8
0
  6
CONTINUOUS
 62
     7
 10
70.65473717072601
 20
483.4109597628873
 30
0.0
 40
1.038757935531875
 50
89.9999999999992
 51
180.0
  0
LINE
  5
25A
  8
0
  6
CONTINUOUS
 62
     7
 10
70.65473717072601
 20
537.3722018273556
 30
0.0
 11
79.45473717072599
 21
537.3722018273556
 31
0.0
  0
LINE
  5
25B
  8
0
  6
CONTINUOUS
 62
     7
 10
73.95473717072598
 20
482.3722018273555
 30
0.0
 11
70.65473717072601
 21
482.3722018273555
 31
0.0
  0
ARC
  5
25C
  8
0
  6
CONTINUOUS
 62
     7
 10
79.45473717072599
 20
527.4109597628873
 30
0.0
 40
1.038757935531875
 50
0.0
 51
90.0
  0
LINE
  5
25D
  8
0
  6
CONTINUOUS
 62
     7
 10
70.65473717072601
 20
504.3722018273555
 30
0.0
 11
79.45473717072599
 21
504.3722018273555
 31
0.0
  0
ARC
  5
25E
  8
0
  6
CONTINUOUS
 62
     7
 10
79.45473717072599
 20
527.4109597628873
 30
0.0
 40
1.038757935531875
 50
270.0
 51
0.0
  0
LINE
  5
25F
  8
0
  6
CONTINUOUS
 62
     7
 10
70.65473717072601
 20
526.3722018273555
 30
0.0
 11
79.45473717072599
 21
526.3722018273553
 31
0.0
  0
ARC
  5
260
  8
0
  6
CONTINUOUS
 62
     7
 10
79.45473717072599
 20
505.4109597628873
 30
0.0
 40
1.038757935531875
 50
0.0
 51
90.0
  0
LINE
  5
261
  8
0
  6
CONTINUOUS
 62
     7
 10
79.45473717072599
 20
506.4497176984193
 30
0.0
 11
70.65473717072601
 21
506.4497176984193
 31
0.0
  0
ARC
  5
262
  8
0
  6
CONTINUOUS
 62
     7
 10
79.45473717072599
 20
494.4109597628872
 30
0.0
 40
1.038757935531875
 50
0.0
 51
90.0
  0
ARC
  5
263
  8
0
  6
CONTINUOUS
 62
     7
 10
66.45473717072598
 20
532.9109597628874
 30
0.0
 40
1.038757935531875
 50
0.0
 51
90.0
  0
ARC
  5
264
  8
0
  6
CONTINUOUS
 62
     7
 10
53.45473717072596
 20
516.4109597628874
 30
0.0
 40
1.038757935531875
 50
270.0
 51
0.0
  0
ARC
  5
265
  8
0
  6
CONTINUOUS
 62
     7
 10
66.45473717072598
 20
510.9109597628871
 30
0.0
 40
1.03875793553182
 50
270.0
 51
0.0
  0
ARC
  5
266
  8
0
  6
CONTINUOUS
 62
     7
 10
70.65473717072601
 20
505.4109597628873
 30
0.0
 40
1.038757935531875
 50
90.0
 51
180.0
  0
LINE
  5
267
  8
0
  6
CONTINUOUS
 62
     7
 10
66.45473717072598
 20
511.9497176984191
 30
0.0
 11
57.654737170726
 21
511.9497176984191
 31
0.0
  0
ARC
  5
268
  8
0
  6
CONTINUOUS
 62
     7
 10
70.65473717072601
 20
538.4109597628874
 30
0.0
 40
1.038757935531875
 50
90.0
 51
180.0
  0
LINE
  5
269
  8
0
  6
CONTINUOUS
 62
     7
 10
66.45473717072598
 20
533.9497176984191
 30
0.0
 11
57.654737170726
 21
533.9497176984191
 31
0.0
  0
ARC
  5
26A
  8
0
  6
CONTINUOUS
 62
     7
 10
70.65473717072601
 20
527.4109597628873
 30
0.0
 40
1.038757935531875
 50
90.0
 51
180.0
  0
LINE
  5
26B
  8
0
  6
CONTINUOUS
 62
     7
 10
79.45473717072599
 20
528.4497176984192
 30
0.0
 11
70.65473717072601
 21
528.4497176984192
 31
0.0
  0
LINE
  5
26C
  8
0
  6
CONTINUOUS
 62
     7
 10
79.45473717072599
 20
539.4497176984192
 30
0.0
 11
70.65473717072601
 21
539.4497176984192
 31
0.0
  0
ARC
  5
26D
  8
0
  6
CONTINUOUS
 62
     7
 10
70.65473717072601
 20
505.4109597628873
 30
0.0
 40
1.038757935531875
 50
180.0
 51
270.0000000000007
  0
ARC
  5
26E
  8
0
  6
CONTINUOUS
 62
     7
 10
66.45473717072598
 20
532.9109597628874
 30
0.0
 40
1.03875793553182
 50
270.0000000000007
 51
0.0
  0
ARC
  5
26F
  8
0
  6
CONTINUOUS
 62
     7
 10
73.95473717072598
 20
483.4109597628873
 30
0.0
 40
1.03875793553182
 50
359.9999999999985
 51
89.9999999999992
  0
ARC
  5
270
  8
0
  6
CONTINUOUS
 62
     7
 10
57.654737170726
 20
532.9109597628874
 30
0.0
 40
1.038757935531875
 50
90.0
 51
180.0000000000008
  0
ARC
  5
271
  8
0
  6
CONTINUOUS
 62
     7
 10
70.65473717072601
 20
494.4109597628872
 30
0.0
 40
1.038757935531875
 50
90.0
 51
180.0
  0
ARC
  5
272
  8
0
  6
CONTINUOUS
 62
     7
 10
57.654737170726
 20
521.9109597628875
 30
0.0
 40
1.038757935531875
 50
180.0
 51
270.0
  0
ARC
  5
273
  8
0
  6
CONTINUOUS
 62
     7
 10
57.654737170726
 20
499.9109597628873
 30
0.0
 40
1.038757935531875
 50
179.9999999999992
 51
270.0
  0
ARC
  5
274
  8
0
  6
CONTINUOUS
 62
     7
 10
70.65473717072601
 20
483.4109597628873
 30
0.0
 40
1.038757935531875
 50
180.0
 51
269.9999999999992
  0
ARC
  5
275
  8
0
  6
CONTINUOUS
 62
     7
 10
57.654737170726
 20
510.9109597628871
 30
0.0
 40
1.038757935531875
 50
90.0
 51
180.0
  0
ARC
  5
276
  8
0
  6
CONTINUOUS
 62
     7
 10
79.45473717072599
 20
505.4109597628873
 30
0.0
 40
1.03875793553182
 50
270.0
 51
0.0
  0
ARC
  5
277
  8
0
  6
CONTINUOUS
 62
     7
 10
53.45473717072596
 20
516.4109597628874
 30
0.0
 40
1.038757935531875
 50
0.0
 51
90.0
  0
ARC
  5
278
  8
0
  6
CONTINUOUS
 62
     7
 10
73.95473717072598
 20
483.4109597628873
 30
0.0
 40
1.038757935531875
 50
270.0
 51
0.0
  0
ARC
  5
279
  8
0
  6
CONTINUOUS
 62
     7
 10
70.65473717072601
 20
527.4109597628873
 30
0.0
 40
1.038757935531875
 50
180.0
 51
270.0
  0
LINE
  5
27A
  8
0
  6
CONTINUOUS
 62
     7
 10
57.654737170726
 20
498.8722018273555
 30
0.0
 11
66.45473717072598
 21
498.8722018273555
 31
0.0
  0
ARC
  5
27B
  8
0
  6
CONTINUOUS
 62
     7
 10
66.45473717072598
 20
521.9109597628875
 30
0.0
 40
1.038757935531875
 50
0.0
 51
90.0
  0
LINE
  5
27C
  8
0
  6
CONTINUOUS
 62
     7
 10
57.654737170726
 20
509.8722018273554
 30
0.0
 11
66.45473717072598
 21
509.8722018273554
 31
0.0
  0
ARC
  5
27D
  8
0
  6
CONTINUOUS
 62
     7
 10
79.45473717072599
 20
538.4109597628874
 30
0.0
 40
1.03875793553182
 50
270.0
 51
0.0
  0
LINE
  5
27E
  8
0
  6
CONTINUOUS
 62
     7
 10
79.45473717072599
 20
495.4497176984192
 30
0.0
 11
70.65473717072601
 21
495.4497176984192
 31
0.0
  0
LINE
  5
27F
  8
0
  6
CONTINUOUS
 62
     7
 10
40.45473717072601
 20
522.9497176984192
 30
0.0
 11
31.65473717072603
 21
522.9497176984192
 31
0.0
  0
ARC
  5
280
  8
0
  6
CONTINUOUS
 62
     7
 10
70.65473717072601
 20
494.4109597628872
 30
0.0
 40
1.038757935531875
 50
180.0
 51
270.0000000000007
  0
ARC
  5
281
  8
0
  6
CONTINUOUS
 62
     7
 10
40.45473717072601
 20
521.9109597628875
 30
0.0
 40
1.038757935531875
 50
270.0000000000004
 51
0.0
  0
LINE
  5
282
  8
0
  6
CONTINUOUS
 62
     7
 10
-59.34526282927369
 20
489.9497176984191
 30
0.0
 11
-50.5452628292737
 21
489.9497176984191
 31
0.0
  0
ARC
  5
283
  8
0
  6
CONTINUOUS
 62
     7
 10
-50.54526282927368
 20
488.9109597628873
 30
0.0
 40
1.038757935531875
 50
270.0
 51
0.0
  0
ARC
  5
284
  8
0
  6
CONTINUOUS
 62
     7
 10
-63.5452628292737
 20
494.4109597628872
 30
0.0
 40
1.038757935531875
 50
270.0
 51
0.0
  0
ARC
  5
285
  8
0
  6
CONTINUOUS
 62
     7
 10
-89.5452628292737
 20
549.4109597628873
 30
0.0
 40
1.038757935531861
 50
270.0
 51
0.0
  0
LINE
  5
286
  8
0
  6
CONTINUOUS
 62
     7
 10
-2.798987146750143
 20
614.5660244544734
 30
0.0
 11
-0.4260275017526349
 21
614.5317869206133
 31
0.0
  0
LINE
  5
287
  8
0
  6
CONTINUOUS
 62
     7
 10
-2.798987146750143
 20
604.0660244544733
 30
0.0
 11
-0.4260275017526349
 21
604.0317869206131
 31
0.0
  0
LINE
  5
288
  8
0
  6
CONTINUOUS
 62
     7
 10
13.05473717072608
 20
596.4109597628873
 30
0.0
 11
13.05473717072608
 21
605.4642291729542
 31
0.0
  0
LINE
  5
289
  8
0
  6
CONTINUOUS
 62
     7
 10
16.55473717072609
 20
588.4109597628873
 30
0.0
 11
12.64975268547097
 21
586.6982472693543
 31
0.0
  0
LINE
  5
28A
  8
0
  6
CONTINUOUS
 62
     7
 10
184.529737170726
 20
479.4574459012531
 30
0.0
 11
184.529737170726
 21
477.9284909918373
 31
0.0
  0
LINE
  5
28B
  8
0
  6
CONTINUOUS
 62
     7
 10
183.9844003361828
 20
482.2942960553496
 30
0.0
 11
184.0384633739446
 21
482.2933523815152
 31
0.0
  0
LINE
  5
28C
  8
0
  6
CONTINUOUS
 62
     7
 10
184.529737170726
 20
480.2224844659975
 30
0.0
 11
184.529737170726
 21
479.4574459012531
 31
0.0
  0
LINE
  5
28D
  8
0
  6
CONTINUOUS
 62
     7
 10
184.529737170726
 20
545.0371423602797
 30
0.0
 11
183.2297371707261
 21
545.014450775873
 31
0.0
  0
LINE
  5
28E
  8
0
  6
CENTER
 62
     1
 10
23.55473717072604
 20
363.7573875792765
 30
0.0
 11
23.55473717072604
 21
609.9550048056022
 31
0.0
  0
LINE
  5
290
  8
0
  6
CONTINUOUS
 62
   253
 10
30.80949801414701
 20
582.4233712027715
 30
0.0
 11
16.29997632730304
 21
582.4233712027715
 31
0.0
  0
LINE
  5
291
  8
0
  6
CONTINUOUS
 62
     7
 10
183.2297371707261
 20
548.3074687499019
 30
0.0
 11
183.2297371707261
 21
550.5144507758731
 31
0.0
  0
LINE
  5
292
  8
0
  6
CONTINUOUS
 62
     7
 10
-92.8452628292737
 20
550.4497176984194
 30
0.0
 11
-89.54526282927367
 21
550.4497176984194
 31
0.0
  0
LINE
  5
293
  8
0
  6
CONTINUOUS
 62
     7
 10
-89.5452628292737
 20
548.3722018273555
 30
0.0
 11
-92.8452628292737
 21
548.3722018273553
 31
0.0
  0
LINE
  5
294
  8
0
  6
CONTINUOUS
 62
     7
 10
184.529737170726
 20
477.5712475271133
 30
0.0
 11
184.529737170726
 21
477.9284909918372
 31
0.0
  0
LINE
  5
295
  8
0
  6
CONTINUOUS
 62
     7
 10
-50.54526282927368
 20
487.8722018273554
 30
0.0
 11
-59.34526282927369
 21
487.8722018273554
 31
0.0
  0
LINE
  5
296
  8
0
  6
CENTER
 62
     1
 10
-9.445262829273936
 20
468.7916362800664
 30
0.0
 11
-9.44526282927391
 21
636.9109597628872
 31
0.0
  0
LINE
  5
297
  8
0
  6
CONTINUOUS
 62
     7
 10
-1.795262829273891
 20
618.4109597628873
 30
0.0
 11
-0.9452628292738743
 21
618.9017074916985
 31
0.0
  0
ARC
  5
298
  8
0
  6
CONTINUOUS
 62
     7
 10
-76.54526282927368
 20
488.9109597628873
 30
0.0
 40
1.038757935531861
 50
270.0
 51
0.0
  0
ARC
  5
299
  8
0
  6
CONTINUOUS
 62
     7
 10
-50.54526282927368
 20
488.9109597628873
 30
0.0
 40
1.038757935531875
 50
0.0
 51
90.0
  0
ARC
  5
29A
  8
0
  6
CONTINUOUS
 62
     7
 10
-85.34526282927368
 20
488.9109597628873
 30
0.0
 40
1.038757935531861
 50
90.0
 51
180.0
  0
ARC
  5
29B
  8
0
  6
CONTINUOUS
 62
     7
 10
-89.5452628292737
 20
549.4109597628873
 30
0.0
 40
1.038757935531875
 50
359.9999999999996
 51
89.99999999999847
  0
LINE
  5
29C
  8
0
  6
CONTINUOUS
 62
     7
 10
-50.54526282927368
 20
509.8722018273554
 30
0.0
 11
-59.34526282927369
 21
509.8722018273554
 31
0.0
  0
LINE
  5
29D
  8
0
  6
CONTINUOUS
 62
     7
 10
16.55473717072609
 20
588.4109597628873
 30
0.0
 11
16.55473717072609
 21
593.1109597628872
 31
0.0
  0
LINE
  5
29E
  8
0
  6
CONTINUOUS
 62
     7
 10
183.2297371707261
 20
543.1022779288363
 30
0.0
 11
183.2297371707261
 21
544.7196415969385
 31
0.0
  0
LINE
  5
29F
  8
0
  6
CONTINUOUS
 62
     7
 10
184.529737170726
 20
480.2224844659975
 30
0.0
 11
184.529737170726
 21
481.7934285339371
 31
0.0
  0
LINE
  5
2A0
  8
0
  6
CONTINUOUS
 62
     7
 10
153.3297371707262
 20
614.137076788555
 30
0.0
 11
143.3297371707262
 21
614.0280054374626
 31
0.0
  0
LINE
  5
2A1
  8
0
  6
CONTINUOUS
 62
     7
 10
184.529737170726
 20
555.3847771654949
 30
0.0
 11
182.3297371707262
 21
555.4231783083372
 31
0.0
  0
LINE
  5
2A2
  8
0
  6
CONTINUOUS
 62
     7
 10
-2.798987146750143
 20
606.755895071301
 30
0.0
 11
-0.4260275017526349
 21
606.7901326051613
 31
0.0
  0
LINE
  5
2A3
  8
0
  6
CONTINUOUS
 62
     7
 10
13.05473717072608
 20
605.4642291729541
 30
0.0
 11
1.5547371707261
 21
611.0731539414616
 31
0.0
  0
LINE
  5
2A4
  8
0
  6
CONTINUOUS
 62
     7
 10
-2.798987146750143
 20
596.2558950713011
 30
0.0
 11
-0.4260275017526349
 21
596.2901326051613
 31
0.0
  0
LINE
  5
2A5
  8
0
  6
CONTINUOUS
 62
     7
 10
17.38018652144391
 20
596.236409113605
 30
0.0
 11
17.38018652144391
 21
602.7855104121693
 31
0.0
  0
LINE
  5
2A6
  8
0
  6
CONTINUOUS
 62
     7
 10
12.13145992343684
 20
572.5150139715112
 30
0.0
 11
16.55473717072611
 21
569.4109597628872
 31
0.0
  0
LINE
  5
2A7
  8
0
  6
CONTINUOUS
 62
     7
 10
-50.54526282927368
 20
498.8722018273555
 30
0.0
 11
-59.34526282927369
 21
498.8722018273555
 31
0.0
  0
LINE
  5
2A8
  8
0
  6
CONTINUOUS
 62
     7
 10
183.2297371707261
 20
548.3074687499019
 30
0.0
 11
184.529737170726
 21
548.284777165495
 31
0.0
  0
LINE
  5
2A9
  8
0
  6
CONTINUOUS
 62
     7
 10
183.7539509919342
 20
482.2983185636163
 30
0.0
 11
183.9844003361828
 21
482.2942960553497
 31
0.0
  0
LINE
  5
2AA
  8
0
  6
CONTINUOUS
 62
     7
 10
-0.4260275017526349
 20
596.2901326051613
 30
0.0
 11
-0.4260275017526349
 21
604.0317869206132
 31
0.0
  0
LINE
  5
2AB
  8
0
  6
CONTINUOUS
 62
     7
 10
184.529737170726
 20
545.0371423602797
 30
0.0
 11
184.529737170726
 21
548.2847771654949
 31
0.0
  0
ARC
  5
2AC
  8
0
  6
CONTINUOUS
 62
     7
 10
-63.5452628292737
 20
494.4109597628872
 30
0.0
 40
1.038757935531875
 50
0.0
 51
90.0000000000008
  0
LINE
  5
2AD
  8
0
  6
CONTINUOUS
 62
     7
 10
140.765569937042
 20
627.3247867073817
 30
0.0
 11
136.5797371707262
 21
627.5441569071145
 31
0.0
  0
LINE
  5
2AE
  8
0
  6
CONTINUOUS
 62
     7
 10
-72.34526282927368
 20
506.4497176984193
 30
0.0
 11
-63.54526282927368
 21
506.4497176984193
 31
0.0
  0
LINE
  5
2AF
  8
0
  6
CONTINUOUS
 62
     7
 10
140.765569937042
 20
627.3247867073817
 30
0.0
 11
140.765569937042
 21
617.4971328183929
 31
0.0
  0
LINE
  5
2B0
  8
0
  6
CONTINUOUS
 62
     7
 10
1.554737170726128
 20
596.4109597628873
 30
0.0
 11
13.05473717072611
 21
596.4109597628873
 31
0.0
  0
LINE
  5
2B1
  8
0
  6
CONTINUOUS
 62
     7
 10
184.529737170726
 20
477.4371423602795
 30
0.0
 11
182.3297371707262
 21
477.3987412174373
 31
0.0
  0
LINE
  5
2B2
  8
0
  6
CONTINUOUS
 62
     7
 10
138.5147825945024
 20
619.6608968702533
 30
0.0
 11
140.6797371707262
 21
618.4109597628873
 31
0.0
  0
LINE
  5
2B3
  8
0
  6
CONTINUOUS
 62
     7
 10
184.529737170726
 20
550.5371423602799
 30
0.0
 11
184.529737170726
 21
555.3847771654949
 31
0.0
  0
LINE
  5
2B4
  8
0
  6
CONTINUOUS
 62
     7
 10
-2.798987146750143
 20
614.5660244544734
 30
0.0
 11
-2.798987146750143
 21
606.7558950713011
 31
0.0
  0
LINE
  5
2B5
  8
0
  6
CONTINUOUS
 62
     7
 10
-0.4260275017526349
 20
606.7901326051613
 30
0.0
 11
-0.4260275017526349
 21
614.5317869206132
 31
0.0
  0
LINE
  5
2B6
  8
0
  6
CONTINUOUS
 62
     7
 10
32.80473717072601
 20
596.236409113605
 30
0.0
 11
14.30473717072611
 21
596.236409113605
 31
0.0
  0
LINE
  5
2B7
  8
0
  6
CENTER
 62
     1
 10
-42.44526282927391
 20
363.7573875792765
 30
0.0
 11
-42.44526282927388
 21
609.9550048056022
 31
0.0
  0
LINE
  5
2B8
  8
0
  6
CONTINUOUS
 62
     7
 10
-9.445262829273881
 20
618.4109597628873
 30
0.0
 11
-9.445262829273881
 21
626.4109597628873
 31
0.0
  0
LINE
  5
2B9
  8
0
  6
CONTINUOUS
 62
     7
 10
14.30473717072611
 20
593.1109597628872
 30
0.0
 11
14.30473717072611
 21
596.236409113605
 31
0.0
  0
LINE
  5
2BA
  8
0
  6
CONTINUOUS
 62
     7
 10
-2.798987146750143
 20
604.0660244544733
 30
0.0
 11
-2.798987146750143
 21
596.255895071301
 31
0.0
  0
LINE
  5
2BB
  8
0
  6
CONTINUOUS
 62
     7
 10
-85.34526282927368
 20
500.9497176984192
 30
0.0
 11
-76.54526282927368
 21
500.9497176984192
 31
0.0
  0
LINE
  5
2BC
  8
0
  6
CONTINUOUS
 62
     7
 10
-76.54526282927368
 20
498.8722018273555
 30
0.0
 11
-85.34526282927368
 21
498.8722018273555
 31
0.0
  0
LINE
  5
2BD
  8
0
  6
CONTINUOUS
 62
     7
 10
-92.8452628292737
 20
482.3722018273555
 30
0.0
 11
-89.54526282927367
 21
482.3722018273555
 31
0.0
  0
ARC
  5
2BE
  8
0
  6
CONTINUOUS
 62
     7
 10
53.45473717072596
 20
538.4109597628874
 30
0.0
 40
1.03875793553182
 50
270.0
 51
0.0
  0
ARC
  5
2BF
  8
0
  6
CONTINUOUS
 62
     7
 10
-85.34526282927366
 20
532.9109597628874
 30
0.0
 40
1.038757935531861
 50
90.0
 51
180.0
  0
ARC
  5
2C0
  8
0
  6
CONTINUOUS
 62
     7
 10
-76.54526282927368
 20
499.9109597628873
 30
0.0
 40
1.038757935531875
 50
0.0000000000007958
 51
90.0
  0
ARC
  5
2C1
  8
0
  6
CONTINUOUS
 62
     7
 10
-98.34526282927368
 20
538.4109597628874
 30
0.0
 40
1.03875793553182
 50
180.0
 51
269.9999999999992
  0
ARC
  5
2C2
  8
0
  6
CONTINUOUS
 62
     7
 10
-98.3452628292737
 20
527.4109597628873
 30
0.0
 40
1.038757935531861
 50
90.0
 51
180.0
  0
ARC
  5
2C3
  8
0
  6
CONTINUOUS
 62
     7
 10
-85.34526282927368
 20
510.9109597628871
 30
0.0
 40
1.038757935531861
 50
90.0
 51
180.0
  0
LINE
  5
2C4
  8
0
  6
CONTINUOUS
 62
     7
 10
57.654737170726
 20
520.8722018273555
 30
0.0
 11
66.45473717072598
 21
520.8722018273555
 31
0.0
  0
LINE
  5
2C5
  8
0
  6
CONTINUOUS
 62
     7
 10
-89.54526282927371
 20
526.3722018273553
 30
0.0
 11
-98.3452628292737
 21
526.3722018273553
 31
0.0
  0
LINE
  5
2C6
  8
0
  6
CONTINUOUS
 62
     7
 10
-76.54526282927368
 20
520.8722018273555
 30
0.0
 11
-85.34526282927368
 21
520.8722018273555
 31
0.0
  0
ARC
  5
2C7
  8
0
  6
CONTINUOUS
 62
     7
 10
40.45473717072601
 20
543.9109597628875
 30
0.0
 40
1.038757935531875
 50
269.9999999999996
 51
0.0
  0
LINE
  5
2C8
  8
0
  6
CONTINUOUS
 62
     7
 10
-76.54526282927371
 20
531.8722018273556
 30
0.0
 11
-85.34526282927368
 21
531.8722018273556
 31
0.0
  0
ARC
  5
2C9
  8
0
  6
CONTINUOUS
 62
     7
 10
-98.34526282927368
 20
538.4109597628874
 30
0.0
 40
1.038757935531861
 50
90.0
 51
180.0
  0
ARC
  5
2CA
  8
0
  6
CONTINUOUS
 62
     7
 10
-98.3452628292737
 20
505.4109597628873
 30
0.0
 40
1.038757935531875
 50
90.0
 51
180.0
  0
ARC
  5
2CB
  8
0
  6
CONTINUOUS
 62
     7
 10
-85.34526282927368
 20
499.9109597628873
 30
0.0
 40
1.038757935531861
 50
90.0
 51
180.0
  0
ARC
  5
2CC
  8
0
  6
CONTINUOUS
 62
     7
 10
-50.54526282927368
 20
521.9109597628875
 30
0.0
 40
1.03875793553182
 50
0.0
 51
90.0000000000004
  0
ARC
  5
2CD
  8
0
  6
CONTINUOUS
 62
     7
 10
-89.5452628292737
 20
494.4109597628872
 30
0.0
 40
1.038757935531875
 50
0.0
 51
90.0
  0
LINE
  5
2CE
  8
0
  6
CONTINUOUS
 62
     7
 10
44.65473717072599
 20
548.3722018273555
 30
0.0
 11
53.45473717072596
 21
548.3722018273555
 31
0.0
  0
ARC
  5
2CF
  8
0
  6
CONTINUOUS
 62
     7
 10
-76.54526282927368
 20
532.9109597628874
 30
0.0
 40
1.038757935531861
 50
269.9999999999993
 51
359.9999999999993
  0
ARC
  5
2D0
  8
0
  6
CONTINUOUS
 62
     7
 10
31.65473717072603
 20
521.9109597628875
 30
0.0
 40
1.03875793553182
 50
90.0
 51
180.0
  0
ARC
  5
2D1
  8
0
  6
CONTINUOUS
 62
     7
 10
53.45473717072596
 20
538.4109597628874
 30
0.0
 40
1.038757935531875
 50
0.0
 51
90.0
  0
ARC
  5
2D2
  8
0
  6
CONTINUOUS
 62
     7
 10
-76.54526282927368
 20
510.9109597628871
 30
0.0
 40
1.038757935531875
 50
0.0
 51
90.0
  0
LINE
  5
2D3
  8
0
  6
CONTINUOUS
 62
     7
 10
-59.34526282927369
 20
522.9497176984192
 30
0.0
 11
-50.5452628292737
 21
522.9497176984192
 31
0.0
  0
ARC
  5
2D4
  8
0
  6
CONTINUOUS
 62
     7
 10
40.45473717072601
 20
543.9109597628875
 30
0.0
 40
1.03875793553182
 50
0.0
 51
90.00000000000038
  0
ARC
  5
2D5
  8
0
  6
CONTINUOUS
 62
     7
 10
31.65473717072603
 20
543.9109597628875
 30
0.0
 40
1.03875793553182
 50
180.0
 51
269.9999999999996
  0
LINE
  5
2D6
  8
0
  6
CONTINUOUS
 62
     7
 10
-98.3452628292737
 20
495.4497176984192
 30
0.0
 11
-89.5452628292737
 21
495.4497176984192
 31
0.0
  0
ARC
  5
2D7
  8
0
  6
CONTINUOUS
 62
     7
 10
79.45473717072599
 20
494.4109597628872
 30
0.0
 40
1.038757935531875
 50
270.0
 51
0.0
  0
ARC
  5
2D8
  8
0
  6
CONTINUOUS
 62
     7
 10
44.65473717072599
 20
538.4109597628874
 30
0.0
 40
1.038757935531875
 50
90.0
 51
180.0
  0
ARC
  5
2D9
  8
0
  6
CONTINUOUS
 62
     7
 10
-89.5452628292737
 20
538.4109597628874
 30
0.0
 40
1.038757935531861
 50
270.0
 51
0.0
  0
LINE
  5
2DA
  8
0
  6
CONTINUOUS
 62
     7
 10
-89.54526282927371
 20
493.3722018273555
 30
0.0
 11
-98.3452628292737
 21
493.3722018273555
 31
0.0
  0
ARC
  5
2DB
  8
0
  6
CONTINUOUS
 62
     7
 10
-89.54526282927371
 20
527.4109597628873
 30
0.0
 40
1.038757935531875
 50
0.0
 51
90.0000000000008
  0
ARC
  5
2DC
  8
0
  6
CONTINUOUS
 62
     7
 10
44.65473717072599
 20
516.4109597628874
 30
0.0
 40
1.038757935531875
 50
180.0
 51
270.0000000000004
  0
ARC
  5
2DD
  8
0
  6
CONTINUOUS
 62
     7
 10
-85.34526282927368
 20
510.9109597628871
 30
0.0
 40
1.03875793553182
 50
180.0
 51
270.0
  0
ARC
  5
2DE
  8
0
  6
CONTINUOUS
 62
     7
 10
-98.3452628292737
 20
494.4109597628872
 30
0.0
 40
1.038757935531875
 50
180.0
 51
270.0
  0
ARC
  5
2DF
  8
0
  6
CONTINUOUS
 62
     7
 10
-89.5452628292737
 20
483.4109597628873
 30
0.0
 40
1.038757935531875
 50
270.0000000000007
 51
0.0
  0
ARC
  5
2E0
  8
0
  6
CONTINUOUS
 62
     7
 10
57.654737170726
 20
532.9109597628874
 30
0.0
 40
1.038757935531875
 50
180.0000000000008
 51
270.0000000000007
  0
LINE
  5
2E1
  8
0
  6
CONTINUOUS
 62
     7
 10
53.45473717072596
 20
550.4497176984194
 30
0.0
 11
44.65473717072599
 21
550.4497176984194
 31
0.0
  0
ARC
  5
2E2
  8
0
  6
CONTINUOUS
 62
     7
 10
-85.34526282927368
 20
521.9109597628875
 30
0.0
 40
1.038757935531861
 50
90.0
 51
180.0
  0
ARC
  5
2E3
  8
0
  6
CONTINUOUS
 62
     7
 10
-72.34526282927368
 20
516.4109597628874
 30
0.0
 40
1.038757935531861
 50
90.0
 51
180.0
  0
ARC
  5
2E4
  8
0
  6
CONTINUOUS
 62
     7
 10
44.65473717072599
 20
549.4109597628873
 30
0.0
 40
1.03875793553182
 50
90.0
 51
180.0
  0
LINE
  5
2E5
  8
0
  6
CONTINUOUS
 62
     7
 10
53.45473717072596
 20
539.4497176984192
 30
0.0
 11
44.65473717072599
 21
539.4497176984192
 31
0.0
  0
ARC
  5
2E6
  8
0
  6
CONTINUOUS
 62
     7
 10
-50.54526282927368
 20
521.9109597628875
 30
0.0
 40
1.038757935531875
 50
269.9999999999996
 51
0.0
  0
LINE
  5
2E7
  8
0
  6
CONTINUOUS
 62
     7
 10
40.45473717072579
 20
544.9497176984192
 30
0.0
 11
31.654737170726
 21
544.9497176984192
 31
0.0
  0
ARC
  5
2E8
  8
0
  6
CONTINUOUS
 62
     7
 10
-59.34526282927366
 20
521.9109597628875
 30
0.0
 40
1.038757935531875
 50
180.0
 51
269.9999999999992
  0
ARC
  5
2E9
  8
0
  6
CONTINUOUS
 62
     7
 10
44.65473717072599
 20
538.4109597628874
 30
0.0
 40
1.038757935531875
 50
180.0
 51
269.9999999999996
  0
ARC
  5
2EA
  8
0
  6
CONTINUOUS
 62
     7
 10
31.65473717072603
 20
543.9109597628875
 30
0.0
 40
1.03875793553182
 50
90.0
 51
180.0
  0
ARC
  5
2EB
  8
0
  6
CONTINUOUS
 62
     7
 10
44.65473717072599
 20
516.4109597628874
 30
0.0
 40
1.03875793553182
 50
90.0
 51
180.0
  0
ARC
  5
2EC
  8
0
  6
CONTINUOUS
 62
     7
 10
-76.54526282927368
 20
521.9109597628875
 30
0.0
 40
1.038757935531875
 50
0.0
 51
90.0
  0
ARC
  5
2ED
  8
0
  6
CONTINUOUS
 62
     7
 10
44.65473717072599
 20
549.4109597628873
 30
0.0
 40
1.038757935531875
 50
180.0
 51
269.9999999999996
  0
LINE
  5
2EE
  8
0
  6
CONTINUOUS
 62
     7
 10
31.65473717072603
 20
542.8722018273555
 30
0.0
 11
40.45473717072581
 21
542.8722018273555
 31
0.0
  0
ARC
  5
2EF
  8
0
  6
CONTINUOUS
 62
     7
 10
-98.3452628292737
 20
505.4109597628873
 30
0.0
 40
1.03875793553182
 50
180.0
 51
270.0
  0
ARC
  5
2F0
  8
0
  6
CONTINUOUS
 62
     7
 10
-63.5452628292737
 20
516.4109597628874
 30
0.0
 40
1.038757935531875
 50
269.9999999999996
 51
0.0
  0
LINE
  5
2F1
  8
0
  6
CONTINUOUS
 62
     7
 10
-85.34526282927368
 20
522.9497176984192
 30
0.0
 11
-76.54526282927368
 21
522.9497176984192
 31
0.0
  0
ARC
  5
2F2
  8
0
  6
CONTINUOUS
 62
     7
 10
-85.34526282927368
 20
521.9109597628875
 30
0.0
 40
1.038757935531875
 50
180.0
 51
270.0
  0
LINE
  5
2F3
  8
0
  6
CONTINUOUS
 62
     7
 10
183.2297371707261
 20
487.8074687499017
 30
0.0
 11
183.2297371707261
 21
490.0144507758731
 31
0.0
  0
LINE
  5
2F4
  8
0
  6
CONTINUOUS
 62
     7
 10
184.529737170726
 20
539.5371423602795
 30
0.0
 11
184.529737170726
 21
542.784777165495
 31
0.0
  0
ARC
  5
2F5
  8
0
  6
CONTINUOUS
 62
     7
 10
15.45473717072587
 20
521.9109597628875
 30
0.0
 40
1.038757935531875
 50
270.0000000000007
 51
0.0
  0
LINE
  5
2F6
  8
0
  6
CONTINUOUS
 62
     7
 10
160.0797371707262
 20
593.3595397058742
 30
0.0
 11
160.0797371707262
 21
630.9109597628873
 31
0.0
  0
LINE
  5
2F7
  8
0
  6
CONTINUOUS
 62
     7
 10
183.2297371707261
 20
520.8074687499018
 30
0.0
 11
183.2297371707261
 21
523.0144507758729
 31
0.0
  0
ARC
  5
2F8
  8
0
  6
CONTINUOUS
 62
     7
 10
-4.34526282927411
 20
538.4109597628874
 30
0.0
 40
1.038757935531875
 50
90.0
 51
180.0
  0
ARC
  5
2F9
  8
0
  6
CONTINUOUS
 62
     7
 10
3.454737170725919
 20
483.4109597628873
 30
0.0
 40
1.038757935531875
 50
0.0000000000007958
 51
90.0
  0
ARC
  5
2FA
  8
0
  6
CONTINUOUS
 62
     7
 10
57.654737170726
 20
543.9109597628875
 30
0.0
 40
1.03875793553182
 50
90.0
 51
180.0
  0
LINE
  5
2FB
  8
0
  6
CONTINUOUS
 62
     7
 10
66.45473717072598
 20
544.9497176984192
 30
0.0
 11
57.654737170726
 21
544.9497176984192
 31
0.0
  0
ARC
  5
2FC
  8
0
  6
CONTINUOUS
 62
     7
 10
57.654737170726
 20
543.9109597628875
 30
0.0
 40
1.038757935531875
 50
180.0
 51
270.0
  0
ARC
  5
2FD
  8
0
  6
CONTINUOUS
 62
     7
 10
3.454737170725919
 20
538.4109597628874
 30
0.0
 40
1.03875793553182
 50
269.9999999999992
 51
359.9999999999996
  0
ARC
  5
2FE
  8
0
  6
CONTINUOUS
 62
     7
 10
53.45473717072596
 20
527.4109597628873
 30
0.0
 40
1.038757935531875
 50
0.0
 51
90.0
  0
LINE
  5
2FF
  8
0
  6
CONTINUOUS
 62
     7
 10
-4.34526282927411
 20
506.4497176984193
 30
0.0
 11
3.454737170725919
 21
506.4497176984193
 31
0.0
  0
ARC
  5
300
  8
0
  6
CONTINUOUS
 62
     7
 10
-4.34526282927411
 20
505.4109597628873
 30
0.0
 40
1.03875793553182
 50
179.9999999999992
 51
270.0
  0
ARC
  5
301
  8
0
  6
CONTINUOUS
 62
     7
 10
53.45473717072596
 20
527.4109597628873
 30
0.0
 40
1.038757935531875
 50
270.0
 51
0.0
  0
LINE
  5
302
  8
0
  6
CONTINUOUS
 62
     7
 10
3.454737170725919
 20
504.3722018273555
 30
0.0
 11
-4.34526282927411
 21
504.3722018273555
 31
0.0
  0
ARC
  5
303
  8
0
  6
CONTINUOUS
 62
     7
 10
31.65473717072603
 20
532.9109597628874
 30
0.0
 40
1.03875793553182
 50
180.0
 51
270.0000000000004
  0
ARC
  5
304
  8
0
  6
CONTINUOUS
 62
     7
 10
44.65473717072599
 20
527.4109597628873
 30
0.0
 40
1.038757935531875
 50
90.0
 51
180.0
  0
ARC
  5
305
  8
0
  6
CONTINUOUS
 62
     7
 10
3.454737170725919
 20
505.4109597628873
 30
0.0
 40
1.03875793553182
 50
270.0
 51
0.0
  0
ARC
  5
306
  8
0
  6
CONTINUOUS
 62
     7
 10
70.65473717072601
 20
516.4109597628874
 30
0.0
 40
1.038757935531875
 50
180.0
 51
270.0
  0
LINE
  5
307
  8
0
  6
CONTINUOUS
 62
     7
 10
-4.34526282927411
 20
495.4497176984192
 30
0.0
 11
3.454737170725919
 21
495.4497176984192
 31
0.0
  0
ARC
  5
308
  8
0
  6
CONTINUOUS
 62
     7
 10
-4.34526282927411
 20
494.4109597628872
 30
0.0
 40
1.038757935531875
 50
179.9999999999992
 51
270.0
  0
ARC
  5
309
  8
0
  6
CONTINUOUS
 62
     7
 10
7.6547371707259
 20
521.9109597628875
 30
0.0
 40
1.03875793553182
 50
89.9999999999992
 51
180.0
  0
LINE
  5
30A
  8
0
  6
CONTINUOUS
 62
     7
 10
3.454737170725919
 20
526.3722018273553
 30
0.0
 11
-4.34526282927411
 21
526.3722018273553
 31
0.0
  0
LINE
  5
30B
  8
0
  6
CONTINUOUS
 62
     7
 10
44.65473717072599
 20
526.3722018273555
 30
0.0
 11
53.45473717072596
 21
526.3722018273553
 31
0.0
  0
LINE
  5
30C
  8
0
  6
CONTINUOUS
 62
     7
 10
57.654737170726
 20
542.8722018273555
 30
0.0
 11
66.45473717072598
 21
542.8722018273555
 31
0.0
  0
LINE
  5
30D
  8
0
  6
CONTINUOUS
 62
     7
 10
-4.34526282927411
 20
539.4497176984192
 30
0.0
 11
3.454737170725891
 21
539.4497176984192
 31
0.0
  0
ARC
  5
30E
  8
0
  6
CONTINUOUS
 62
     7
 10
70.65473717072601
 20
516.4109597628874
 30
0.0
 40
1.038757935531875
 50
90.0
 51
180.0
  0
ARC
  5
30F
  8
0
  6
CONTINUOUS
 62
     7
 10
-4.34526282927411
 20
527.4109597628873
 30
0.0
 40
1.038757935531875
 50
179.9999999999984
 51
270.0
  0
ARC
  5
310
  8
0
  6
CONTINUOUS
 62
     7
 10
66.45473717072598
 20
543.9109597628875
 30
0.0
 40
1.038757935531875
 50
0.0
 51
90.0
  0
LINE
  5
311
  8
0
  6
CONTINUOUS
 62
     7
 10
3.454737170725863
 20
537.3722018273556
 30
0.0
 11
-4.345262829274138
 21
537.3722018273556
 31
0.0
  0
ARC
  5
312
  8
0
  6
CONTINUOUS
 62
     7
 10
-4.34526282927411
 20
483.4109597628873
 30
0.0
 40
1.03875793553182
 50
179.9999999999992
 51
270.0
  0
LINE
  5
313
  8
0
  6
CONTINUOUS
 62
     7
 10
3.454737170725919
 20
482.3722018273555
 30
0.0
 11
-4.34526282927411
 21
482.3722018273555
 31
0.0
  0
ARC
  5
314
  8
0
  6
CONTINUOUS
 62
     7
 10
3.454737170725919
 20
538.4109597628874
 30
0.0
 40
1.038757935531875
 50
0.0000000000003411
 51
90.0000000000008
  0
ARC
  5
315
  8
0
  6
CONTINUOUS
 62
     7
 10
79.45473717072599
 20
516.4109597628874
 30
0.0
 40
1.038757935531875
 50
270.0
 51
0.0
  0
ARC
  5
316
  8
0
  6
CONTINUOUS
 62
     7
 10
3.454737170725919
 20
527.4109597628873
 30
0.0
 40
1.038757935531875
 50
270.0
 51
0.0
  0
ARC
  5
317
  8
0
  6
CONTINUOUS
 62
     7
 10
-4.34526282927411
 20
494.4109597628872
 30
0.0
 40
1.03875793553182
 50
90.0
 51
180.0
  0
LINE
  5
318
  8
0
  6
CONTINUOUS
 62
     7
 10
-4.34526282927411
 20
484.4497176984191
 30
0.0
 11
3.454737170725919
 21
484.4497176984191
 31
0.0
  0
ARC
  5
319
  8
0
  6
CONTINUOUS
 62
     7
 10
7.6547371707259
 20
521.9109597628875
 30
0.0
 40
1.038757935531875
 50
180.0
 51
270.0
  0
LINE
  5
31A
  8
0
  6
CONTINUOUS
 62
     7
 10
15.45473717072593
 20
520.8722018273555
 30
0.0
 11
7.654737170725928
 21
520.8722018273555
 31
0.0
  0
ARC
  5
31B
  8
0
  6
CONTINUOUS
 62
     7
 10
40.45473717072601
 20
532.9109597628874
 30
0.0
 40
1.03875793553182
 50
270.0000000000004
 51
0.0
  0
ARC
  5
31C
  8
0
  6
CONTINUOUS
 62
     7
 10
79.45473717072599
 20
516.4109597628874
 30
0.0
 40
1.038757935531875
 50
0.0
 51
90.0
  0
ARC
  5
31D
  8
0
  6
CONTINUOUS
 62
     7
 10
3.454737170725919
 20
494.4109597628872
 30
0.0
 40
1.03875793553182
 50
270.0
 51
0.0
  0
ARC
  5
31E
  8
0
  6
CONTINUOUS
 62
     7
 10
44.65473717072599
 20
527.4109597628873
 30
0.0
 40
1.038757935531875
 50
180.0
 51
270.0000000000004
  0
ARC
  5
31F
  8
0
  6
CONTINUOUS
 62
     7
 10
3.454737170725919
 20
527.4109597628873
 30
0.0
 40
1.038757935531875
 50
0.0000000000007958
 51
90.0
  0
ARC
  5
320
  8
0
  6
CONTINUOUS
 62
     7
 10
-4.34526282927411
 20
505.4109597628873
 30
0.0
 40
1.038757935531875
 50
90.0
 51
180.0
  0
ARC
  5
321
  8
0
  6
CONTINUOUS
 62
     7
 10
66.45473717072598
 20
543.9109597628875
 30
0.0
 40
1.038757935531875
 50
270.0
 51
0.0
  0
LINE
  5
322
  8
0
  6
CONTINUOUS
 62
     7
 10
70.65473717072601
 20
515.3722018273554
 30
0.0
 11
79.45473717072599
 21
515.3722018273554
 31
0.0
  0
ARC
  5
323
  8
0
  6
CONTINUOUS
 62
     7
 10
3.454737170725919
 20
494.4109597628872
 30
0.0
 40
1.038757935531875
 50
0.0000000000007958
 51
90.0
  0
ARC
  5
324
  8
0
  6
CONTINUOUS
 62
     7
 10
3.454737170725919
 20
505.4109597628873
 30
0.0
 40
1.038757935531875
 50
0.0000000000007958
 51
90.0
  0
LINE
  5
325
  8
0
  6
CONTINUOUS
 62
     7
 10
44.65473717072582
 20
537.3722018273556
 30
0.0
 11
53.45473717072599
 21
537.3722018273556
 31
0.0
  0
LINE
  5
326
  8
0
  6
CONTINUOUS
 62
     7
 10
79.45473717072599
 20
517.4497176984191
 30
0.0
 11
70.65473717072601
 21
517.4497176984191
 31
0.0
  0
LINE
  5
327
  8
0
  6
CONTINUOUS
 62
     7
 10
7.6547371707259
 20
522.9497176984192
 30
0.0
 11
15.4547371707259
 21
522.9497176984192
 31
0.0
  0
ARC
  5
328
  8
0
  6
CONTINUOUS
 62
     7
 10
-4.34526282927411
 20
483.4109597628873
 30
0.0
 40
1.03875793553182
 50
90.0
 51
180.0
  0
ARC
  5
329
  8
0
  6
CONTINUOUS
 62
     7
 10
-4.34526282927411
 20
538.4109597628874
 30
0.0
 40
1.03875793553182
 50
179.9999999999992
 51
270.0
  0
LINE
  5
32A
  8
0
  6
CONTINUOUS
 62
     7
 10
143.3297371707262
 20
592.4109597628873
 30
0.0
 11
143.3297371707262
 21
630.9109597628873
 31
0.0
  0
LINE
  5
32B
  8
0
  6
CONTINUOUS
 62
     7
 10
31.65473717072603
 20
531.8722018273556
 30
0.0
 11
40.45473717072601
 21
531.8722018273556
 31
0.0
  0
LINE
  5
32C
  8
0
  6
CONTINUOUS
 62
     7
 10
136.5797371707262
 20
630.9109597628873
 30
0.0
 11
160.0797371707262
 21
630.9109597628873
 31
0.0
  0
LINE
  5
32D
  8
0
  6
CONTINUOUS
 62
     7
 10
136.5797371707262
 20
630.9109597628873
 30
0.0
 11
136.5797371707262
 21
627.5441569071144
 31
0.0
  0
LINE
  5
32E
  8
0
  6
CONTINUOUS
 62
     7
 10
53.45473717072596
 20
528.4497176984192
 30
0.0
 11
44.65473717072599
 21
528.4497176984192
 31
0.0
  0
LINE
  5
32F
  8
0
  6
CONTINUOUS
 62
     7
 10
3.454737170725919
 20
493.3722018273555
 30
0.0
 11
-4.34526282927411
 21
493.3722018273555
 31
0.0
  0
LINE
  5
330
  8
0
  6
CONTINUOUS
 62
     7
 10
136.5797371707262
 20
617.2777626186601
 30
0.0
 11
136.5797371707262
 21
592.4109597628873
 31
0.0
  0
ARC
  5
331
  8
0
  6
CONTINUOUS
 62
     7
 10
32.86417495164117
 20
585.2304413748224
 30
0.0
 40
7.882822085013063
 50
88.61477596433042
 51
101.6135322203641
  0
ARC
  5
332
  8
0
  6
CONTINUOUS
 62
     7
 10
3.454737170725919
 20
483.4109597628873
 30
0.0
 40
1.03875793553182
 50
270.0
 51
0.0
  0
ARC
  5
333
  8
0
  6
CONTINUOUS
 62
     7
 10
33.25473872314738
 20
583.9508855277355
 30
0.0
 40
2.999996734620092
 50
41.25621993235501
 51
66.31791729822005
  0
LINE
  5
334
  8
0
  6
CONTINUOUS
 62
     7
 10
-4.34526282927411
 20
550.4497176984194
 30
0.0
 11
3.454737170725891
 21
550.4497176984194
 31
0.0
  0
LINE
  5
335
  8
0
  6
CONTINUOUS
 62
     7
 10
-4.34526282927411
 20
528.4497176984192
 30
0.0
 11
3.454737170725919
 21
528.4497176984192
 31
0.0
  0
ARC
  5
336
  8
0
  6
CONTINUOUS
 62
     7
 10
-4.34526282927411
 20
527.4109597628873
 30
0.0
 40
1.038757935531875
 50
89.99999999999926
 51
180.0
  0
LINE
  5
337
  8
0
  6
CONTINUOUS
 62
     7
 10
-101.1534667617733
 20
549.5568577966375
 30
0.0
 11
-89.44526282927397
 21
555.4109597628873
 31
0.0
  0
LINE
  5
338
  8
0
  6
CONTINUOUS
 62
     7
 10
183.9844003361828
 20
548.2942960553498
 30
0.0
 11
184.0125293705656
 21
548.2931860135635
 31
0.0
  0
LINE
  5
339
  8
0
  6
CONTINUOUS
 62
     7
 10
-89.44526282927374
 20
477.4109597628871
 30
0.0
 11
-101.1534667617733
 21
483.2650617291369
 31
0.0
  0
ARC
  5
33A
  8
0
  6
CONTINUOUS
 62
     7
 10
-94.44526282927391
 20
536.1404499316386
 30
0.0
 40
15.0
 50
116.5650511770779
 51
179.9999999999998
  0
ARC
  5
33B
  8
0
  6
CONTINUOUS
 62
     7
 10
183.029737170726
 20
369.6109597628872
 30
0.0
 40
0.6999999999999784
 50
180.0
 51
269.9999999999998
  0
LINE
  5
33C
  8
0
  6
CONTINUOUS
 62
     7
 10
182.3297371707262
 20
563.4109597628882
 30
0.0
 11
182.3297371707262
 21
369.6109597628873
 31
0.0
  0
LINE
  5
33D
  8
0
  6
CONTINUOUS
 62
     7
 10
29.32891611559279
 20
372.9753992234373
 30
0.0
 11
30.55473717072624
 21
379.4109597628875
 31
0.0
  0
LINE
  5
33E
  8
0
  6
CONTINUOUS
 62
     7
 10
156.8299223571814
 20
593.9107745764318
 30
0.0
 11
153.3297371707262
 21
597.4109597628873
 31
0.0
  0
LINE
  5
33F
  8
0
  6
CONTINUOUS
 62
     7
 10
-0.9452628292738741
 20
625.9202120340761
 30
0.0
 11
-1.795262829273891
 21
626.4109597628873
 31
0.0
  0
ARC
  5
340
  8
0
  6
CONTINUOUS
 62
     7
 10
153.3297371707262
 20
563.4109597628874
 30
0.0
 40
30.7
 50
0.0000000000018758
 51
83.4533264521516
  0
LINE
  5
341
  8
0
  6
CONTINUOUS
 62
     7
 10
184.029737170726
 20
476.5712475271133
 30
0.0
 11
184.529737170726
 21
477.4372729308977
 31
0.0
  0
LINE
  5
342
  8
0
  6
CONTINUOUS
 62
     7
 10
184.529737170726
 20
545.0371423602797
 30
0.0
 11
183.2297371707261
 21
545.014450775873
 31
0.0
  0
LINE
  5
343
  8
0
  6
CONTINUOUS
 62
     7
 10
16.55473717072614
 20
379.410959762887
 30
0.0
 11
16.55473717072614
 21
477.410959762887
 31
0.0
  0
LINE
  5
344
  8
0
  6
CONTINUOUS
 62
     7
 10
184.529737170726
 20
555.3846465948766
 30
0.0
 11
184.029737170726
 21
556.250671998661
 31
0.0
  0
LINE
  5
345
  8
0
  6
CONTINUOUS
 62
     7
 10
140.2467244688339
 20
626.1609597628872
 30
0.0
 11
138.5147825945024
 21
625.1610226555209
 31
0.0
  0
LINE
  5
346
  8
0
  6
CONTINUOUS
 62
     7
 10
184.029737170726
 20
556.250671998661
 30
0.0
 11
184.029737170726
 21
563.4109597628874
 31
0.0
  0
LINE
  5
347
  8
0
  6
CONTINUOUS
 62
     7
 10
30.55473717072621
 20
593.1109597628872
 30
0.0
 11
30.55473717072621
 21
588.4109597628873
 31
0.0
  0
LINE
  5
348
  8
0
  6
CONTINUOUS
 62
     7
 10
-0.9452628292738741
 20
625.161022655521
 30
0.0
 11
-0.9452628292738741
 21
625.9202120256059
 31
0.0
  0
LINE
  5
349
  8
0
  6
CONTINUOUS
 62
     7
 10
10.85473717072616
 20
583.9508826429725
 30
0.0
 11
11.20089101687999
 21
585.349846756778
 31
0.0
  0
LINE
  5
34A
  8
0
  6
CONTINUOUS
 62
     7
 10
140.765569937042
 20
626.1609597628872
 30
0.0
 11
140.2467244688339
 21
626.1609597628872
 31
0.0
  0
ARC
  5
34B
  8
0
  6
CONTINUOUS
 62
     7
 10
-4.34526282927411
 20
549.4109597628873
 30
0.0
 40
1.038757935531875
 50
179.9999999999992
 51
270.0
  0
ARC
  5
34C
  8
0
  6
CONTINUOUS
 62
     7
 10
40.45473717072601
 20
532.9109597628874
 30
0.0
 40
1.03875793553182
 50
0.0
 51
90.00000000000038
  0
LINE
  5
34D
  8
0
  6
CONTINUOUS
 62
     7
 10
184.029737170726
 20
379.4109597628872
 30
0.0
 11
184.029737170726
 21
476.5712475271133
 31
0.0
  0
ARC
  5
34E
  8
0
  6
CONTINUOUS
 62
     7
 10
-4.34526282927411
 20
549.4109597628873
 30
0.0
 40
1.038757935531875
 50
90.0
 51
180.0
  0
ARC
  5
34F
  8
0
  6
CONTINUOUS
 62
     7
 10
3.454737170725919
 20
549.4109597628873
 30
0.0
 40
1.03875793553182
 50
269.9999999999992
 51
0.0
  0
ARC
  5
350
  8
0
  6
CONTINUOUS
 62
     7
 10
3.454737170725919
 20
549.4109597628873
 30
0.0
 40
1.03875793553182
 50
0.0000000000007958
 51
90.0000000000008
  0
LINE
  5
351
  8
0
  6
CONTINUOUS
 62
     7
 10
-9.445262829273881
 20
626.4109597628873
 30
0.0
 11
-1.795262829273892
 21
626.4109597628873
 31
0.0
  0
LINE
  5
352
  8
0
  6
CONTINUOUS
 62
     7
 10
-109.4452628292739
 20
496.6814695941355
 30
0.0
 11
-109.4452628292739
 21
536.1404499316386
 31
0.0
  0
LINE
  5
353
  8
0
  6
CONTINUOUS
 62
     7
 10
184.029737170726
 20
472.410959762887
 30
0.0
 11
184.029737170726
 21
379.6789089553184
 31
0.0
  0
ARC
  5
354
  8
0
  6
CONTINUOUS
 62
     7
 10
75.55473717072624
 20
536.1404499316386
 30
0.0
 40
15.00000000000001
 50
0.000000000000159
 51
63.43494882292203
  0
LINE
  5
355
  8
0
  6
CONTINUOUS
 62
     7
 10
183.029737170726
 20
368.9109597628873
 30
0.0
 11
183.029737170726
 21
377.6789089553185
 31
0.0
  0
LINE
  5
356
  8
0
  6
CONTINUOUS
 62
     7
 10
7.6547371707259
 20
511.9497176984191
 30
0.0
 11
15.4547371707259
 21
511.9497176984191
 31
0.0
  0
ARC
  5
357
  8
0
  6
CONTINUOUS
 62
     7
 10
13.85480290014474
 20
583.9507932775623
 30
0.0
 40
3.000108240863886
 50
113.6825517956311
 51
139.6859134600986
  0
ARC
  5
358
  8
0
  6
CONTINUOUS
 62
     7
 10
153.3297371707264
 20
563.4109597628882
 30
0.0
 40
28.99999999999897
 50
0.0
 51
90.00000000000055
  0
ARC
  5
359
  8
0
  6
CONTINUOUS
 62
     7
 10
-94.44526282927391
 20
496.6814695941355
 30
0.0
 40
15.00000000000003
 50
180.0
 51
243.434948822922
  0
ARC
  5
35A
  8
0
  6
CONTINUOUS
 62
     7
 10
13.85473717072605
 20
574.9706840488984
 30
0.0
 40
2.999999999999947
 50
179.9999999999989
 51
234.9405730331131
  0
ARC
  5
35B
  8
0
  6
CONTINUOUS
 62
     7
 10
33.25473717072619
 20
574.9706840488986
 30
0.0
 40
3.000000000000058
 50
305.0594269668875
 51
359.9999999999989
  0
LINE
  5
35C
  8
0
  6
CONTINUOUS
 62
     7
 10
40.45473717072579
 20
533.9497176984191
 30
0.0
 11
31.654737170726
 21
533.9497176984191
 31
0.0
  0
LINE
  5
35D
  8
0
  6
CONTINUOUS
 62
     7
 10
3.454737170725863
 20
548.3722018273555
 30
0.0
 11
-4.345262829274138
 21
548.3722018273555
 31
0.0
  0
ARC
  5
35E
  8
0
  6
CONTINUOUS
 62
     7
 10
31.65473717072603
 20
532.9109597628874
 30
0.0
 40
1.038757935531875
 50
90.0
 51
180.0
  0
LINE
  5
35F
  8
0
  6
CONTINUOUS
 62
     7
 10
15.45473717072593
 20
509.8722018273554
 30
0.0
 11
7.654737170725928
 21
509.8722018273554
 31
0.0
  0
LINE
  5
360
  8
0
  6
CONTINUOUS
 62
     7
 10
184.029737170726
 20
379.4109597628872
 30
0.0
 11
183.029737170726
 21
377.6789089553184
 31
0.0
  0
LINE
  5
361
  8
0
  6
CONTINUOUS
 62
     7
 10
183.2297371707261
 20
542.8074687499018
 30
0.0
 11
184.529737170726
 21
542.784777165495
 31
0.0
  0
LINE
  5
362
  8
0
  6
CENTER
 62
     1
 10
149.6781722916212
 20
563.4109597628882
 30
0.0
 11
186.3297371707254
 21
563.4109597628882
 31
0.0
  0
LINE
  5
363
  8
0
  6
CENTER
 62
     1
 10
153.3297371707264
 20
559.1005934427975
 30
0.0
 11
153.3297371707264
 21
596.4109597628873
 31
0.0
  0
ENDSEC
  0
EOF
