  0
SECTION
  2
HEADER
  9
$ACADVER
  1
AC1004
  9
$INSBASE
 10
0.0
 20
0.0
  9
$EXTMIN
 10
26.8705703008319
 20
65.67045454545452
  9
$EXTMAX
 10
186.0
 20
241.0
  9
$LIMMIN
 10
0.0
 20
0.0
  9
$LIMMAX
 10
12.0
 20
9.0
  9
$ORTHOMODE
 70
     0
  9
$REGENMODE
 70
     1
  9
$FILLMODE
 70
     1
  9
$QTEXTMODE
 70
     0
  9
$DRAGMODE
 70
     2
  9
$LTSCALE
 40
1.0
  9
$OSMODE
 70
    37
  9
$ATTMODE
 70
     1
  9
$TEXTSIZE
 40
0.2
  9
$TRACEWID
 40
0.05
  9
$TEXTSTYLE
  7
STANDARD
  9
$CLAYER
  8
0
  9
$CELTYPE
  6
BYLAYER
  9
$CECOLOR
 62
   256
  9
$DIMSCALE
 40
1.0
  9
$DIMASZ
 40
3.0
  9
$DIMEXO
 40
0.0625
  9
$DIMDLI
 40
0.38
  9
$DIMRND
 40
0.0
  9
$DIMDLE
 40
0.0
  9
$DIMEXE
 40
1.5
  9
$DIMTP
 40
0.0
  9
$DIMTM
 40
0.0
  9
$DIMTXT
 40
3.0
  9
$DIMCEN
 40
0.09
  9
$DIMTSZ
 40
0.0
  9
$DIMTOL
 70
     0
  9
$DIMLIM
 70
     0
  9
$DIMTIH
 70
     1
  9
$DIMTOH
 70
     1
  9
$DIMSE1
 70
     0
  9
$DIMSE2
 70
     0
  9
$DIMTAD
 70
     1
  9
$DIMZIN
 70
     0
  9
$DIMBLK
  1

  9
$DIMASO
 70
     1
  9
$DIMSHO
 70
     1
  9
$DIMPOST
  1

  9
$DIMAPOST
  1

  9
$DIMALT
 70
     0
  9
$DIMALTD
 70
     2
  9
$DIMALTF
 40
25.4
  9
$DIMLFAC
 40
1.0
  9
$DIMTOFL
 70
     0
  9
$DIMTVP
 40
0.0
  9
$DIMTIX
 70
     0
  9
$DIMSOXD
 70
     0
  9
$DIMSAH
 70
     0
  9
$DIMBLK1
  1

  9
$DIMBLK2
  1

  9
$LUNITS
 70
     2
  9
$LUPREC
 70
     4
  9
$SKETCHINC
 40
0.1
  9
$FILLETRAD
 40
0.5
  9
$AUNITS
 70
     0
  9
$AUPREC
 70
     0
  9
$MENU
  1
.
  9
$ELEVATION
 40
0.0
  9
$THICKNESS
 40
0.0
  9
$LIMCHECK
 70
     0
  9
$CHAMFERA
 40
0.0
  9
$CHAMFERB
 40
0.0
  9
$SKPOLY
 70
     0
  9
$TDCREATE
 40
2460052.539220891
  9
$TDUPDATE
 40
2460052.539221366
  9
$TDINDWG
 40
0.0000000116
  9
$TDUSRTIMER
 40
0.0000000116
  9
$USRTIMER
 70
     1
  9
$ANGBASE
 50
0.0
  9
$ANGDIR
 70
     0
  9
$PDMODE
 70
     0
  9
$PDSIZE
 40
0.0
  9
$PLINEWID
 40
0.0
  9
$COORDS
 70
     1
  9
$SPLFRAME
 70
     0
  9
$SPLINETYPE
 70
     6
  9
$SPLINESEGS
 70
     8
  9
$ATTDIA
 70
     0
  9
$ATTREQ
 70
     1
  9
$SURFTAB1
 70
     6
  9
$SURFTAB2
 70
     6
  9
$SURFTYPE
 70
     6
  9
$SURFU
 70
     6
  9
$SURFV
 70
     6
  9
$UCSNAME
  2

  9
$UCSORG
 10
0.0
 20
0.0
 30
0.0
  9
$UCSXDIR
 10
1.0
 20
0.0
 30
0.0
  9
$UCSYDIR
 10
0.0
 20
1.0
 30
0.0
  9
$USERI1
 70
     0
  9
$USERI2
 70
     0
  9
$USERI3
 70
     0
  9
$USERI4
 70
     0
  9
$USERI5
 70
     0
  9
$USERR1
 40
0.0
  9
$USERR2
 40
0.0
  9
$USERR3
 40
0.0
  9
$USERR4
 40
0.0
  9
$USERR5
 40
0.0
  9
$WORLDVIEW
 70
     1
  0
ENDSEC
  0
SECTION
  2
TABLES
  0
TABLE
  2
LTYPE
 70
     2
  0
LTYPE
  2
CONTINUOUS
 70
     0
  3
Solid line
 72
    65
 73
     0
 40
0.0
  0
LTYPE
  2
CENTER
 70
     0
  3

 72
    65
 73
     0
 40
0.0
  0
ENDTAB
  0
TABLE
  2
LAYER
 70
     1
  0
LAYER
  2
0
 70
     0
 62
     7
  6
CONTINUOUS
  0
ENDTAB
  0
TABLE
  2
STYLE
 70
     2
  0
STYLE
  2
STANDARD
 70
     0
 40
0.0
 41
1.0
 50
0.0
 71
     0
 42
0.2
  3
txt
  4

  0
STYLE
  2
ＭＳ_ゴシック
 70
     0
 40
0.0
 41
1.0
 50
0.0
 71
     0
 42
0.2
  3
ＭＳ ゴシック.shx
  4

  0
ENDTAB
  0
TABLE
  2
VIEW
 70
     0
  0
ENDTAB
  0
ENDSEC
  0
SECTION
  2
BLOCKS
  0
BLOCK
  8
0
  2
D_FRAME_VIEW_2117
 70
     0
 10
0.0
 20
0.0
  0
ENDBLK
  8
0
  0
BLOCK
  8
0
  2
D_FRAME_VIEW_1510
 70
     0
 10
0.0
 20
0.0
  0
ENDBLK
  8
0
  0
BLOCK
  8
0
  2
D_FRAME_VIEW_2513
 70
     0
 10
0.0
 20
0.0
  0
ENDBLK
  8
0
  0
ENDSEC
  0
SECTION
  2
ENTITIES
  0
INSERT
  8
0
  6
CONTINUOUS
 62
     7
  2
D_FRAME_VIEW_2117
 10
0.0
 20
0.0
 30
0.0
  0
INSERT
  8
0
  6
CONTINUOUS
 62
     7
  2
D_FRAME_VIEW_1510
 10
0.0
 20
0.0
 30
0.0
  0
INSERT
  8
0
  6
CONTINUOUS
 62
     7
  2
D_FRAME_VIEW_2513
 10
0.0
 20
0.0
 30
0.0
  0
LINE
  8
0
  6
CONTINUOUS
 62
     7
 10
149.579181463035
 20
89.32877932901765
 11
138.4999999999999
 21
89.23198192230261
  0
LINE
  8
0
  6
CONTINUOUS
 62
     7
 10
184.7427475452951
 20
88.83937652682181
 11
173.5
 21
89.23198192230267
  0
LINE
  8
0
  6
CONTINUOUS
 62
     7
 10
153.1695138214839
 20
150.5768886201793
 11
153.1695138214839
 21
151.5239897931167
  0
LINE
  8
0
  6
CONTINUOUS
 62
     7
 10
158.0316836787031
 20
150.6969487845924
 11
158.0316836787031
 21
156.5915994433439
  0
LINE
  8
0
  6
CONTINUOUS
 62
     7
 10
147.3052055419145
 20
147.8731725727856
 11
147.3052055419145
 21
148.4353586634759
  0
LINE
  8
0
  6
CONTINUOUS
 62
     7
 10
159.0377963449483
 20
153.1630655260866
 11
158.7291211452051
 21
151.5310394768048
  0
LINE
  8
0
  6
CONTINUOUS
 62
     7
 10
170.0918362872536
 20
126.970429644028
 11
170.1767713581341
 21
131.7926412139467
  0
LINE
  8
0
  6
CONTINUOUS
 62
     7
 10
144.2902450526724
 20
147.318571334104
 11
144.2000001056437
 21
148.347655541338
  0
LINE
  8
0
  6
CONTINUOUS
 62
     7
 10
160.815110222146
 20
150.1073851726968
 11
160.815110222146
 21
150.7234165980604
  0
LINE
  8
0
  6
CONTINUOUS
 62
     7
 10
173.5
 20
89.23198192230261
 11
162.4208185369649
 21
89.32877932901765
  0
LINE
  8
0
  6
CONTINUOUS
 62
     7
 10
156.0019930197947
 20
150.822695147617
 11
155.981207842253
 21
151.5291904263371
  0
LINE
  8
0
  6
CONTINUOUS
 62
     7
 10
141.898037869858
 20
127.4177947675339
 11
141.9332856974735
 21
126.7189422727979
  0
LINE
  8
0
  6
CONTINUOUS
 62
     7
 10
164.8183967601491
 20
148.4353586634759
 11
164.8183967601491
 21
148.0220793391572
  0
LINE
  8
0
  6
CONTINUOUS
 62
     7
 10
171.6985115481451
 20
136.6554361319389
 11
171.7859765961601
 21
148.523905866739
  0
LINE
  8
0
  6
CONTINUOUS
 62
     7
 10
167.7999998943562
 20
148.3478688205026
 11
167.7097588072236
 21
147.3185709927723
  0
LINE
  8
0
  6
CONTINUOUS
 62
     7
 10
138.4999999999999
 20
89.23198192230261
 11
127.2572524547048
 21
88.83937652682182
  0
LINE
  8
0
  6
CONTINUOUS
 62
     7
 10
167.709888
 20
146.9994411186075
 11
167.709888
 21
149.376965890983
  0
LINE
  8
0
  6
CONTINUOUS
 62
     7
 10
83.7952224999572
 20
217.6947944580855
 11
84.35740859064745
 21
217.6947944580855
  0
LINE
  8
0
  6
CONTINUOUS
 62
     7
 10
77.44026284896917
 20
216.3654418597551
 11
77.86726049402
 21
216.389231009867
  0
LINE
  8
0
  6
CONTINUOUS
 62
     7
 10
89.08511545325825
 20
205.9622036550517
 11
87.45308940397638
 21
206.2708788547949
  0
LINE
  8
0
  6
CONTINUOUS
 62
     7
 10
86.4806243395458
 20
215.7942519837241
 11
86.71214421291918
 21
215.9331590558662
  0
LINE
  8
0
  6
CONTINUOUS
 62
     7
 10
173.5
 20
89.23198192230261
 11
138.4999999999999
 21
89.23198192230261
  0
LINE
  8
0
  6
CONTINUOUS
 62
     7
 10
87.4530894039764
 20
211.729121145205
 11
89.0851154532582
 21
212.0377963449485
  0
LINE
  8
0
  6
CONTINUOUS
 62
     7
 10
87.62950832373463
 20
207.4446559756755
 11
89.26153437301643
 21
207.135980775932
  0
LINE
  8
0
  6
CONTINUOUS
 62
     7
 10
86.97937666487877
 20
203.1765684095258
 11
87.21089653825214
 21
203.0376613373837
  0
LINE
  8
0
  6
CONTINUOUS
 62
     7
 10
86.71214421291914
 20
202.0668409441336
 11
86.48062433954586
 21
202.2057480162759
  0
LINE
  8
0
  6
CONTINUOUS
 62
     7
 10
157.5553440243244
 20
151.7074583965631
 11
157.864019224068
 21
153.3394844458448
  0
LINE
  8
0
  6
CONTINUOUS
 62
     7
 10
157.0
 20
123.8317303009044
 11
157.0
 21
136.7923794833722
  0
LINE
  8
0
  6
CONTINUOUS
 62
     7
 10
153.2708788547949
 20
151.5310394768049
 11
152.9622036550514
 21
153.1630655260866
  0
LINE
  8
0
  6
CONTINUOUS
 62
     7
 10
86.74474507478857
 20
208.9980069802052
 11
87.4512403535087
 21
209.018792157747
  0
LINE
  8
0
  6
CONTINUOUS
 62
     7
 10
154.4073829215792
 20
151.7004087128749
 11
154.2277130463857
 21
153.3548039556389
  0
LINE
  8
0
  6
CONTINUOUS
 62
     7
 10
150.0376613373837
 20
151.2888466110806
 11
150.1765684095258
 21
151.0573267377072
  0
LINE
  8
0
  6
CONTINUOUS
 62
     7
 10
163.365441859755
 20
141.5182129217976
 11
163.389231009867
 21
141.9452105668484
  0
LINE
  8
0
  6
CONTINUOUS
 62
     7
 10
84.35740859064745
 20
200.1816032398509
 11
83.94412926632884
 21
200.1816032398509
  0
LINE
  8
0
  6
CONTINUOUS
 62
     7
 10
149.2057480162758
 20
150.5585744123743
 11
149.0668409441336
 21
150.7900942857476
  0
LINE
  8
0
  6
CONTINUOUS
 62
     7
 10
164.9952608708292
 20
148.8300745023838
 11
165.1999220511295
 21
149.0099556011783
  0
LINE
  8
0
  6
CONTINUOUS
 62
     7
 10
86.618998711764
 20
206.9683163212969
 11
92.5136493705155
 21
206.9683163212969
  0
LINE
  8
0
  6
CONTINUOUS
 62
     7
 10
62.90861548133491
 20
194.9072659502563
 11
67.7149119485385
 21
194.8298021348718
  0
LINE
  8
0
  6
CONTINUOUS
 62
     7
 10
87.62245864004649
 20
210.5926170784208
 11
89.27685388281043
 21
210.7722869536143
  0
LINE
  8
0
  6
CONTINUOUS
 62
     7
 10
87.21089653825214
 20
214.9623386626162
 11
86.97937666487877
 21
214.8234315904741
  0
LINE
  8
0
  6
CONTINUOUS
 62
     7
 10
162.9331590558663
 20
150.7900942857476
 11
162.7942519837241
 21
150.5585744123743
  0
LINE
  8
0
  6
CONTINUOUS
 62
     7
 10
83.24062119943234
 20
220.7097556518724
 11
84.26970666382468
 21
220.7999998943562
  0
LINE
  8
0
  6
CONTINUOUS
 62
     7
 10
186.0
 20
86.27059831230252
 11
125.9999999999999
 21
86.27059831230252
  0
LINE
  8
0
  6
CONTINUOUS
 62
     7
 10
148.6345581402895
 20
141.5182129218001
 11
148.610768990133
 21
141.9452105668484
  0
LINE
  8
0
  6
CONTINUOUS
 62
     7
 10
153.8396196821476
 20
157.2730815368328
 11
153.6944335858358
 21
157.6934754336892
  0
LINE
  8
0
  6
CONTINUOUS
 62
     7
 10
86.49893854735092
 20
211.8304861785161
 11
87.44603972028825
 21
211.8304861785161
  0
LINE
  8
0
  6
CONTINUOUS
 62
     7
 10
161.8234315904741
 20
151.0573267377072
 11
161.9623386626164
 21
151.2888466110804
  0
LINE
  8
0
  6
CONTINUOUS
 62
     7
 10
84.26991994298928
 20
197.2000001056437
 11
83.24062102001608
 21
197.2902423321231
  0
LINE
  8
0
  6
CONTINUOUS
 62
     7
 10
72.57748605892229
 20
193.3014884932555
 11
84.44595570072282
 21
193.2140170481752
  0
LINE
  8
0
  6
CONTINUOUS
 62
     7
 10
53.15293548205531
 20
210.75
 11
59.79632216602261
 21
210.75
  0
LINE
  8
0
  6
CONTINUOUS
 62
     7
 10
58.27097789250424
 20
88.96982537767822
 11
59.46956291528844
 21
88.96982538050166
  0
LINE
  8
0
  6
CONTINUOUS
 62
     7
 10
144.290112
 20
146.9993202154585
 11
144.290112
 21
149.376965890983
  0
LINE
  8
0
  6
CONTINUOUS
 62
     7
 10
63.34311700525294
 20
223.1012755958706
 11
62.65514480734825
 21
223.0680323769595
  0
LINE
  8
0
  6
CONTINUOUS
 62
     7
 10
61.38305370552456
 20
207.25
 11
53.15293548205531
 21
207.25
  0
LINE
  8
0
  6
CONTINUOUS
 62
     7
 10
86.0294350998684
 20
204.184889777854
 11
86.64546652523192
 21
204.184889777854
  0
LINE
  8
0
  6
CONTINUOUS
 62
     7
 10
146.8000779488704
 20
149.0099556011782
 11
147.0047391291708
 21
148.8300745023838
  0
LINE
  8
0
  6
CONTINUOUS
 62
     7
 10
153.5
 20
136.9741630908824
 11
153.5
 21
123.9403147014435
  0
LINE
  8
0
  6
CONTINUOUS
 62
     7
 10
85.95585579058653
 20
213.7386141088505
 11
86.0294350998684
 21
213.7588187239868
  0
ARC
  8
0
  6
CONTINUOUS
 62
     7
 10
84.62056960794708
 20
214.5193724762649
 40
6.337840803376988
 50
108.2884855706238
 51
126.3629615985035
  0
LINE
  8
0
  6
CONTINUOUS
 62
     7
 10
53.20506734022941
 20
206.8326795449831
 11
53.16898255953369
 21
207.1772702906782
  0
ARC
  8
0
  6
CONTINUOUS
 62
     7
 10
91.45149712476103
 20
209.4008808344969
 40
15.0174244951653
 50
155.525015215542
 51
169.5833909993075
  0
LINE
  8
0
  6
CONTINUOUS
 62
     7
 10
67.72087947468337
 20
223.1
 11
63.34950248896644
 21
223.1
  0
LINE
  8
0
  6
CONTINUOUS
 62
     7
 10
54.309062785395
 20
202.2901069506032
 11
54.78078658534115
 21
201.2415659260785
  0
LINE
  8
0
  6
CONTINUOUS
 62
     7
 10
54.78078658533454
 20
216.7584340739072
 11
54.21591369374708
 21
215.4696441179278
  0
ARC
  8
0
  6
CONTINUOUS
 62
     7
 10
93.58270124563596
 20
208.9999999874287
 40
17.18756767208507
 50
173.5038299828313
 51
186.4961452904093
  0
ARC
  8
0
  6
CONTINUOUS
 62
     7
 10
86.96492303843225
 20
206.2529330549004
 40
9.942879556205062
 50
209.0420969965
 51
227.0683741540068
  0
ARC
  8
0
  6
CONTINUOUS
 62
     7
 10
70.65936957430308
 20
208.6713452302828
 40
17.55087912273024
 50
186.0134561372182
 51
201.590121167769
  0
ARC
  8
0
  6
CONTINUOUS
 62
     7
 10
70.71249585533991
 20
209.3235372974281
 40
17.60424919000853
 50
159.5231386086226
 51
173.9880940701355
  0
LINE
  8
0
  6
CONTINUOUS
 62
     7
 10
83.63575758175385
 20
200.1073250792878
 11
84.00735453431281
 21
200.3052055419145
  0
ARC
  8
0
  6
CONTINUOUS
 62
     7
 10
91.42742783071913
 20
208.5915568043502
 40
14.99238511856729
 50
190.4045650981775
 51
204.4869015067702
  0
LINE
  8
0
  6
CONTINUOUS
 62
     7
 10
87.28601317148012
 20
206.9683120143722
 11
87.3308615122021
 21
207.0222089800137
  0
ARC
  8
0
  6
CONTINUOUS
 62
     7
 10
83.73539033485085
 20
204.2921924418813
 40
11.01517584022651
 50
273.7018991040776
 51
338.4616179777472
  0
ARC
  8
0
  6
CONTINUOUS
 62
     7
 10
75.82161914185293
 20
208.8835331263453
 40
20.10834644164685
 50
334.5681235491351
 51
36.84943869795802
  0
ARC
  8
0
  6
CONTINUOUS
 62
     7
 10
84.15601079162428
 20
214.8260489618628
 40
9.878224730012523
 50
38.25884826301823
 51
88.31455166000626
  0
LINE
  8
0
  6
CONTINUOUS
 62
     7
 10
85.90110001244429
 20
213.4831904577765
 11
85.95585579058653
 21
213.7386141088505
  0
LINE
  8
0
  6
CONTINUOUS
 62
     7
 10
86.49893854735092
 20
211.8304861785161
 11
86.35094724939847
 21
211.8980475334101
  0
LINE
  8
0
  6
CONTINUOUS
 62
     7
 10
86.618998711764
 20
206.9683163212969
 11
86.58324837313786
 21
206.9726724504942
  0
LINE
  8
0
  6
CONTINUOUS
 62
     7
 10
86.35094724939847
 20
211.8980475334101
 11
86.23284783875485
 21
212.1206442745824
  0
ARC
  8
0
  6
CONTINUOUS
 62
     7
 10
84.65601116699324
 20
203.5492249530481
 40
6.414105946721815
 50
233.7446848913335
 51
251.6036776968842
  0
ARC
  8
0
  6
CONTINUOUS
 62
     7
 10
60.86245539621733
 20
207.5
 40
0.5000000000000004
 50
3.885042688301325
 51
90.0
  0
LINE
  8
0
  6
CONTINUOUS
 62
     7
 10
85.24180592362181
 20
202.4891121546367
 11
85.2345243843224
 21
202.7083053967193
  0
LINE
  8
0
  6
CONTINUOUS
 62
     7
 10
53.16898255953391
 20
210.8227297093228
 11
53.20506734022658
 21
211.1673204549909
  0
ARC
  8
0
  6
CONTINUOUS
 62
     7
 10
61.01628344248834
 20
212.0
 40
0.4999999999999642
 50
270.0000000000001
 51
352.1617898163099
  0
LINE
  8
0
  6
CONTINUOUS
 62
     7
 10
87.11858836357062
 20
201.8982501259215
 11
86.53237027415851
 21
202.4574430293922
  0
ARC
  8
0
  6
CONTINUOUS
 62
     7
 10
87.12887454779657
 20
211.6187182638753
 40
10.14857599820095
 50
133.1157123129126
 51
150.7738137477739
  0
ARC
  8
0
  6
CONTINUOUS
 62
     7
 10
77.48896060381301
 20
207.7895954547868
 40
16.12967188898349
 50
180.9090479632911
 51
235.2087877915655
  0
ARC
  8
0
  6
CONTINUOUS
 62
     7
 10
72.84206094931513
 20
202.2601165967429
 40
8.961619212949104
 50
239.4396859231409
 51
268.308247578646
  0
LINE
  8
0
  6
CONTINUOUS
 62
     7
 10
85.33028874614136
 20
202.4574430293922
 11
86.53237027415851
 21
202.4574430293922
  0
LINE
  8
0
  6
CONTINUOUS
 62
     7
 10
85.33028874614136
 20
202.4574430293922
 11
85.24180592362181
 21
202.4891121546367
  0
ARC
  8
0
  6
CONTINUOUS
 62
     7
 10
73.47535199715523
 20
213.7380204981091
 40
10.98406248535385
 50
93.63377308883508
 51
158.1868650049384
  0
ARC
  8
0
  6
CONTINUOUS
 62
     7
 10
80.6402515108698
 20
209.4025158371425
 40
19.2951329165568
 50
154.1368944682005
 51
172.4672388253317
  0
LINE
  8
0
  6
CONTINUOUS
 62
     7
 10
84.44658940104605
 20
224.7
 11
72.77932751146805
 21
224.7
  0
LINE
  8
0
  6
CONTINUOUS
 62
     7
 10
84.82843478763232
 20
216.2556391950613
 11
84.64599073136021
 21
216.437274169307
  0
LINE
  8
0
  6
CONTINUOUS
 62
     7
 10
86.0294350998684
 20
213.7588187239868
 11
86.64546652523192
 21
213.7588187239868
  0
LINE
  8
0
  6
CONTINUOUS
 62
     7
 10
88.51744448010113
 20
206.79466814363
 11
87.8210802397811
 21
206.9683163212969
  0
LINE
  8
0
  6
CONTINUOUS
 62
     7
 10
84.00735453431281
 20
200.3052055419145
 11
84.18953609038338
 21
200.3052055419145
  0
LINE
  8
0
  6
CONTINUOUS
 62
     7
 10
152.6594877671708
 20
158.4806268707284
 11
152.442592483938
 21
159.2021671721726
  0
LINE
  8
0
  6
CONTINUOUS
 62
     7
 10
142.8112032275451
 20
150.6220196718757
 11
141.8254619297981
 21
150.7449240720177
  0
LINE
  8
0
  6
CONTINUOUS
 62
     7
 10
147.7298453350502
 20
142.0813044259625
 11
147.1166626502544
 21
141.4845249976258
  0
LINE
  8
0
  6
CONTINUOUS
 62
     7
 10
140.5
 20
89.27059831230252
 11
140.5
 21
118.2705983123025
  0
LINE
  8
0
  6
CONTINUOUS
 62
     7
 10
148.0874830435043
 20
140.9857726722929
 11
148.7006657283001
 21
141.5825521006296
  0
LINE
  8
0
  6
CONTINUOUS
 62
     7
 10
152.6594877671708
 20
140.336219029987
 11
152.442592483938
 21
139.6146787285427
  0
ARC
  8
0
  6
CONTINUOUS
 62
     7
 10
64.24403122427242
 20
212.9926909899357
 40
10.19985608285529
 50
98.96176827897881
 51
158.6237170555926
  0
LINE
  8
0
  6
CONTINUOUS
 62
     7
 10
164.2701546649498
 20
156.7355414747529
 11
164.8833373497456
 21
157.3323209030895
  0
LINE
  8
0
  6
CONTINUOUS
 62
     7
 10
143.0195811353977
 20
147.3591890608458
 11
142.0338397246755
 21
147.2362849294265
  0
LINE
  8
0
  6
CONTINUOUS
 62
     7
 10
148.0874830435043
 20
157.8310732284225
 11
148.7006657283001
 21
157.2342938000858
  0
LINE
  8
0
  6
CONTINUOUS
 62
     7
 10
153.6163696048185
 20
139.4382598087845
 11
153.8332648880514
 21
140.1598001102287
  0
LINE
  8
0
  6
CONTINUOUS
 62
     7
 10
171.5
 20
89.27059831230252
 11
171.5
 21
118.2705983123025
  0
LINE
  8
0
  6
CONTINUOUS
 62
     7
 10
158.1667351119486
 20
158.6570457904866
 11
158.3836303951814
 21
159.3785860919308
  0
LINE
  8
0
  6
CONTINUOUS
 62
     7
 10
147.7298453350502
 20
156.7355414747529
 11
147.1166626502544
 21
157.3323209030895
  0
LINE
  8
0
  6
CONTINUOUS
 62
     7
 10
143.926742546928
 20
154.827207614461
 11
144.8301877764958
 21
154.4583776439622
  0
LINE
  8
0
  6
CONTINUOUS
 62
     7
 10
142.03384
 20
151.5805609369608
 11
143.0195808859625
 21
151.4576568747418
  0
LINE
  8
0
  6
CONTINUOUS
 62
     7
 10
86.13246928894293
 20
204.1817545270006
 11
86.14889125825339
 21
204.1848897775676
  0
LINE
  8
0
  6
CONTINUOUS
 62
     7
 10
143.926742546928
 20
143.9896382862543
 11
144.8301877764958
 21
144.3584682567531
  0
LINE
  8
0
  6
CONTINUOUS
 62
     7
 10
149.579689783217
 20
89.27059831230252
 11
149.579689783217
 21
118.2705983123026
  0
LINE
  8
0
  6
CONTINUOUS
 62
     7
 10
168.0732574530719
 20
154.827207614461
 11
167.1698122235041
 21
154.4583776439622
  0
LINE
  8
0
  6
CONTINUOUS
 62
     7
 10
144.1935882268185
 20
153.7384722005185
 11
143.3267423081133
 21
154.0923603685474
  0
LINE
  8
0
  6
CONTINUOUS
 62
     7
 10
141.825462
 20
148.0719218374505
 11
142.8112030113658
 21
148.1948262049368
  0
LINE
  8
0
  6
CONTINUOUS
 62
     7
 10
143.3267419999999
 20
144.7244854063812
 11
144.1935886160606
 21
145.0783738517989
  0
ARC
  8
0
  6
CONTINUOUS
 62
     7
 10
64.12800331070052
 20
204.8867221004593
 40
10.0481010495605
 50
200.9771282113285
 51
263.0302062699524
  0
LINE
  8
0
  6
CONTINUOUS
 62
     7
 10
162.4203102167829
 20
89.27059831230252
 11
162.4203102167829
 21
118.2705983123026
  0
LINE
  8
0
  6
CONTINUOUS
 62
     7
 10
163.9125169564957
 20
157.8310732284224
 11
163.2993342716998
 21
157.2342938000858
  0
LINE
  8
0
  6
CONTINUOUS
 62
     7
 10
159.3405122328291
 20
158.4806268707284
 11
159.5574075160619
 21
159.2021671721726
  0
LINE
  8
0
  6
CONTINUOUS
 62
     7
 10
153.6163696048185
 20
159.3785860919309
 11
153.8332648880514
 21
158.6570457904866
  0
LINE
  8
0
  6
CONTINUOUS
 62
     7
 10
86.79606117717144
 20
208.9968647491467
 11
86.80955540432934
 21
208.9999137080301
  0
LINE
  8
0
  6
CONTINUOUS
 62
     7
 10
158.1667351119486
 20
140.1598001102287
 11
158.3836303951814
 21
139.4382598087845
  0
LINE
  8
0
  6
CONTINUOUS
 62
     7
 10
159.0118892371586
 20
139.525377990535
 11
159.0289114808618
 21
140.379361811232
  0
LINE
  8
0
  6
CONTINUOUS
 62
     7
 10
159.0289114808618
 20
140.379361811232
 11
159.0815397866254
 21
140.7295353797203
  0
LINE
  8
0
  6
CONTINUOUS
 62
     7
 10
167.8064117731814
 20
153.7384722005185
 11
168.6732576918866
 21
154.0923603685474
  0
LINE
  8
0
  6
CONTINUOUS
 62
     7
 10
148.0874830435043
 20
156.2964359664076
 11
148.0874830435043
 21
157.8310732284225
  0
LINE
  8
0
  6
CONTINUOUS
 62
     7
 10
153.6163696048185
 20
157.6108191389644
 11
153.6163696048185
 21
159.3785860919309
  0
LINE
  8
0
  6
CONTINUOUS
 62
     7
 10
153.8332648880514
 20
140.1598001102287
 11
154.05546056661
 21
140.5834369978356
  0
LINE
  8
0
  6
CONTINUOUS
 62
     7
 10
142.0338399556778
 20
150.7189430399436
 11
142.03384
 21
151.5805609369608
  0
LINE
  8
0
  6
CONTINUOUS
 62
     7
 10
152.9710885191382
 20
140.379361811232
 11
152.9014966636891
 21
140.7507743262294
  0
LINE
  8
0
  6
CONTINUOUS
 62
     7
 10
168.0732574530719
 20
143.9896382862543
 11
167.1698122235041
 21
144.3584682567531
  0
LINE
  8
0
  6
CONTINUOUS
 62
     7
 10
152.9880923715152
 20
139.5263006504031
 11
152.9710885191382
 21
140.379361811232
  0
LINE
  8
0
  6
CONTINUOUS
 62
     7
 10
169.9661602753245
 20
151.5805609712888
 11
168.9804191140375
 21
151.4576568747418
  0
LINE
  8
0
  6
CONTINUOUS
 62
     7
 10
170.1745380702019
 20
148.0719218286976
 11
169.1887969886341
 21
148.1948262049368
  0
LINE
  8
0
  6
CONTINUOUS
 62
     7
 10
169.9661602749151
 20
150.7189430686945
 11
169.9661602753245
 21
151.5805609712888
  0
LINE
  8
0
  6
CONTINUOUS
 62
     7
 10
145.4941193917866
 20
144.4805942170289
 11
145.4941193917866
 21
144.5486528403182
  0
LINE
  8
0
  6
CONTINUOUS
 62
     7
 10
152.8841105020843
 20
140.7594845311938
 11
152.6594877671708
 21
140.336219029987
  0
LINE
  8
0
  6
CONTINUOUS
 62
     7
 10
159.3405122328291
 20
140.336219029987
 11
159.5574075160619
 21
139.6146787285427
  0
LINE
  8
0
  6
CONTINUOUS
 62
     7
 10
152.9014966636891
 20
140.7507743262294
 11
152.8841105020843
 21
140.7594845311938
  0
LINE
  8
0
  6
CONTINUOUS
 62
     7
 10
168.0732574530719
 20
153.8474114326994
 11
168.0732574530719
 21
154.827207614461
  0
LINE
  8
0
  6
CONTINUOUS
 62
     7
 10
168.6732576849718
 20
144.7244855228132
 11
167.8064113839393
 21
145.0783738517989
  0
LINE
  8
0
  6
CONTINUOUS
 62
     7
 10
145.4941193917866
 20
144.5486528403182
 11
145.3772309458389
 21
144.9403789745927
  0
LINE
  8
0
  6
CONTINUOUS
 62
     7
 10
166.6230119703004
 20
144.9407146935258
 11
166.5058806082134
 21
144.5486528403182
  0
LINE
  8
0
  6
CONTINUOUS
 62
     7
 10
163.9125169564957
 20
140.9857726722929
 11
163.2993342716998
 21
141.5825521006296
  0
LINE
  8
0
  6
CONTINUOUS
 62
     7
 10
163.9125169564957
 20
156.2964038303829
 11
163.9125169564957
 21
157.8310732284224
  0
LINE
  8
0
  6
CONTINUOUS
 62
     7
 10
166.5058806082134
 20
144.480595381048
 11
166.5058806082134
 21
144.5486528403182
  0
LINE
  8
0
  6
CONTINUOUS
 62
     7
 10
168.9804188646022
 20
147.3591890608458
 11
169.9661602753244
 21
147.2362849294265
  0
LINE
  8
0
  6
CONTINUOUS
 62
     7
 10
157.9443989229023
 20
140.5834205978969
 11
158.1667351119486
 21
140.1598001102287
  0
LINE
  8
0
  6
CONTINUOUS
 62
     7
 10
169.1887967724549
 20
150.6220196718757
 11
170.1745380702019
 21
150.7449240720177
  0
LINE
  8
0
  6
CONTINUOUS
 62
     7
 10
143.926742546928
 20
153.8474114326994
 11
143.926742546928
 21
154.827207614461
  0
LINE
  8
0
  6
CONTINUOUS
 62
     7
 10
158.3836303951814
 20
159.3785860919308
 11
158.3836303951814
 21
157.6108191389644
  0
LINE
  8
0
  6
CONTINUOUS
 62
     7
 10
159.0815397866254
 20
140.7295353797203
 11
159.1160384448682
 21
140.7595127644849
  0
LINE
  8
0
  6
CONTINUOUS
 62
     7
 10
159.1160384448682
 20
140.7595127644849
 11
159.3405122328291
 21
140.336219029987
  0
LINE
  8
0
  6
CONTINUOUS
 62
     7
 10
164.2701546649498
 20
142.0813044259625
 11
164.8833373497456
 21
141.4845249976258
  0
LINE
  8
0
  6
CONTINUOUS
 62
     7
 10
145.507948285944
 20
148.878382215737
 11
145.4941186217854
 21
149.0616694169867
  0
LINE
  8
0
  6
CONTINUOUS
 62
     7
 10
166.3827838953564
 20
148.3391950794578
 11
166.3827838953564
 21
148.8337740443055
  0
LINE
  8
0
  6
CONTINUOUS
 62
     7
 10
149.1606725944948
 20
151.4832917235145
 11
148.9726794041275
 21
155.2241925638454
  0
ARC
  8
0
  6
CONTINUOUS
 62
     7
 10
160.2537133290237
 20
152.3529123925771
 40
2.012866430419824
 50
328.086945553943
 51
353.97690398253
  0
LINE
  8
0
  6
CONTINUOUS
 62
     7
 10
148.7737115161656
 20
151.6429513049264
 11
148.610768990133
 21
154.8847315014237
  0
LINE
  8
0
  6
CONTINUOUS
 62
     7
 10
166.4920517140559
 20
148.878382215737
 11
166.5058813782145
 21
149.0616694169868
  0
LINE
  8
0
  6
CONTINUOUS
 62
     7
 10
163.2262884838344
 20
151.6429513049264
 11
163.389231009867
 21
154.8847315014237
  0
LINE
  8
0
  6
CONTINUOUS
 62
     7
 10
148.6790665219238
 20
155.8411016434917
 11
148.3816441058123
 21
156.1305677094173
  0
LINE
  8
0
  6
CONTINUOUS
 62
     7
 10
162.4184106166171
 20
155.3834838267566
 11
162.2554680905844
 21
152.1417036302594
  0
LINE
  8
0
  6
CONTINUOUS
 62
     7
 10
165.2988280534657
 20
148.39125069616
 11
165.5272453801307
 21
148.3739387908641
  0
ARC
  8
0
  6
CONTINUOUS
 62
     7
 10
165.5809476096197
 20
155.0132720625265
 40
3.184132061093645
 50
135.7709781896024
 51
173.323249601216
  0
LINE
  8
0
  6
CONTINUOUS
 62
     7
 10
164.7784084508244
 20
148.1787902830578
 11
165.2988280534657
 21
148.39125069616
  0
LINE
  8
0
  6
CONTINUOUS
 62
     7
 10
146.1281146317901
 20
152.9350493079196
 11
146.3681893297358
 21
149.7538426752049
  0
LINE
  8
0
  6
CONTINUOUS
 62
     7
 10
147.2215915491756
 20
148.4353586634759
 11
147.0047391291708
 21
148.8300745023838
  0
LINE
  8
0
  6
CONTINUOUS
 62
     7
 10
166.3827840472416
 20
148.8337738775571
 11
166.4920517140559
 21
148.878382215737
  0
LINE
  8
0
  6
CONTINUOUS
 62
     7
 10
165.8718853682098
 20
152.9350493079196
 11
165.6318106702642
 21
149.7538426752049
  0
LINE
  8
0
  6
CONTINUOUS
 62
     7
 10
166.505881
 20
152.1468728585182
 11
166.5159331155583
 21
152.2825862018641
  0
ARC
  8
0
  6
CONTINUOUS
 62
     7
 10
168.5730265643349
 20
151.7590798355293
 40
2.122661624610149
 50
111.1712882437726
 51
165.7219757857054
  0
LINE
  8
0
  6
CONTINUOUS
 62
     7
 10
165.5590059224084
 20
147.0832544726196
 11
165.5590059224084
 21
148.2853360006367
  0
LINE
  8
0
  6
CONTINUOUS
 62
     7
 10
149.5815893833829
 20
155.3834838267566
 11
149.7445319094155
 21
152.1417036302594
  0
ARC
  8
0
  6
CONTINUOUS
 62
     7
 10
146.4195635015362
 20
155.0135153343448
 40
3.183596136893886
 50
6.67347137944057
 51
44.23230082974136
  0
ARC
  8
0
  6
CONTINUOUS
 62
     7
 10
151.7462866709763
 20
152.3529123925771
 40
2.012866430419824
 50
186.02309601747
 51
211.9130544460569
  0
LINE
  8
0
  6
CONTINUOUS
 62
     7
 10
150.3237496051879
 20
150.6078965786024
 11
150.1765684095258
 21
151.0573267377072
  0
ARC
  8
0
  6
CONTINUOUS
 62
     7
 10
144.0661109225366
 20
152.4927557435758
 40
2.108905615250509
 50
12.10632967946714
 51
68.75789258081471
  0
LINE
  8
0
  6
CONTINUOUS
 62
     7
 10
147.2215915491756
 20
148.1787902830578
 11
145.507948285944
 21
148.878382215737
  0
LINE
  8
0
  6
CONTINUOUS
 62
     7
 10
145.494119
 20
147.9042321713989
 11
145.494119
 21
152.1468728585182
  0
LINE
  8
0
  6
CONTINUOUS
 62
     7
 10
144.4984897481535
 20
146.6086333571717
 11
144.4984897481535
 21
150.2126035126181
  0
LINE
  8
0
  6
CONTINUOUS
 62
     7
 10
167.5015102518464
 20
146.6108689226988
 11
167.5015102518464
 21
150.2126035126181
  0
ARC
  8
0
  6
CONTINUOUS
 62
     7
 10
167.9726952204623
 20
152.436822681827
 40
2.175156447646509
 50
111.661050933445
 51
163.2088199416609
  0
LINE
  8
0
  6
CONTINUOUS
 62
     7
 10
165.8902787890498
 20
153.0651915049883
 11
165.8718853682098
 21
152.9350493079196
  0
LINE
  8
0
  6
CONTINUOUS
 62
     7
 10
165.9221627250302
 20
147.2315126429703
 11
165.5590059224084
 21
147.0832544726196
  0
ARC
  8
0
  6
CONTINUOUS
 62
     7
 10
145.4533270003017
 20
154.5169447883231
 40
3.178790176385233
 50
6.644014127788529
 51
44.26175808139288
  0
LINE
  8
0
  6
CONTINUOUS
 62
     7
 10
150.3237496051879
 20
150.3513281981843
 11
149.1606725944948
 21
151.4832917235145
  0
ARC
  8
0
  6
CONTINUOUS
 62
     7
 10
166.5602748679476
 20
154.5104707538914
 40
3.193053437857523
 50
135.8253921091799
 51
173.2688356816423
  0
LINE
  8
0
  6
CONTINUOUS
 62
     7
 10
166.505881
 20
147.9042321713989
 11
166.505881
 21
152.1468728585182
  0
LINE
  8
0
  6
CONTINUOUS
 62
     7
 10
164.9952608708292
 20
148.8300745023838
 11
164.7784084508244
 21
148.4353586634759
  0
LINE
  8
0
  6
CONTINUOUS
 62
     7
 10
148.3816441058123
 20
156.1305677094173
 11
148.15580502947
 21
156.223358001915
  0
LINE
  8
0
  6
CONTINUOUS
 62
     7
 10
150.3237496051879
 20
150.6078965786024
 11
150.3237496051879
 21
150.3513281981843
  0
LINE
  8
0
  6
CONTINUOUS
 62
     7
 10
158.0040212552036
 20
152.8124486733427
 11
157.9777887390905
 21
152.7251815954158
  0
LINE
  8
0
  6
CONTINUOUS
 62
     7
 10
153.0287246302202
 20
153.1756470503254
 11
152.9710885191382
 21
156.45058025704
  0
ARC
  8
0
  6
CONTINUOUS
 62
     7
 10
150.7399977011426
 20
151.8419693586122
 40
1.976332347284824
 50
185.7795213992332
 51
212.1566290642954
  0
LINE
  8
0
  6
CONTINUOUS
 62
     7
 10
157.7974982488992
 20
153.3520659700836
 11
157.8551343599813
 21
156.6269991767983
  0
LINE
  8
0
  6
CONTINUOUS
 62
     7
 10
163.6183558941877
 20
156.1305677094173
 11
163.8442036756963
 21
156.2233539374852
  0
LINE
  8
0
  6
CONTINUOUS
 62
     7
 10
149.352929211938
 20
149.8525758728514
 11
149.3529292119379
 21
150.1091442532694
  0
LINE
  8
0
  6
CONTINUOUS
 62
     7
 10
154.4073829215792
 20
151.4438403324569
 11
153.9959787447964
 21
152.8124486733427
  0
LINE
  8
0
  6
CONTINUOUS
 62
     7
 10
158.3836303951814
 20
157.6108191389644
 11
158.3536005528921
 21
157.7593974957717
  0
ARC
  8
0
  6
CONTINUOUS
 62
     7
 10
167.8788298103015
 20
156.131105294868
 40
8.855682847144301
 50
164.6144895212426
 51
177.9325660067534
  0
LINE
  8
0
  6
CONTINUOUS
 62
     7
 10
162.647070788062
 20
150.1091442532694
 11
162.647070788062
 21
149.8525758728513
  0
LINE
  8
0
  6
CONTINUOUS
 62
     7
 10
163.3209334780761
 20
155.8411016434917
 11
163.6183558941877
 21
156.1305677094173
  0
LINE
  8
0
  6
CONTINUOUS
 62
     7
 10
161.676250394812
 20
150.3513281981843
 11
162.0294674783985
 21
150.6950963678475
  0
LINE
  8
0
  6
CONTINUOUS
 62
     7
 10
165.5272453801307
 20
148.3739387908641
 11
165.559006035093
 21
148.2853358780197
  0
LINE
  8
0
  6
CONTINUOUS
 62
     7
 10
161.676250394812
 20
150.3513281981843
 11
161.676250394812
 21
150.6078965786024
  0
LINE
  8
0
  6
CONTINUOUS
 62
     7
 10
162.8393274055052
 20
151.4832917235145
 11
163.0273205958724
 21
155.2241925638454
  0
LINE
  8
0
  6
CONTINUOUS
 62
     7
 10
153.9294817003077
 20
156.5915994433439
 11
153.8256248060648
 21
157.2682483043762
  0
LINE
  8
0
  6
CONTINUOUS
 62
     7
 10
162.647070788062
 20
150.1091442532694
 11
162.7942519837241
 21
150.5585744123743
  0
LINE
  8
0
  6
CONTINUOUS
 62
     7
 10
162.206054250185
 20
149.4527459511092
 11
162.206054250185
 21
150.6548274791263
  0
LINE
  8
0
  6
CONTINUOUS
 62
     7
 10
154.4073829215792
 20
151.7004087128749
 11
154.4073829215792
 21
151.4438403324569
  0
LINE
  8
0
  6
CONTINUOUS
 62
     7
 10
162.7651656975169
 20
151.4111139161577
 11
162.8393274055052
 21
151.4832917235145
  0
LINE
  8
0
  6
CONTINUOUS
 62
     7
 10
162.0294674783985
 20
150.6950963678475
 11
162.1646959739629
 21
150.7509972148829
  0
LINE
  8
0
  6
CONTINUOUS
 62
     7
 10
158.2795795984003
 20
157.6182292563804
 11
158.1743751939351
 21
157.2682483043762
  0
LINE
  8
0
  6
CONTINUOUS
 62
     7
 10
157.7800194178718
 20
150.6530543099664
 11
157.7800194178718
 21
151.8551358379835
  0
LINE
  8
0
  6
CONTINUOUS
 62
     7
 10
161.8234315904741
 20
151.0573267377072
 11
161.676250394812
 21
150.6078965786024
  0
ARC
  8
0
  6
CONTINUOUS
 62
     7
 10
145.3084582032181
 20
156.3095980607526
 40
8.842106075908147
 50
2.057162858052607
 51
15.39578161395139
  0
LINE
  8
0
  6
CONTINUOUS
 62
     7
 10
157.7175572003237
 20
151.8594756191105
 11
157.7619713423269
 21
151.9442547179414
  0
ARC
  8
0
  6
CONTINUOUS
 62
     7
 10
144.121534451109
 20
156.1311612069482
 40
8.855316805881836
 50
2.067157490671352
 51
15.3857869813356
  0
LINE
  8
0
  6
CONTINUOUS
 62
     7
 10
157.7175572003237
 20
151.8594756191105
 11
157.5926170784207
 21
151.4438403324569
  0
LINE
  8
0
  6
CONTINUOUS
 62
     7
 10
157.9777884622127
 20
151.3109680648062
 11
157.7800194178718
 21
150.6530543099664
  0
LINE
  8
0
  6
CONTINUOUS
 62
     7
 10
157.5926170784207
 20
151.4438403324569
 11
157.5926170784207
 21
151.7004087128749
  0
ARC
  8
0
  6
CONTINUOUS
 62
     7
 10
161.2600022988563
 20
151.8419693586127
 40
1.976332347285983
 50
327.8433709357086
 51
354.2204786007556
  0
LINE
  8
0
  6
CONTINUOUS
 62
     7
 10
149.2057480162758
 20
150.5585744123743
 11
149.3529292119379
 21
150.1091442532694
  0
LINE
  8
0
  6
CONTINUOUS
 62
     7
 10
153.6944335858358
 20
157.6934754336892
 11
153.646402981104
 21
157.7593978936991
  0
LINE
  8
0
  6
CONTINUOUS
 62
     7
 10
158.9712753697797
 20
153.1756470503254
 11
159.0289114808618
 21
156.45058025704
  0
LINE
  8
0
  6
CONTINUOUS
 62
     7
 10
153.9959787447964
 20
152.8124486733427
 11
153.9294817003077
 21
156.5915994433439
  0
LINE
  8
0
  6
CONTINUOUS
 62
     7
 10
162.7651654628471
 20
150.8436872659831
 11
162.7651654628471
 21
151.4111140248069
  0
LINE
  8
0
  6
CONTINUOUS
 62
     7
 10
162.5425569706077
 20
149.7802469370385
 11
162.206054250185
 21
149.4527459511092
  0
LINE
  8
0
  6
CONTINUOUS
 62
     7
 10
154.1448656400187
 20
156.6269991767983
 11
154.2025017511008
 21
153.3520659700836
  0
ARC
  8
0
  6
CONTINUOUS
 62
     7
 10
166.7046884280062
 20
156.3075801267073
 40
8.855316805877589
 50
164.6142130186628
 51
177.9328425093333
  0
LINE
  8
0
  6
CONTINUOUS
 62
     7
 10
158.1743751939351
 20
157.2682483043762
 11
158.0705182996923
 21
156.5915994433439
  0
LINE
  8
0
  6
CONTINUOUS
 62
     7
 10
153.0462030572397
 20
150.4766353294856
 11
153.0462030572397
 21
151.2299057239958
  0
ARC
  8
0
  6
CONTINUOUS
 62
     7
 10
156.0000000000001
 20
221.6898217014536
 40
101.0520480686509
 50
263.7153785567288
 51
276.2846214432711
  0
LINE
  8
0
  6
CONTINUOUS
 62
     7
 10
153.646402981104
 20
157.7593978936991
 11
153.6163696048174
 21
157.6108191389688
  0
LINE
  8
0
  6
CONTINUOUS
 62
     7
 10
164.6947944580855
 20
148.0853046071412
 11
164.6947944580855
 21
148.2674861632118
  0
LINE
  8
0
  6
CONTINUOUS
 62
     7
 10
148.8231250224137
 20
148.9539934541083
 11
148.8231250224137
 21
149.5246453895031
  0
LINE
  8
0
  6
CONTINUOUS
 62
     7
 10
164.8926749207122
 20
147.7137076545823
 11
164.6947944580855
 21
148.0853046071412
  0
LINE
  8
0
  6
CONTINUOUS
 62
     7
 10
158.3536005528921
 20
157.7593974957717
 11
158.2795795984003
 21
157.6182292563804
  0
LINE
  8
0
  6
CONTINUOUS
 62
     7
 10
158.7663941993013
 20
151.5239897931167
 11
158.7663941993013
 21
151.2674214126986
  0
LINE
  8
0
  6
CONTINUOUS
 62
     7
 10
162.5425569706077
 20
149.4082388189698
 11
162.5425569706077
 21
150.6103203469869
  0
LINE
  8
0
  6
CONTINUOUS
 62
     7
 10
165.9221627250301
 20
146.7214563495742
 11
165.9221627250302
 21
148.1356699119473
  0
LINE
  8
0
  6
CONTINUOUS
 62
     7
 10
175.0
 20
118.2705983123025
 11
136.9999999999999
 21
118.2705983123025
  0
LINE
  8
0
  6
CONTINUOUS
 62
     7
 10
163.1017498740784
 20
151.196538436399
 11
162.5425569706077
 21
150.6103203469869
  0
LINE
  8
0
  6
CONTINUOUS
 62
     7
 10
151.2411812760131
 20
150.1073851726968
 11
151.2411812760131
 21
150.7234165980604
  0
LINE
  8
0
  6
CONTINUOUS
 62
     7
 10
166.505881
 20
148.3935854558811
 11
165.9221627250302
 21
148.1356699119473
  0
LINE
  8
0
  6
CONTINUOUS
 62
     7
 10
157.7619713423269
 20
151.9442547179414
 11
157.7800196221387
 21
151.8551358151505
  0
LINE
  8
0
  6
CONTINUOUS
 62
     7
 10
144.9380827442208
 20
121.2450587444173
 11
144.6392509922548
 21
121.3300587536434
  0
LINE
  8
0
  6
CONTINUOUS
 62
     7
 10
148.7443607126556
 20
148.9063847059247
 11
148.5627258306929
 21
148.7239408041886
  0
LINE
  8
0
  6
CONTINUOUS
 62
     7
 10
162.1646959739629
 20
150.7509972148829
 11
162.2060544236583
 21
150.6548273995189
  0
LINE
  8
0
  6
CONTINUOUS
 62
     7
 10
151.5168095422234
 20
149.9790500852727
 11
151.2613858817554
 21
150.0338058783344
  0
LINE
  8
0
  6
CONTINUOUS
 62
     7
 10
162.5425569706077
 20
149.4082388189698
 11
162.510887943311
 21
149.3197560991324
  0
ARC
  8
0
  6
CONTINUOUS
 62
     7
 10
169.5795000000001
 20
89.7662539176026
 40
0.4999999999999195
 50
262.441559031887
 51
269.4994267598881
  0
LINE
  8
0
  6
CONTINUOUS
 62
     7
 10
126.3073441983863
 20
88.013633877425
 11
125.9999999999999
 21
86.27059831230252
  0
LINE
  8
0
  6
CONTINUOUS
 62
     7
 10
160.8182454729994
 20
150.2104193617714
 11
160.8151102224324
 21
150.2268413310818
  0
ARC
  8
0
  6
CONTINUOUS
 62
     7
 10
142.4204999999999
 20
89.7662539176026
 40
0.4999999999999446
 50
270.5005732401119
 51
277.5584409681122
  0
LINE
  8
0
  6
CONTINUOUS
 62
     7
 10
158.0316836787031
 20
150.6969487845924
 11
158.0273275411514
 21
150.6611984124635
  0
LINE
  8
0
  6
CONTINUOUS
 62
     7
 10
158.20533185637
 20
152.5953945529295
 11
158.0316836787031
 21
151.8990303126095
  0
ARC
  8
0
  6
CONTINUOUS
 62
     7
 10
155.5991201086381
 20
155.5294497218925
 40
15.01742718298394
 50
245.5250156638859
 51
259.5834304634977
  0
LINE
  8
0
  6
CONTINUOUS
 62
     7
 10
156.0031352508533
 20
150.8740112499999
 11
156.0000862919699
 21
150.8875054771578
  0
LINE
  8
0
  6
CONTINUOUS
 62
     7
 10
175.0
 20
118.2705983123025
 11
175.0
 21
119.8869348183131
  0
ARC
  8
0
  6
CONTINUOUS
 62
     7
 10
184.7078480486
 20
87.83998569980253
 40
0.999999999999934
 50
9.999999997477925
 51
88.00000000042297
  0
ARC
  8
0
  6
CONTINUOUS
 62
     7
 10
160.7627086501665
 20
147.8408400284188
 40
10.95864211108618
 50
3.577144449557958
 51
67.96113317655579
  0
ARC
  8
0
  6
CONTINUOUS
 62
     7
 10
156.1105821480813
 20
139.8649950373467
 40
20.14059251757319
 50
64.20510145239774
 51
126.4144230310624
  0
ARC
  8
0
  6
CONTINUOUS
 62
     7
 10
150.2195818711625
 20
148.2174831695562
 40
9.924333129874109
 50
127.670017376533
 51
178.2270004278467
  0
LINE
  8
0
  6
CONTINUOUS
 62
     7
 10
153.1009577980322
 20
150.4278523788449
 11
152.8793557254176
 21
150.3107979115833
  0
ARC
  8
0
  6
CONTINUOUS
 62
     7
 10
153.3812811351354
 20
151.2068231319763
 40
10.14857444688374
 50
223.1156633891692
 51
240.7738432002928
  0
LINE
  8
0
  6
CONTINUOUS
 62
     7
 10
158.0316879856278
 20
151.3639632443085
 11
157.9777910199862
 21
151.4088115850305
  0
ARC
  8
0
  6
CONTINUOUS
 62
     7
 10
161.4507717153221
 20
148.733963248148
 40
6.414109490592816
 50
323.7445823557524
 51
341.6036691907275
  0
ARC
  8
0
  6
CONTINUOUS
 62
     7
 10
157.2104073564987
 20
141.5669075753957
 40
16.12966781072007
 50
270.9091018791344
 51
325.2087911404793
  0
ARC
  8
0
  6
CONTINUOUS
 62
     7
 10
162.739883403257
 20
136.9200110221435
 40
8.961619212949104
 50
329.4396859231409
 51
358.308247578646
  0
LINE
  8
0
  6
CONTINUOUS
 62
     7
 10
153.1695138214839
 20
150.5768886201793
 11
153.1009577980322
 21
150.4278523788449
  0
LINE
  8
0
  6
CONTINUOUS
 62
     7
 10
141.9
 20
131.7988295475118
 11
141.9
 21
127.4274525617949
  0
ARC
  8
0
  6
CONTINUOUS
 62
     7
 10
174.5
 20
119.8869348183131
 40
0.5000000000000004
 50
0.0000000000002108
 51
74.99999999999929
  0
ARC
  8
0
  6
CONTINUOUS
 62
     7
 10
151.2619781343956
 20
137.5533004104405
 40
10.98406043649809
 50
183.6337173380844
 51
248.1868684107915
  0
ARC
  8
0
  6
CONTINUOUS
 62
     7
 10
155.5974845745906
 20
144.7182026321428
 40
19.29513403959517
 50
244.1368947261311
 51
262.4672545216346
  0
ARC
  8
0
  6
CONTINUOUS
 62
     7
 10
137.4999999999999
 20
119.8869348183131
 40
0.4999999999999986
 50
105.0000000000007
 51
180.0000000000002
  0
LINE
  8
0
  6
CONTINUOUS
 62
     7
 10
186.0
 20
86.27059831230252
 11
185.6926558016136
 21
88.013633877425
  0
ARC
  8
0
  6
CONTINUOUS
 62
     7
 10
157.5
 20
124.9404054690458
 40
0.5000000000000004
 50
93.88504268830133
 51
180.0
  0
ARC
  8
0
  6
CONTINUOUS
 62
     7
 10
156.0000000334441
 20
157.6606508066456
 40
17.18756715995621
 50
263.5037781070497
 51
276.4961561115077
  0
LINE
  8
0
  6
CONTINUOUS
 62
     7
 10
162.510887943311
 20
149.3197560991324
 11
162.2916946032806
 21
149.3124744571508
  0
ARC
  8
0
  6
CONTINUOUS
 62
     7
 10
153.0
 20
125.0942335153168
 40
0.4999999999999642
 50
0.0
 51
82.16178981630969
  0
ARC
  8
0
  6
CONTINUOUS
 62
     7
 10
156.4084431939947
 20
155.5053779123179
 40
14.99238512744301
 50
280.4045651536971
 51
294.4869013518266
  0
LINE
  8
0
  6
CONTINUOUS
 62
     7
 10
151.2613858817554
 20
150.0338058783344
 11
151.2411812760131
 21
150.1073851726968
  0
LINE
  8
0
  6
CONTINUOUS
 62
     7
 10
167.3609470657557
 20
121.3302559220955
 11
167.0619172557791
 21
121.2450587444173
  0
ARC
  8
0
  6
CONTINUOUS
 62
     7
 10
150.4806310720057
 20
148.6985216831931
 40
6.337844548606948
 50
198.2884925177642
 51
216.3630741490927
  0
LINE
  8
0
  6
CONTINUOUS
 62
     7
 10
140.2999999999999
 20
148.5245394738745
 11
140.2999999999999
 21
136.8572775842965
  0
LINE
  8
0
  6
CONTINUOUS
 62
     7
 10
136.9999999999999
 20
119.8869348183131
 11
136.9999999999999
 21
118.2705983123025
  0
LINE
  8
0
  6
CONTINUOUS
 62
     7
 10
174.6294095225512
 20
120.3698977314576
 11
169.2885893368274
 21
121.8009661871421
  0
ARC
  8
0
  6
CONTINUOUS
 62
     7
 10
127.2921519513999
 20
87.83998569980253
 40
0.9999999999999213
 50
91.99999999957703
 51
170.0000000025221
  0
LINE
  8
0
  6
CONTINUOUS
 62
     7
 10
142.712525442063
 20
121.8012648912456
 11
137.3705904774487
 21
120.3698977314576
  0
ARC
  8
0
  6
CONTINUOUS
 62
     7
 10
158.7470664348332
 20
151.0428736291675
 40
9.94288028077237
 50
299.0420853091464
 51
317.0683751594222
  0
LINE
  8
0
  6
CONTINUOUS
 62
     7
 10
84.9320055283499
 20
218.1999220511295
 11
84.7521244295554
 21
217.9952608708292
  0
LINE
  8
0
  6
CONTINUOUS
 62
     7
 10
82.92142075334719
 20
220.7098882074824
 11
85.29901583639578
 21
220.7098882074824
  0
LINE
  8
0
  6
CONTINUOUS
 62
     7
 10
82.921495419735
 20
197.2901117925176
 11
85.29901583639578
 21
197.2901117925176
  0
ARC
  8
0
  6
CONTINUOUS
 62
     7
 10
150.6088389048716
 20
127.7014492431725
 40
8.73101044560314
 50
186.4612216710748
 51
226.8640437198137
  0
LINE
  8
0
  6
CENTER
 62
     1
 10
58.87057030083191
 20
78.99999999999999
 11
58.87057030083191
 21
163.0
  0
ARC
  8
0
  6
CONTINUOUS
 62
     7
 10
161.3996011630536
 20
127.6891417863325
 40
8.716238845286366
 50
313.1556715450251
 51
355.2708686956066
  0
LINE
  8
0
  6
CENTER
 62
     1
 10
26.8705703008319
 20
209.0
 11
90.87057030083199
 21
209.0
  0
LINE
  8
0
  6
CENTER
 62
     1
 10
87.36500945274653
 20
153.6349905472535
 11
58.87057030083191
 21
125.1405513953387
  0
LINE
  8
0
  6
CENTER
 62
     1
 10
58.87057030083194
 20
177.0
 11
58.87057030083194
 21
241.0
  0
LINE
  8
0
  6
CONTINUOUS
 62
     7
 10
84.7521244295554
 20
200.0047391291708
 11
84.93200552834979
 21
199.8000779488704
  0
ARC
  8
0
  6
CONTINUOUS
 62
     7
 10
72.46633327997688
 20
156.6261159385033
 40
2.999999999999947
 50
89.58288882116477
 51
135.0000000000001
  0
ARC
  8
0
  6
CONTINUOUS
 62
     7
 10
84.91907551883973
 20
204.8614950439
 40
9.636021825447191
 50
330.3494832214777
 51
336.8672404621395
  0
ARC
  8
0
  6
CONTINUOUS
 62
     7
 10
85.33047287752927
 20
216.2074408472949
 40
7.092559152705069
 50
72.18347386105245
 51
79.14084624200487
  0
LINE
  8
0
  6
CONTINUOUS
 62
     7
 10
53.08665718247479
 20
137.104964282007
 11
54.73424609896767
 21
135.0427089517918
  0
LINE
  8
0
  6
CONTINUOUS
 62
     7
 10
70.34501293641716
 20
158.747436282063
 11
53.96508331186299
 21
142.3675066575087
  0
ARC
  8
0
  6
CONTINUOUS
 62
     7
 10
74.33650240875295
 20
209.0
 40
21.10559743974397
 50
6.486695954117636
 51
7.527117653368691
  0
ARC
  8
0
  6
CONTINUOUS
 62
     7
 10
78.57603753766668
 20
209.560186833279
 40
16.82921258832183
 50
7.527117653368552
 51
10.26616721249833
  0
ARC
  8
0
  6
CONTINUOUS
 62
     7
 10
84.91907551883939
 20
213.1385049560997
 40
9.636021825447617
 50
23.1327595378607
 51
29.65051677852252
  0
ARC
  8
0
  6
CONTINUOUS
 62
     7
 10
96.32444334630502
 20
209.0
 40
21.10559743974341
 50
186.4866959541179
 51
187.5271176533692
  0
ARC
  8
0
  6
CONTINUOUS
 62
     7
 10
92.08490821739129
 20
208.4398131667209
 40
16.82921258832125
 50
187.5271176533684
 51
190.2661672124983
  0
ARC
  8
0
  6
CONTINUOUS
 62
     7
 10
78.57603753766668
 20
208.439813166721
 40
16.82921258832183
 50
349.7338327875018
 51
352.4728823466314
  0
ARC
  8
0
  6
CONTINUOUS
 62
     7
 10
74.3365024087528
 20
209.0
 40
21.10559743974411
 50
352.4728823466312
 51
353.5133040458825
  0
ARC
  8
0
  6
CONTINUOUS
 62
     7
 10
77.88958383254601
 20
216.8769299740096
 40
0.4882095974770392
 50
267.3792420263043
 51
321.5570152916149
  0
LINE
  8
0
  6
CONTINUOUS
 62
     7
 10
61.8322128453573
 20
145.6123612287289
 11
59.52107536422026
 21
147.9234987098659
  0
ARC
  8
0
  6
CONTINUOUS
 62
     7
 10
77.6460632495871
 20
201.2677344835993
 40
0.6457411778728851
 50
303.593969999239
 51
14.24494166625533
  0
ARC
  8
0
  6
CONTINUOUS
 62
     7
 10
77.63970976077313
 20
216.7298095430624
 40
0.6513142408245022
 50
346.1042694644533
 51
56.06000641362823
  0
ARC
  8
0
  6
CONTINUOUS
 62
     7
 10
79.4586668803692
 20
219.6582912057816
 40
0.9680358034327757
 50
319.2524866888751
 51
31.89817272484828
  0
ARC
  8
0
  6
CONTINUOUS
 62
     7
 10
77.04138508072192
 20
215.7125933859113
 40
0.7475525447199697
 50
353.0784285778787
 51
51.7098092379054
  0
LINE
  8
0
  6
CONTINUOUS
 62
     7
 10
95.35614902019091
 20
137.6149798547296
 11
95.43482176909716
 21
136.6824022112283
  0
ARC
  8
0
  6
CONTINUOUS
 62
     7
 10
79.47363495512789
 20
198.3428755488715
 40
0.9559860338190477
 50
327.5684180031621
 51
41.2746039141507
  0
LINE
  8
0
  6
CONTINUOUS
 62
     7
 10
73.39270443824132
 20
159.6261159385033
 11
72.46633327997688
 21
159.6261159385033
  0
ARC
  8
0
  6
CONTINUOUS
 62
     7
 10
85.74187023621906
 20
213.1385049560998
 40
9.636021825447502
 50
150.3494832214775
 51
156.8672404621394
  0
ARC
  8
0
  6
CONTINUOUS
 62
     7
 10
58.87057030083194
 20
209.0
 40
19.00000000000002
 50
53.57766489717346
 51
306.4386355247227
  0
LINE
  8
0
  6
CONTINUOUS
 62
     7
 10
76.49928356208508
 20
120.6368224054529
 11
81.86564964971511
 21
126.003188493083
  0
LINE
  8
0
  6
CONTINUOUS
 62
     7
 10
52.44975176386689
 20
89.32877932901765
 11
41.37057030083204
 21
89.23198192230261
  0
LINE
  8
0
  6
CONTINUOUS
 62
     7
 10
76.37057030083196
 20
89.23198192230261
 11
65.29138883779687
 21
89.32877932901765
  0
ARC
  8
0
  6
CONTINUOUS
 62
     7
 10
92.08490821739107
 20
209.5601868332792
 40
16.82921258832103
 50
169.7338327875016
 51
172.4728823466316
  0
ARC
  8
0
  6
CONTINUOUS
 62
     7
 10
96.32444334630502
 20
209.0
 40
21.10559743974341
 50
172.4728823466308
 51
173.5133040458819
  0
LINE
  8
0
  6
CONTINUOUS
 62
     7
 10
53.08640365542262
 20
140.246186313949
 11
53.08640365542262
 21
137.1038983829662
  0
ARC
  8
0
  6
CONTINUOUS
 62
     7
 10
85.33047287752927
 20
201.792559152705
 40
7.092559152705069
 50
252.1834737925842
 51
259.140846242005
  0
LINE
  8
0
  6
CONTINUOUS
 62
     7
 10
75.1127798893836
 20
159.6261159385033
 11
95.54816586567479
 21
139.1907299622121
  0
ARC
  8
0
  6
CONTINUOUS
 62
     7
 10
80.21470121272755
 20
197.7018953835579
 40
0.9358076076104198
 50
327.0999727117526
 51
46.1701790390814
  0
ARC
  8
0
  6
CONTINUOUS
 62
     7
 10
81.99763596626451
 20
196.3097119005438
 40
1.315983523282436
 50
347.2635330224356
 51
61.20986745274377
  0
LINE
  8
0
  6
CONTINUOUS
 62
     7
 10
77.49997982338452
 20
120.3698977314627
 11
76.49820198485558
 21
120.6383232942865
  0
LINE
  8
0
  6
CONTINUOUS
 62
     7
 10
68.38465515033617
 20
121.3450391893002
 11
76.50023871162544
 21
120.6377775549933
  0
ARC
  8
0
  6
CONTINUOUS
 62
     7
 10
72.98190388035488
 20
212.0728941469998
 40
0.5792673195930849
 50
261.4930291985133
 51
343.4003297874079
  0
ARC
  8
0
  6
CONTINUOUS
 62
     7
 10
72.78995701877122
 20
207.3790583168836
 40
0.6255181799404148
 50
15.50717832789889
 51
96.93504665854981
  0
ARC
  8
0
  6
CONTINUOUS
 62
     7
 10
89.58595278616298
 20
207.8981261078202
 40
14.53480727381598
 50
228.5950378702593
 51
232.3122909397717
  0
ARC
  8
0
  6
CONTINUOUS
 62
     7
 10
81.07499296889557
 20
210.1018738921798
 40
14.53480727381598
 50
48.59503787025952
 51
52.31229089419951
  0
ARC
  8
0
  6
CONTINUOUS
 62
     7
 10
89.58595278616286
 20
210.1018738921799
 40
14.53480727381583
 50
127.6877090602282
 51
131.4049621297408
  0
ARC
  8
0
  6
CONTINUOUS
 62
     7
 10
77.04165457264864
 20
202.2871569557018
 40
0.7471896051547231
 50
308.2858337070647
 51
6.972888278460402
  0
ARC
  8
0
  6
CONTINUOUS
 62
     7
 10
85.33047287752927
 20
216.2074408472949
 40
7.092559152705069
 50
100.8591537579951
 51
107.8165261389484
  0
ARC
  8
0
  6
CONTINUOUS
 62
     7
 10
85.1189609624655
 20
209.0
 40
25.38575356388926
 50
174.3470463915701
 51
180.0
  0
ARC
  8
0
  6
CONTINUOUS
 62
     7
 10
85.1189609624642
 20
209.0
 40
25.38575356388797
 50
179.9999999999999
 51
182.257666663486
  0
ARC
  8
0
  6
CONTINUOUS
 62
     7
 10
77.8895654319624
 20
201.1230188608351
 40
0.4882598681918194
 50
38.44945236336832
 51
92.61832644512799
  0
LINE
  8
0
  6
CONTINUOUS
 62
     7
 10
75.37552842583398
 20
206.5741008515265
 11
76.2533828158662
 21
206.8901686954843
  0
LINE
  8
0
  6
CONTINUOUS
 62
     7
 10
76.37057030083201
 20
89.23198192230261
 11
41.37057030083182
 21
89.23198192230261
  0
LINE
  8
0
  6
CONTINUOUS
 62
     7
 10
59.7332073985762
 20
148.1356307442219
 11
84.05768067139343
 21
123.8111574714047
  0
ARC
  8
0
  6
CONTINUOUS
 62
     7
 10
85.74187023621916
 20
204.8614950439003
 40
9.636021825447617
 50
203.1327595378607
 51
209.6505167785223
  0
ARC
  8
0
  6
CONTINUOUS
 62
     7
 10
81.07499296889557
 20
207.8981261078202
 40
14.53480727381598
 50
307.6877091058005
 51
311.4049621297406
  0
LINE
  8
0
  6
CONTINUOUS
 62
     7
 10
45.66597701007147
 20
121.8234728598532
 11
40.24116077828062
 21
120.3698977314576
  0
ARC
  8
0
  6
CONTINUOUS
 62
     7
 10
96.51689264298871
 20
209.0
 40
23.17187970657143
 50
172.7892618906158
 51
180.0
  0
ARC
  8
0
  6
CONTINUOUS
 62
     7
 10
96.51689264298871
 20
209.0
 40
23.17187970657143
 50
180.0
 51
183.5971694657796
  0
ARC
  8
0
  6
CONTINUOUS
 62
     7
 10
85.33047287752927
 20
201.792559152705
 40
7.092559152705069
 50
280.8591537407648
 51
287.8165261389473
  0
LINE
  8
0
  6
CONTINUOUS
 62
     7
 10
72.89621301805394
 20
211.5
 11
59.86236462861506
 21
211.5
  0
ARC
  8
0
  6
CONTINUOUS
 62
     7
 10
56.08640365542262
 20
140.246186313949
 40
3.000000000000028
 50
135.0
 51
181.2992605418939
  0
ARC
  8
0
  6
CONTINUOUS
 62
     7
 10
80.25772652845616
 20
220.2931359381898
 40
0.9028017852879193
 50
312.0503433737653
 51
34.64823960477906
  0
ARC
  8
0
  6
CONTINUOUS
 62
     7
 10
85.85319881203871
 20
222.0020018112993
 40
1.526660525550432
 50
280.623800390092
 51
359.1899620572146
  0
ARC
  8
0
  6
CONTINUOUS
 62
     7
 10
74.77764877678217
 20
209.901533184511
 40
11.89211504221277
 50
38.3069537368022
 51
40.83457293269355
  0
ARC
  8
0
  6
CONTINUOUS
 62
     7
 10
77.92280722673615
 20
212.3860495095361
 40
7.884017857184277
 50
31.07213087236846
 51
38.30695373680209
  0
ARC
  8
0
  6
CONTINUOUS
 62
     7
 10
69.84853444618298
 20
209.0
 40
16.82544131560073
 50
353.9255211627698
 51
357.1581558354376
  0
ARC
  8
0
  6
CONTINUOUS
 62
     7
 10
75.22047796965408
 20
208.1215830509894
 40
11.58718901548952
 50
311.8860263453798
 51
315.712358129979
  0
ARC
  8
0
  6
CONTINUOUS
 62
     7
 10
77.92280722673597
 20
212.3860495095363
 40
7.884017857184039
 50
22.94011718849811
 51
31.07213087236789
  0
ARC
  8
0
  6
CONTINUOUS
 62
     7
 10
66.54008734213204
 20
207.5684055621002
 40
20.24427696351451
 50
16.98789984521113
 51
22.94011718849771
  0
ARC
  8
0
  6
CONTINUOUS
 62
     7
 10
70.678551880856
 20
209.0
 40
17.26821608706346
 50
352.4728823466312
 51
353.2409959539558
  0
ARC
  8
0
  6
CONTINUOUS
 62
     7
 10
74.14726244087619
 20
208.5416653182264
 40
13.76935575408187
 50
350.263228946452
 51
352.472882346631
  0
ARC
  8
0
  6
CONTINUOUS
 62
     7
 10
157.6208970787963
 20
136.8679369277935
 40
0.6254775054830568
 50
105.5039718831076
 51
186.9382531033353
  0
ARC
  8
0
  6
CONTINUOUS
 62
     7
 10
84.96056514242409
 20
217.3253133799099
 40
0.686635314977831
 50
192.3002164491293
 51
219.3412499847264
  0
ARC
  8
0
  6
CONTINUOUS
 62
     7
 10
85.82576757990411
 20
217.5139614425962
 40
1.572165297178685
 50
180.0
 51
192.3002164491323
  0
ARC
  8
0
  6
CONTINUOUS
 62
     7
 10
85.82576757990411
 20
217.5139614425962
 40
1.572165297178685
 50
175.8466524293879
 51
180.0
  0
ARC
  8
0
  6
CONTINUOUS
 62
     7
 10
64.13612473217897
 20
210.7252548354169
 40
24.39694916115625
 50
339.2109966370947
 51
339.6334594677659
  0
ARC
  8
0
  6
CONTINUOUS
 62
     7
 10
74.77764877678128
 20
208.0984668154896
 40
11.89211504221362
 50
304.8758636780453
 51
311.0879538657102
  0
ARC
  8
0
  6
CONTINUOUS
 62
     7
 10
78.25940506566383
 20
203.1030029431223
 40
5.803002943122276
 50
301.0417192768589
 51
304.8758636780439
  0
ARC
  8
0
  6
CONTINUOUS
 62
     7
 10
76.90251893886406
 20
209.8090682425095
 40
10.67241093531951
 50
38.30695373680453
 51
47.91001612562343
  0
ARC
  8
0
  6
CONTINUOUS
 62
     7
 10
79.72509703497715
 20
212.0387623803532
 40
7.075400641062377
 50
30.81443131624905
 51
38.30695373680447
  0
ARC
  8
0
  6
CONTINUOUS
 62
     7
 10
66.54008734213204
 20
207.5684055621002
 40
20.24427696351451
 50
16.9708118364789
 51
16.98789984521107
  0
ARC
  8
0
  6
CONTINUOUS
 62
     7
 10
72.7330488785031
 20
209.4583346817736
 40
13.76935575408187
 50
11.15620155664476
 51
16.97081183647873
  0
ARC
  8
0
  6
CONTINUOUS
 62
     7
 10
79.67361862803686
 20
214.8969970568777
 40
5.803002943122276
 50
55.12413632195426
 51
67.1639778774454
  0
ARC
  8
0
  6
CONTINUOUS
 62
     7
 10
76.19186233915501
 20
209.901533184511
 40
11.8921150422127
 50
46.49095019530125
 51
55.12413632195472
  0
ARC
  8
0
  6
CONTINUOUS
 62
     7
 10
84.9644881605262
 20
222.2550612674189
 40
1.580970762245853
 50
282.2159200807619
 51
357.5978202051257
  0
ARC
  8
0
  6
CONTINUOUS
 62
     7
 10
76.51565786337397
 20
209.9092382281785
 40
11.99375691979858
 50
52.70022022021103
 51
55.1241363219537
  0
ARC
  8
0
  6
CONTINUOUS
 62
     7
 10
80.02717271456761
 20
214.9473983177948
 40
5.852601194794027
 50
55.12413632195534
 51
68.05497028773488
  0
ARC
  8
0
  6
CONTINUOUS
 62
     7
 10
74.14726244087619
 20
209.4583346817736
 40
13.76935575408187
 50
7.527117653369032
 51
9.927245948341124
  0
ARC
  8
0
  6
CONTINUOUS
 62
     7
 10
70.678551880856
 20
209.0
 40
17.26821608706346
 50
5.783115248939225
 51
7.527117653368804
  0
ARC
  8
0
  6
CONTINUOUS
 62
     7
 10
74.77764877678192
 20
208.098466815489
 40
11.8921150422127
 50
315.7544490519281
 51
317.9455188928108
  0
ARC
  8
0
  6
CONTINUOUS
 62
     7
 10
157.10187389218
 20
145.1529430417241
 40
14.53480727381575
 50
37.68770906022778
 51
41.40496212974062
  0
ARC
  8
0
  6
CONTINUOUS
 62
     7
 10
82.90588258689293
 20
221.8814053975344
 40
1.249397807674232
 50
291.7551575196879
 51
14.24280784337094
  0
ARC
  8
0
  6
CONTINUOUS
 62
     7
 10
76.51565786337397
 20
208.0907617718215
 40
11.99375691979858
 50
304.8758636780462
 51
307.299779779789
  0
ARC
  8
0
  6
CONTINUOUS
 62
     7
 10
80.02717271456761
 20
203.0526016822052
 40
5.852601194794027
 50
291.9913644027804
 51
304.8758636780447
  0
ARC
  8
0
  6
CONTINUOUS
 62
     7
 10
78.25940506566394
 20
214.8969970568777
 40
5.803002943122276
 50
55.12413632195426
 51
58.92980379091353
  0
ARC
  8
0
  6
CONTINUOUS
 62
     7
 10
74.77764877678209
 20
209.901533184511
 40
11.8921150422127
 50
40.83457293269379
 51
55.12413632195472
  0
ARC
  8
0
  6
CONTINUOUS
 62
     7
 10
66.54008734213204
 20
210.4315944378998
 40
20.24427696351451
 50
337.5528646135515
 51
341.3858241297578
  0
ARC
  8
0
  6
CONTINUOUS
 62
     7
 10
78.28499133114818
 20
212.2992277272407
 40
7.681863553153351
 50
30.46914726740319
 51
36.76520292569359
  0
ARC
  8
0
  6
CONTINUOUS
 62
     7
 10
82.11079218872355
 20
221.6393162885238
 40
1.219137714090718
 50
295.293935412589
 51
16.24768558253487
  0
ARC
  8
0
  6
CONTINUOUS
 62
     7
 10
91.02437762446525
 20
217.0782697535616
 40
1.057991104758088
 50
276.6143044622502
 51
314.2891642985244
  0
ARC
  8
0
  6
CONTINUOUS
 62
     7
 10
67.19413605897603
 20
210.3948868882079
 40
19.72519293880238
 50
337.3112487677985
 51
339.8925605497684
  0
ARC
  8
0
  6
CONTINUOUS
 62
     7
 10
86.34886362654917
 20
203.3770068135985
 40
0.6866353149779093
 50
139.3006331506815
 51
159.4597043823887
  0
ARC
  8
0
  6
CONTINUOUS
 62
     7
 10
86.7067046856309
 20
203.0692218255425
 40
1.158633008232173
 50
126.0720702343078
 51
139.3006331506818
  0
ARC
  8
0
  6
CONTINUOUS
 62
     7
 10
86.27829686991835
 20
203.6573175486014
 40
0.4310412023109389
 50
90.0
 51
126.0720702342928
  0
ARC
  8
0
  6
CONTINUOUS
 62
     7
 10
88.22282701848374
 20
208.0999998310442
 40
1.572165297179184
 50
167.6997835508726
 51
177.5988374784044
  0
ARC
  8
0
  6
CONTINUOUS
 62
     7
 10
87.3576245810032
 20
208.2886478937304
 40
0.6866353149778205
 50
139.3006331506812
 51
167.6997835508705
  0
ARC
  8
0
  6
CONTINUOUS
 62
     7
 10
87.71546564008487
 20
207.9808629056744
 40
1.158633008232053
 50
126.0720702343062
 51
139.3006331506804
  0
ARC
  8
0
  6
CONTINUOUS
 62
     7
 10
87.28705782437241
 20
208.5689586287332
 40
0.4310412023109111
 50
90.00071101127406
 51
126.0720702342934
  0
ARC
  8
0
  6
CONTINUOUS
 62
     7
 10
85.79086463083507
 20
195.9455207277077
 40
1.590567281749237
 50
2.668785929865871
 51
77.51745162282693
  0
ARC
  8
0
  6
CONTINUOUS
 62
     7
 10
84.99310113319314
 20
195.7690272297335
 40
1.551541830817197
 50
1.557671173804351
 51
78.62858854030958
  0
ARC
  8
0
  6
CONTINUOUS
 62
     7
 10
72.7330488785031
 20
209.4583346817736
 40
13.76935575408187
 50
7.527117653369032
 51
11.15620155664476
  0
ARC
  8
0
  6
CONTINUOUS
 62
     7
 10
69.26433831848291
 20
209.0
 40
17.26821608706346
 50
0.0
 51
7.527117653368804
  0
ARC
  8
0
  6
CONTINUOUS
 62
     7
 10
69.26433831848291
 20
209.0
 40
17.26821608706346
 50
359.0045461581619
 51
0.0
  0
ARC
  8
0
  6
CONTINUOUS
 62
     7
 10
79.33702078910906
 20
212.3860495095363
 40
7.884017857184039
 50
22.94011718849811
 51
25.70364877835652
  0
ARC
  8
0
  6
CONTINUOUS
 62
     7
 10
67.95430090450513
 20
207.5684055621002
 40
20.24427696351451
 50
21.95824490355398
 51
22.94011718849771
  0
ARC
  8
0
  6
CONTINUOUS
 62
     7
 10
77.17529993907849
 20
209.0
 40
24.08889628365581
 50
180.0
 51
184.1665675916856
  0
ARC
  8
0
  6
CONTINUOUS
 62
     7
 10
77.17529993907849
 20
209.0
 40
24.08889628365581
 50
175.8334324083144
 51
180.0
  0
ARC
  8
0
  6
CONTINUOUS
 62
     7
 10
82.88492339681206
 20
196.1079109896087
 40
1.267179188973338
 50
346.4585809217403
 51
67.54461519069099
  0
ARC
  8
0
  6
CONTINUOUS
 62
     7
 10
75.06762159425459
 20
208.5886740035367
 40
12.35711413827919
 50
343.0291881635212
 51
349.0053776638491
  0
ARC
  8
0
  6
CONTINUOUS
 62
     7
 10
69.50983560007923
 20
210.2847642391398
 40
18.16794086468913
 50
337.4494668553168
 51
343.0291881635212
  0
ARC
  8
0
  6
CONTINUOUS
 62
     7
 10
74.77764877678192
 20
208.098466815489
 40
11.8921150422127
 50
311.0879538657102
 51
313.5090506205017
  0
ARC
  8
0
  6
CONTINUOUS
 62
     7
 10
85.81822863570055
 20
217.5300735942924
 40
1.11089339315405
 50
97.36140315828096
 51
142.9163307755837
  0
ARC
  8
0
  6
CONTINUOUS
 62
     7
 10
79.72509703497707
 20
205.9612376196468
 40
7.075400641062459
 50
321.6930462631958
 51
329.1855686837514
  0
ARC
  8
0
  6
CONTINUOUS
 62
     7
 10
76.90251893886368
 20
208.1909317574907
 40
10.67241093531994
 50
312.0899838743774
 51
321.6930462631958
  0
ARC
  8
0
  6
CONTINUOUS
 62
     7
 10
69.50983560008066
 20
207.7152357608606
 40
18.16794086468766
 50
16.97081183647884
 51
22.55053314468381
  0
ARC
  8
0
  6
CONTINUOUS
 62
     7
 10
75.06762159425598
 20
209.4113259964637
 40
12.35711413827776
 50
10.99462233615031
 51
16.9708118364789
  0
ARC
  8
0
  6
CONTINUOUS
 62
     7
 10
87.73175739047127
 20
213.1672591166335
 40
1.572165297178685
 50
180.0
 51
191.2386824826185
  0
ARC
  8
0
  6
CONTINUOUS
 62
     7
 10
87.73175739047127
 20
213.1672591166335
 40
1.572165297178685
 50
167.6997835508676
 51
180.0
  0
ARC
  8
0
  6
CONTINUOUS
 62
     7
 10
86.86655495299131
 20
213.3559071793196
 40
0.6866353149779093
 50
143.7836706457107
 51
167.6997835508672
  0
ARC
  8
0
  6
CONTINUOUS
 62
     7
 10
76.19186233915501
 20
208.098466815489
 40
11.8921150422127
 50
304.8758636780452
 51
311.08795386571
  0
ARC
  8
0
  6
CONTINUOUS
 62
     7
 10
79.67361862803686
 20
203.1030029431223
 40
5.803002943122276
 50
292.7937688715181
 51
304.8758636780458
  0
ARC
  8
0
  6
CONTINUOUS
 62
     7
 10
75.89427633155832
 20
209.9785873028453
 40
12.90853513129066
 50
46.80935984290823
 51
47.19162374390108
  0
ARC
  8
0
  6
CONTINUOUS
 62
     7
 10
84.90682892810692
 20
208.9999999999999
 40
25.38575356388662
 50
179.9999999999998
 51
183.9533180970957
  0
ARC
  8
0
  6
CONTINUOUS
 62
     7
 10
84.90682892810692
 20
209.0
 40
25.38575356388662
 50
176.0466819029041
 51
180.0000000000001
  0
ARC
  8
0
  6
CONTINUOUS
 62
     7
 10
79.3370207891091
 20
205.6139504904637
 40
7.884017857184001
 50
334.5188722697014
 51
336.3135553901921
  0
ARC
  8
0
  6
CONTINUOUS
 62
     7
 10
67.41919642162499
 20
209.0
 40
20.8104142587691
 50
354.1912648108317
 51
354.5453251656532
  0
ARC
  8
0
  6
CONTINUOUS
 62
     7
 10
54.92477994189286
 20
201.374169577079
 40
0.1979248566884493
 50
205.3113886513922
 51
222.6419694852932
  0
ARC
  8
0
  6
CONTINUOUS
 62
     7
 10
66.95264981702368
 20
207.4460470631344
 40
21.97455704586626
 50
22.14365893492586
 51
22.94011718849755
  0
ARC
  8
0
  6
CONTINUOUS
 62
     7
 10
79.30825174304653
 20
212.6754554505221
 40
8.557865537285625
 50
22.94011718849868
 51
23.85258738977971
  0
ARC
  8
0
  6
CONTINUOUS
 62
     7
 10
86.09853485420182
 20
203.8625012075369
 40
0.3849329426147969
 50
100.3412868468023
 51
163.9877418769013
  0
ARC
  8
0
  6
CONTINUOUS
 62
     7
 10
91.02437762446525
 20
200.9217302464384
 40
1.057991104758088
 50
45.71083570147562
 51
83.38569553774984
  0
ARC
  8
0
  6
CONTINUOUS
 62
     7
 10
54.9247799418854
 20
216.6258304229065
 40
0.197924856687913
 50
137.3580106888949
 51
154.6886135172483
  0
ARC
  8
0
  6
CONTINUOUS
 62
     7
 10
73.67492430522096
 20
208.5024914138014
 40
14.94622376725175
 50
350.7153102320733
 51
352.4728823466308
  0
ARC
  8
0
  6
CONTINUOUS
 62
     7
 10
69.90974275716445
 20
209.0
 40
18.74413199194155
 50
352.4728823466317
 51
353.2409959539562
  0
ARC
  8
0
  6
CONTINUOUS
 62
     7
 10
86.70589755375403
 20
207.2130041318902
 40
0.2698187143035993
 50
169.0132679296737
 51
242.9632805846219
  0
ARC
  8
0
  6
CONTINUOUS
 62
     7
 10
85.81822863570055
 20
200.4699264057076
 40
1.11089339315405
 50
217.0836692244163
 51
262.638596841719
  0
ARC
  8
0
  6
CONTINUOUS
 62
     7
 10
73.22830370979295
 20
209.4465825104461
 40
13.41629535013092
 50
10.77829592693244
 51
14.75546128679149
  0
ARC
  8
0
  6
CONTINUOUS
 62
     7
 10
71.95467621987856
 20
209.0
 40
15.4971170012103
 50
0.0
 51
5.90008471754902
  0
ARC
  8
0
  6
CONTINUOUS
 62
     7
 10
71.95467621987856
 20
209.0
 40
15.4971170012103
 50
354.0999152824509
 51
0.0
  0
ARC
  8
0
  6
CONTINUOUS
 62
     7
 10
69.90974275716445
 20
209.0
 40
18.74413199194155
 50
5.96632716016245
 51
7.527117653368349
  0
ARC
  8
0
  6
CONTINUOUS
 62
     7
 10
73.67492430522073
 20
209.4975085861985
 40
14.94622376725199
 50
7.52711765336933
 51
9.283259592653943
  0
ARC
  8
0
  6
CONTINUOUS
 62
     7
 10
84.3725370820413
 20
199.1624663144811
 40
1.158633008232053
 50
126.0720702343062
 51
134.591829288431
  0
ARC
  8
0
  6
CONTINUOUS
 62
     7
 10
83.94412926632884
 20
199.7505620375399
 40
0.4310412023109111
 50
90.0
 51
126.0720702342934
  0
ARC
  8
0
  6
CONTINUOUS
 62
     7
 10
69.26433831848291
 20
209.0
 40
17.26821608706346
 50
352.4728823466312
 51
354.2302798821244
  0
ARC
  8
0
  6
CONTINUOUS
 62
     7
 10
72.7330488785031
 20
208.5416653182264
 40
13.76935575408187
 50
343.0291881635214
 51
352.472882346631
  0
ARC
  8
0
  6
CONTINUOUS
 62
     7
 10
66.54008734213204
 20
210.4315944378998
 40
20.24427696351451
 50
341.3858241297578
 51
343.029188163521
  0
ARC
  8
0
  6
CONTINUOUS
 62
     7
 10
69.26433831848291
 20
209.0
 40
17.26821608706346
 50
354.2302798821244
 51
359.0045461581619
  0
ARC
  8
0
  6
CONTINUOUS
 62
     7
 10
155.9999999999999
 20
160.5948427158159
 40
23.17187970657022
 50
262.7892618906157
 51
270.0000000000002
  0
ARC
  8
0
  6
CONTINUOUS
 62
     7
 10
156.0
 20
160.5948427158159
 40
23.17187970657022
 50
269.9999999999999
 51
273.5971694657797
  0
ARC
  8
0
  6
CONTINUOUS
 62
     7
 10
66.54008734213286
 20
210.4315944378995
 40
20.24427696351365
 50
337.0598828115021
 51
337.5528646135514
  0
ARC
  8
0
  6
CONTINUOUS
 62
     7
 10
77.92280722673597
 20
205.6139504904637
 40
7.884017857184039
 50
321.6930462631956
 51
337.0598828115019
  0
ARC
  8
0
  6
CONTINUOUS
 62
     7
 10
74.77764877678192
 20
208.098466815489
 40
11.8921150422127
 50
317.9455188928109
 51
321.6930462631958
  0
ARC
  8
0
  6
CONTINUOUS
 62
     7
 10
86.80503433664754
 20
208.729844696304
 40
0.2768135776233938
 50
102.5921284992047
 51
186.1893835752848
  0
ARC
  8
0
  6
CONTINUOUS
 62
     7
 10
152.8960264590593
 20
137.0400948332233
 40
0.6075615465156622
 50
353.7700722889026
 51
71.1232866970177
  0
ARC
  8
0
  6
CONTINUOUS
 62
     7
 10
160.1385049561
 20
148.9970255916681
 40
9.63602182544716
 50
60.3494832214782
 51
66.86724046214042
  0
ARC
  8
0
  6
CONTINUOUS
 62
     7
 10
151.8327408833665
 20
151.809707463299
 40
1.572165297177991
 50
270.0
 51
281.2386824826236
  0
ARC
  8
0
  6
CONTINUOUS
 62
     7
 10
151.8327408833665
 20
151.809707463299
 40
1.572165297177991
 50
257.6997835508631
 51
270.0
  0
ARC
  8
0
  6
CONTINUOUS
 62
     7
 10
151.6440928206802
 20
150.9445050258196
 40
0.686635314977682
 50
233.7836706457078
 51
257.6997835508773
  0
ARC
  8
0
  6
CONTINUOUS
 62
     7
 10
166.6582856564444
 20
143.5365734308627
 40
0.9680756859013058
 50
58.10290955800484
 51
130.7404200961739
  0
ARC
  8
0
  6
CONTINUOUS
 62
     7
 10
152.7007722727595
 20
142.3629414039762
 40
7.681863553153823
 50
120.4691472674038
 51
126.7652029256938
  0
ARC
  8
0
  6
CONTINUOUS
 62
     7
 10
156.5601868332788
 20
142.6539876104946
 40
16.82921258832237
 50
79.73383278750129
 51
82.47288234663101
  0
ARC
  8
0
  6
CONTINUOUS
 62
     7
 10
156.0
 20
138.4144524815828
 40
21.10559743974252
 50
82.47288234663063
 51
83.51330404588188
  0
ARC
  8
0
  6
CONTINUOUS
 62
     7
 10
156.0
 20
133.9264845190101
 40
16.82544131560196
 50
83.92552116277005
 51
87.15815583543775
  0
ARC
  8
0
  6
CONTINUOUS
 62
     7
 10
149.2846174267358
 20
141.1261041928915
 40
0.7411776295763804
 50
82.80132378754116
 51
141.9869128236176
  0
ARC
  8
0
  6
CONTINUOUS
 62
     7
 10
156.9000001689558
 20
152.3007770913109
 40
1.572165297177991
 50
257.6997835508631
 51
267.5988374784026
  0
ARC
  8
0
  6
CONTINUOUS
 62
     7
 10
156.7113521062695
 20
151.4355746538315
 40
0.686635314977682
 50
229.3006331506805
 51
257.6997835508773
  0
ARC
  8
0
  6
CONTINUOUS
 62
     7
 10
157.0191370943251
 20
151.7934157129128
 40
1.158633008231406
 50
216.0720702342999
 51
229.3006331506817
  0
ARC
  8
0
  6
CONTINUOUS
 62
     7
 10
156.4310413712665
 20
151.3650078972008
 40
0.4310412023107724
 50
180.0007110112741
 51
216.0720702343079
  0
ARC
  8
0
  6
CONTINUOUS
 62
     7
 10
156.0
 20
138.4144524815828
 40
21.10559743974252
 50
96.48669595411803
 51
97.52711765336933
  0
ARC
  8
0
  6
CONTINUOUS
 62
     7
 10
155.4398131667206
 20
142.6539876104964
 40
16.82921258832048
 50
97.52711765336785
 51
100.2661672124979
  0
ARC
  8
0
  6
CONTINUOUS
 62
     7
 10
156.0
 20
131.4971464944514
 40
20.81041425877109
 50
84.19126481083225
 51
84.54532516565371
  0
ARC
  8
0
  6
CONTINUOUS
 62
     7
 10
162.7128901780908
 20
141.1197191846233
 40
0.7470816441780335
 50
38.28117831827952
 51
96.97754123380814
  0
ARC
  8
0
  6
CONTINUOUS
 62
     7
 10
148.1231116815835
 20
141.9675517646588
 40
0.4881688024661724
 50
357.3769245440805
 51
51.56023966897186
  0
ARC
  8
0
  6
CONTINUOUS
 62
     7
 10
148.2783886103451
 20
141.6963984702648
 40
0.6701136617043845
 50
77.221850921391
 51
144.9431411431396
  0
ARC
  8
0
  6
CONTINUOUS
 62
     7
 10
156.4113259964638
 20
139.1455716670849
 40
12.3571141382772
 50
73.0291881635212
 51
79.00537766385014
  0
ARC
  8
0
  6
CONTINUOUS
 62
     7
 10
154.7152357608612
 20
133.5877856729104
 40
18.16794086468619
 50
67.44946685531652
 51
73.02918816352172
  0
ARC
  8
0
  6
CONTINUOUS
 62
     7
 10
150.0526017580712
 20
144.1051232766993
 40
5.852601368013799
 50
145.1241363219544
 51
158.0824755512234
  0
ARC
  8
0
  6
CONTINUOUS
 62
     7
 10
155.0907619968025
 20
140.593608321575
 40
11.99375727477881
 50
142.700222915933
 51
145.1241363219535
  0
ARC
  8
0
  6
CONTINUOUS
 62
     7
 10
154.2747451645828
 20
128.2140748050064
 40
24.39694916115719
 50
69.21099663709498
 51
69.63345946776616
  0
ARC
  8
0
  6
CONTINUOUS
 62
     7
 10
155.0984668154889
 20
138.8555988496106
 40
11.89211504221271
 50
128.3069537368023
 51
130.8345729326936
  0
ARC
  8
0
  6
CONTINUOUS
 62
     7
 10
152.6139504904637
 20
142.0007572995647
 40
7.884017857184065
 50
121.0721308723681
 51
128.3069537368023
  0
ARC
  8
0
  6
CONTINUOUS
 62
     7
 10
163.8769781873995
 20
141.9675194129146
 40
0.4882570980576423
 50
128.4510992403415
 51
182.6188003987598
  0
ARC
  8
0
  6
CONTINUOUS
 62
     7
 10
145.3422797342527
 20
143.543979367292
 40
0.9620968372543482
 50
48.99281208620789
 51
122.158724315019
  0
ARC
  8
0
  6
CONTINUOUS
 62
     7
 10
156.0
 20
160.4023934191326
 40
21.10559743974252
 50
276.4866959541183
 51
277.5271176533693
  0
ARC
  8
0
  6
CONTINUOUS
 62
     7
 10
156.5601868332793
 20
156.162858290219
 40
16.82921258832048
 50
277.5271176533679
 51
280.2661672124979
  0
ARC
  8
0
  6
CONTINUOUS
 62
     7
 10
164.5301971888466
 20
149.8961069512135
 40
1.110761624593289
 50
307.0808151685483
 51
352.6414508975886
  0
ARC
  8
0
  6
CONTINUOUS
 62
     7
 10
163.7298488420726
 20
141.7177346988339
 40
0.6512398396284705
 50
33.93645959729463
 51
103.9041271081458
  0
ARC
  8
0
  6
CONTINUOUS
 62
     7
 10
159.0387623803532
 20
143.8030471078055
 40
7.075400641062409
 50
51.69304626319575
 51
59.18556868375117
  0
ARC
  8
0
  6
CONTINUOUS
 62
     7
 10
156.80906824251
 20
140.980469011693
 40
10.6724109353188
 50
42.08998387437624
 51
51.69304626319575
  0
ARC
  8
0
  6
CONTINUOUS
 62
     7
 10
152.6139504904633
 20
142.0007572995648
 40
7.884017857183517
 50
112.9401171884971
 51
121.0721308723673
  0
ARC
  8
0
  6
CONTINUOUS
 62
     7
 10
157.4315944378979
 20
130.6180374149665
 40
20.24427696350822
 50
106.987899845211
 51
112.9401171884995
  0
ARC
  8
0
  6
CONTINUOUS
 62
     7
 10
157.4315944378979
 20
130.6180374149665
 40
20.24427696350822
 50
106.970811836479
 51
106.9878998452111
  0
ARC
  8
0
  6
CONTINUOUS
 62
     7
 10
155.5416653182264
 20
136.8109989513313
 40
13.76935575408211
 50
101.1562015566448
 51
106.9708118364787
  0
ARC
  8
0
  6
CONTINUOUS
 62
     7
 10
155.5416653182264
 20
136.8109989513313
 40
13.76935575408211
 50
97.52711765336916
 51
101.1562015566448
  0
ARC
  8
0
  6
CONTINUOUS
 62
     7
 10
156.0
 20
133.3422883913113
 40
17.2682160870635
 50
90.00000000000006
 51
97.52711765336876
  0
ARC
  8
0
  6
CONTINUOUS
 62
     7
 10
156.0
 20
133.3422883913113
 40
17.2682160870635
 50
89.00454615816192
 51
90.0
  0
ARC
  8
0
  6
CONTINUOUS
 62
     7
 10
155.5534174895543
 20
137.3062537826198
 40
13.41629535013255
 50
100.7782959269331
 51
104.7554612867915
  0
ARC
  8
0
  6
CONTINUOUS
 62
     7
 10
156.0
 20
133.3422883913113
 40
17.2682160870635
 50
84.23027988212438
 51
89.00454615816187
  0
ARC
  8
0
  6
CONTINUOUS
 62
     7
 10
156.0
 20
133.3422883913113
 40
17.2682160870635
 50
82.47288234663131
 51
84.23027988212438
  0
ARC
  8
0
  6
CONTINUOUS
 62
     7
 10
156.4583346817735
 20
136.8109989513313
 40
13.76935575408211
 50
73.02918816352138
 51
82.47288234663091
  0
ARC
  8
0
  6
CONTINUOUS
 62
     7
 10
154.568405562102
 20
130.6180374149665
 40
20.24427696350822
 50
71.38582412975728
 51
73.0291881635211
  0
ARC
  8
0
  6
CONTINUOUS
 62
     7
 10
147.9217475589433
 20
155.1023359370402
 40
1.057972958406167
 50
6.613969194329897
 51
44.28949956645027
  0
ARC
  8
0
  6
CONTINUOUS
 62
     7
 10
151.8614950439002
 20
148.997025591668
 40
9.63602182544743
 50
113.1327595378604
 51
119.6505167785223
  0
ARC
  8
0
  6
CONTINUOUS
 62
     7
 10
142.977405676033
 20
149.9066888607788
 40
1.551541339658321
 50
11.37141317272586
 51
88.4423494527949
  0
ARC
  8
0
  6
CONTINUOUS
 62
     7
 10
164.0782524410566
 20
155.1023359370402
 40
1.057972958406167
 50
135.7105004335497
 51
173.3860308056701
  0
ARC
  8
0
  6
CONTINUOUS
 62
     7
 10
143.3111107937652
 20
146.0785870915982
 40
1.313366264736731
 50
28.71677922811352
 51
102.8248452032074
  0
ARC
  8
0
  6
CONTINUOUS
 62
     7
 10
143.4745242833016
 20
151.8237634640077
 40
2.045278098581421
 50
9.089564347045439
 51
69.41646131680625
  0
ARC
  8
0
  6
CONTINUOUS
 62
     7
 10
157.1018738921801
 20
153.663902858991
 40
14.53480727381551
 50
318.5950378702596
 51
322.3122908942001
  0
ARC
  8
0
  6
CONTINUOUS
 62
     7
 10
168.6260103743236
 20
146.2183652801707
 40
1.194606327011206
 50
72.74206247052099
 51
155.7313416350875
  0
ARC
  8
0
  6
CONTINUOUS
 62
     7
 10
148.7925591527049
 20
149.4084229503577
 40
7.092559152704958
 50
162.1834737925843
 51
169.140846242005
  0
ARC
  8
0
  6
CONTINUOUS
 62
     7
 10
155.4398131667206
 20
156.162858290219
 40
16.82921258832048
 50
259.7338327875024
 51
262.4728823466322
  0
ARC
  8
0
  6
CONTINUOUS
 62
     7
 10
156.0
 20
160.4023934191326
 40
21.10559743974252
 50
262.4728823466306
 51
263.513304045882
  0
ARC
  8
0
  6
CONTINUOUS
 62
     7
 10
142.7695935778183
 20
149.0717236582406
 40
1.550854310644145
 50
11.35117891306277
 51
88.4625612975526
  0
ARC
  8
0
  6
CONTINUOUS
 62
     7
 10
151.8614950439002
 20
149.8198203090474
 40
9.63602182544743
 50
240.3494832214775
 51
246.8672404621394
  0
ARC
  8
0
  6
CONTINUOUS
 62
     7
 10
168.8374709205272
 20
147.0700661292211
 40
1.178352762993849
 50
72.65346856023822
 51
161.3510410990687
  0
ARC
  8
0
  6
CONTINUOUS
 62
     7
 10
163.2074408472948
 20
149.4084229503577
 40
7.09255915270518
 50
10.85915375799453
 51
17.8165261389471
  0
ARC
  8
0
  6
CONTINUOUS
 62
     7
 10
169.0113302162266
 20
149.9200686798844
 40
1.537898876130518
 50
91.15169793993375
 51
169.0345394345477
  0
ARC
  8
0
  6
CONTINUOUS
 62
     7
 10
148.792559152705
 20
149.4084229503577
 40
7.092559152705097
 50
190.8591537407655
 51
197.816526138948
  0
ARC
  8
0
  6
CONTINUOUS
 62
     7
 10
161.9473982419288
 20
144.1051232766993
 40
5.852601368013715
 50
21.96865199639444
 51
34.87586367804555
  0
ARC
  8
0
  6
CONTINUOUS
 62
     7
 10
156.9092380031981
 20
140.5936083215758
 40
11.99375727477771
 50
34.875863678045
 51
37.2997770840657
  0
ARC
  8
0
  6
CONTINUOUS
 62
     7
 10
147.4699264057074
 20
149.8961787085288
 40
1.11089339315384
 50
187.3614031582752
 51
232.9163307755878
  0
ARC
  8
0
  6
CONTINUOUS
 62
     7
 10
156.8784169490104
 20
139.2984280424823
 40
11.58718901548969
 50
41.88602634538002
 51
45.71235812997977
  0
ARC
  8
0
  6
CONTINUOUS
 62
     7
 10
165.8375336855184
 20
148.4504871548692
 40
1.158633008231406
 50
216.0720702342999
 51
224.5918292884287
  0
ARC
  8
0
  6
CONTINUOUS
 62
     7
 10
165.2494379624599
 20
148.0220793391572
 40
0.4310412023107724
 50
180.0
 51
216.0720702343079
  0
ARC
  8
0
  6
CONTINUOUS
 62
     7
 10
163.207440847295
 20
149.4084229503577
 40
7.092559152704958
 50
342.1834738610518
 51
349.140846242005
  0
ARC
  8
0
  6
CONTINUOUS
 62
     7
 10
167.3052740669374
 20
144.231016491785
 40
0.9844557410374568
 50
59.39942033179513
 51
133.8708230346807
  0
ARC
  8
0
  6
CONTINUOUS
 62
     7
 10
169.2396655757327
 20
149.06072538361
 40
1.562122751168497
 50
91.86610372668451
 51
168.3201560627002
  0
ARC
  8
0
  6
CONTINUOUS
 62
     7
 10
157.284764239139
 20
133.5877856729097
 40
18.16794086468696
 50
106.9708118364784
 51
112.5505331446835
  0
ARC
  8
0
  6
CONTINUOUS
 62
     7
 10
155.5886740035361
 20
139.1455716670847
 40
12.35711413827743
 50
100.9946223361498
 51
106.9708118364787
  0
ARC
  8
0
  6
CONTINUOUS
 62
     7
 10
154.8981261078198
 20
145.1529430417244
 40
14.53480727381551
 50
138.5950378702599
 51
142.3122909397725
  0
ARC
  8
0
  6
CONTINUOUS
 62
     7
 10
154.6051131117901
 20
131.2720861317983
 40
19.72519293880876
 50
67.31124876780012
 51
69.89256054976919
  0
ARC
  8
0
  6
CONTINUOUS
 62
     7
 10
154.89812610782
 20
153.6639028589912
 40
14.53480727381575
 50
217.6877091058006
 51
221.4049621297408
  0
ARC
  8
0
  6
CONTINUOUS
 62
     7
 10
144.7052791371993
 20
144.3220608854339
 40
0.9131464792217177
 50
42.61970911490438
 51
124.0806796188321
  0
ARC
  8
0
  6
CONTINUOUS
 62
     7
 10
160.1385049560998
 20
149.8198203090474
 40
9.63602182544743
 50
293.1327595378605
 51
299.6505167785222
  0
ARC
  8
0
  6
CONTINUOUS
 62
     7
 10
147.6746866200901
 20
149.0385152152523
 40
0.6866353149776219
 50
282.3002164491214
 51
309.3412499847295
  0
ARC
  8
0
  6
CONTINUOUS
 62
     7
 10
147.4860385574038
 20
149.9037176527318
 40
1.572165297177991
 50
270.0
 51
282.3002164491369
  0
ARC
  8
0
  6
CONTINUOUS
 62
     7
 10
147.4860385574038
 20
149.9037176527318
 40
1.572165297177991
 50
265.846652429384
 51
270.0
  0
ARC
  8
0
  6
CONTINUOUS
 62
     7
 10
155.1909317574903
 20
140.9804690116925
 40
10.67241093531942
 50
128.3069537368044
 51
137.9100161256233
  0
ARC
  8
0
  6
CONTINUOUS
 62
     7
 10
152.9612376196468
 20
143.8030471078055
 40
7.075400641062488
 50
120.8144313162485
 51
128.3069537368043
  0
ARC
  8
0
  6
CONTINUOUS
 62
     7
 10
155.9999999999999
 20
136.0326262927081
 40
15.49711700120915
 50
89.99999999999994
 51
95.90008471754936
  0
ARC
  8
0
  6
CONTINUOUS
 62
     7
 10
156.0
 20
136.0326262927081
 40
15.49711700120915
 50
84.09991528245047
 51
90.00000000000011
  0
ARC
  8
0
  6
CONTINUOUS
 62
     7
 10
156.0
 20
149.1969110352926
 40
25.38575356388797
 50
264.3470463915698
 51
269.9999999999999
  0
ARC
  8
0
  6
CONTINUOUS
 62
     7
 10
156.0
 20
149.1969110352913
 40
25.38575356388661
 50
269.9999999999999
 51
272.2576666634861
  0
ARC
  8
0
  6
CONTINUOUS
 62
     7
 10
143.1303037095426
 20
147.0068226918812
 40
1.230112841413053
 50
20.96123475989598
 51
105.0349179115688
  0
ARC
  8
0
  6
CONTINUOUS
 62
     7
 10
161.6229931864016
 20
150.4268136993776
 40
0.686635314977938
 50
229.3006331506806
 51
249.4597043823817
  0
ARC
  8
0
  6
CONTINUOUS
 62
     7
 10
161.9307781744571
 20
150.7846547584587
 40
1.158633008231424
 50
216.072070234301
 51
229.3006331506807
  0
ARC
  8
0
  6
CONTINUOUS
 62
     7
 10
161.3426824513985
 20
150.3562469427468
 40
0.4310412023107724
 50
180.0
 51
216.0720702343079
  0
ARC
  8
0
  6
CONTINUOUS
 62
     7
 10
157.5539529368645
 20
131.0305998898552
 40
21.97455704586304
 50
112.1436589349263
 51
112.9401171884983
  0
ARC
  8
0
  6
CONTINUOUS
 62
     7
 10
152.3245445494777
 20
143.3862018158752
 40
8.55786553728531
 50
112.9401171884979
 51
113.8525873897792
  0
ARC
  8
0
  6
CONTINUOUS
 62
     7
 10
157.7860898349361
 20
150.7857062503334
 40
0.2714734473039657
 50
259.2757464212348
 51
332.7007927532795
  0
ARC
  8
0
  6
CONTINUOUS
 62
     7
 10
156.901533184511
 20
138.8555988496105
 40
11.89211504221256
 50
41.08795386570995
 51
43.5090506205014
  0
ARC
  8
0
  6
CONTINUOUS
 62
     7
 10
150.1030029431222
 20
142.3373551384923
 40
5.803002943122221
 50
145.124136321954
 51
148.929799576562
  0
ARC
  8
0
  6
CONTINUOUS
 62
     7
 10
155.0984668154889
 20
138.8555988496106
 40
11.89211504221256
 50
130.834572932694
 51
145.1241363219551
  0
ARC
  8
0
  6
CONTINUOUS
 62
     7
 10
161.1375033758424
 20
150.1764890778152
 40
0.3849381966674994
 50
190.3417721666369
 51
253.9872565570697
  0
ARC
  8
0
  6
CONTINUOUS
 62
     7
 10
156.4975085861988
 20
137.7528743780503
 40
14.94622376725079
 50
80.71531023207376
 51
82.47288234663137
  0
ARC
  8
0
  6
CONTINUOUS
 62
     7
 10
156.0
 20
133.9876928299962
 40
18.7441319919382
 50
82.47288234663036
 51
83.24099595395506
  0
ARC
  8
0
  6
CONTINUOUS
 62
     7
 10
156.901533184511
 20
140.2698124119835
 40
11.89211504221256
 50
34.87586367804488
 51
41.08795386570995
  0
ARC
  8
0
  6
CONTINUOUS
 62
     7
 10
161.8969970568777
 20
143.7515687008653
 40
5.803002943122221
 50
22.79377304893092
 51
34.87586367804596
  0
ARC
  8
0
  6
CONTINUOUS
 62
     7
 10
154.568405562102
 20
130.6180374149665
 40
20.24427696350822
 50
67.55286461354984
 51
71.38582412975728
  0
ARC
  8
0
  6
CONTINUOUS
 62
     7
 10
156.9015331845111
 20
138.8555988496106
 40
11.89211504221241
 50
34.8758636780442
 51
41.08795386570955
  0
ARC
  8
0
  6
CONTINUOUS
 62
     7
 10
161.8969970568778
 20
142.3373551384922
 40
5.80300294312211
 50
31.04172346055622
 51
34.87586367804533
  0
ARC
  8
0
  6
CONTINUOUS
 62
     7
 10
154.568405562102
 20
130.6180374149665
 40
20.24427696350822
 50
67.05988281150053
 51
67.5528646135499
  0
ARC
  8
0
  6
CONTINUOUS
 62
     7
 10
159.3860495095366
 20
142.0007572995648
 40
7.884017857183517
 50
51.69304626319564
 51
67.05988281150292
  0
ARC
  8
0
  6
CONTINUOUS
 62
     7
 10
156.901533184511
 20
138.8555988496105
 40
11.89211504221256
 50
47.94551889281052
 51
51.69304626319558
  0
ARC
  8
0
  6
CONTINUOUS
 62
     7
 10
159.3860495095366
 20
143.4149708619379
 40
7.884017857183517
 50
64.51886835387563
 51
66.31355539019306
  0
ARC
  8
0
  6
CONTINUOUS
 62
     7
 10
156.2702943546819
 20
150.8831785676494
 40
0.2769916579730476
 50
192.6250536008515
 51
276.1564584736396
  0
ARC
  8
0
  6
CONTINUOUS
 62
     7
 10
155.9999999999999
 20
133.9876928299962
 40
18.7441319919382
 50
95.96632716016346
 51
97.5271176533697
  0
ARC
  8
0
  6
CONTINUOUS
 62
     7
 10
155.5024914138012
 20
137.7528743780501
 40
14.94622376725099
 50
97.52711765336878
 51
99.28325959265348
  0
ARC
  8
0
  6
CONTINUOUS
 62
     7
 10
155.021412697155
 20
139.9722264043863
 40
12.90853513129115
 50
136.8093598429078
 51
137.1916262387477
  0
ARC
  8
0
  6
CONTINUOUS
 62
     7
 10
150.1030029431222
 20
143.7515687008653
 40
5.803002943122221
 50
145.124136321954
 51
157.163973439869
  0
ARC
  8
0
  6
CONTINUOUS
 62
     7
 10
155.0984668154889
 20
140.2698124119835
 40
11.89211504221256
 50
136.4909501953015
 51
145.1241363219551
  0
ARC
  8
0
  6
CONTINUOUS
 62
     7
 10
156.901533184511
 20
138.8555988496105
 40
11.89211504221256
 50
45.75444905207637
 51
47.94551889281052
  0
ARC
  8
0
  6
CONTINUOUS
 62
     7
 10
152.6139504904633
 20
143.4149708619379
 40
7.884017857183517
 50
112.9401171884971
 51
115.4768058320484
  0
ARC
  8
0
  6
CONTINUOUS
 62
     7
 10
157.4315944378979
 20
132.0322509773395
 40
20.24427696350822
 50
111.9582449035552
 51
112.9401171884995
  0
ARC
  8
0
  6
CONTINUOUS
 62
     7
 10
155.5416653182264
 20
138.2252125137044
 40
13.76935575408211
 50
97.52711765336916
 51
99.92724594834124
  0
ARC
  8
0
  6
CONTINUOUS
 62
     7
 10
156.0
 20
134.7565019536844
 40
17.2682160870635
 50
95.78311524893917
 51
97.52711765336876
  0
ARC
  8
0
  6
CONTINUOUS
 62
     7
 10
156.0
 20
134.7565019536844
 40
17.2682160870635
 50
82.47288234663131
 51
83.24099595395576
  0
ARC
  8
0
  6
CONTINUOUS
 62
     7
 10
156.4583346817735
 20
138.2252125137044
 40
13.76935575408211
 50
80.26322781088817
 51
82.47288234663091
  0
ARC
  8
0
  6
CONTINUOUS
 62
     7
 10
169.5490525999136
 20
122.7654604394055
 40
0.9990429673887458
 50
181.5217262864826
 51
254.9639905619011
  0
ARC
  8
0
  6
CONTINUOUS
 62
     7
 10
142.4510329583536
 20
122.7653916334955
 40
0.9989543047941871
 50
285.0313357536718
 51
358.3012757079718
  0
LINE
  8
0
  6
CONTINUOUS
 62
     7
 10
59.753780228076
 20
208.0
 11
72.71442941054374
 21
208.0
  0
LINE
  8
0
  6
CENTER
 62
     1
 10
156.0
 20
78.99999999999999
 11
156.0
 21
169.0
  0
LINE
  8
0
  6
CONTINUOUS
 62
     7
 10
86.4806243395458
 20
215.7942519837241
 11
86.03119418044099
 21
215.647070788062
  0
ARC
  8
0
  6
CONTINUOUS
 62
     7
 10
87.76394002151079
 20
203.7397670836272
 40
1.976094920867812
 50
237.8417577424152
 51
264.2220917940561
  0
LINE
  8
0
  6
CONTINUOUS
 62
     7
 10
87.78152554628205
 20
207.2824427996763
 11
87.86630464511303
 21
207.238028657673
  0
LINE
  8
0
  6
CONTINUOUS
 62
     7
 10
86.57510423713795
 20
207.2199805821282
 11
87.7771857651551
 21
207.2199805821282
  0
LINE
  8
0
  6
CONTINUOUS
 62
     7
 10
93.1902982315478
 20
211.1743751939351
 11
92.5136493705155
 21
211.0705182996923
  0
LINE
  8
0
  6
CONTINUOUS
 62
     7
 10
93.54027918355202
 20
211.2795795984003
 11
93.1902982315478
 21
211.1743751939351
  0
LINE
  8
0
  6
CONTINUOUS
 62
     7
 10
93.53286906613602
 20
211.3836303951814
 11
93.681447890618
 21
211.3535963984214
  0
LINE
  8
0
  6
CONTINUOUS
 62
     7
 10
88.73449860051426
 20
211.0040212552036
 11
87.36589025962844
 21
210.5926170784208
  0
ARC
  8
0
  6
CONTINUOUS
 62
     7
 10
92.22958893447154
 20
219.7049563166844
 40
8.855586003491858
 50
272.0673608411115
 51
285.3855836308925
  0
LINE
  8
0
  6
CONTINUOUS
 62
     7
 10
93.1902982315478
 20
206.8256248060648
 11
93.54027918355202
 21
206.7204204015996
  0
LINE
  8
0
  6
CONTINUOUS
 62
     7
 10
88.64723152258736
 20
207.0222112609094
 11
88.73449860051426
 21
206.9959787447964
  0
LINE
  8
0
  6
CONTINUOUS
 62
     7
 10
89.097696977497
 20
206.0287246302202
 11
92.37263018421162
 21
205.9710885191382
  0
LINE
  8
0
  6
CONTINUOUS
 62
     7
 10
89.27411589725521
 20
210.7974982488992
 11
92.54904910396984
 21
210.8551343599813
  0
ARC
  8
0
  6
CONTINUOUS
 62
     7
 10
87.76401928578427
 20
214.2600022988563
 40
1.976332347285983
 50
95.77952139924439
 51
122.1566290642914
  0
LINE
  8
0
  6
CONTINUOUS
 62
     7
 10
92.5136493705155
 20
206.9294817003077
 11
93.1902982315478
 21
206.8256248060648
  0
LINE
  8
0
  6
CONTINUOUS
 62
     7
 10
87.36589025962844
 20
207.4073829215792
 11
87.78152554628205
 21
207.2824427996763
  0
LINE
  8
0
  6
CONTINUOUS
 62
     7
 10
87.36589025962844
 20
207.4073829215792
 11
87.62245864004649
 21
207.4073829215792
  0
LINE
  8
0
  6
CONTINUOUS
 62
     7
 10
87.23301799197776
 20
207.0222115377873
 11
86.57510423713795
 21
207.2199805821282
  0
LINE
  8
0
  6
CONTINUOUS
 62
     7
 10
92.5136493705155
 20
211.0705182996923
 11
88.73449860051426
 21
211.0040212552036
  0
LINE
  8
0
  6
CONTINUOUS
 62
     7
 10
87.62245864004649
 20
210.5926170784208
 11
87.36589025962844
 21
210.5926170784208
  0
LINE
  8
0
  6
CONTINUOUS
 62
     7
 10
86.03119418044099
 20
202.352929211938
 11
86.48062433954586
 21
202.2057480162759
  0
LINE
  8
0
  6
CONTINUOUS
 62
     7
 10
89.097696977497
 20
211.9712753697797
 11
92.37263018421162
 21
212.0289114808619
  0
LINE
  8
0
  6
CONTINUOUS
 62
     7
 10
84.31563520994207
 20
198.4941193917866
 11
84.05771983911893
 21
199.0778372749697
  0
LINE
  8
0
  6
CONTINUOUS
 62
     7
 10
86.6730471420545
 20
202.835304026037
 11
86.57687732669046
 21
202.7939455763416
  0
LINE
  8
0
  6
CONTINUOUS
 62
     7
 10
87.44603972028825
 20
206.2336058006986
 11
87.18947133987017
 21
206.2336058006986
  0
LINE
  8
0
  6
CONTINUOUS
 62
     7
 10
86.03119418044099
 20
202.352929211938
 11
85.77462580002289
 21
202.352929211938
  0
LINE
  8
0
  6
CONTINUOUS
 62
     7
 10
87.86630464511303
 20
207.238028657673
 11
87.77718574232209
 21
207.2199803778612
  0
LINE
  8
0
  6
CONTINUOUS
 62
     7
 10
85.77462580002289
 20
215.647070788062
 11
86.03119418044099
 21
215.647070788062
  0
LINE
  8
0
  6
CONTINUOUS
 62
     7
 10
84.29598871803563
 20
199.4727546198693
 11
84.20738580519128
 21
199.440993964907
  0
LINE
  8
0
  6
CONTINUOUS
 62
     7
 10
84.87604338127987
 20
216.1768749775862
 11
85.44669531667472
 21
216.1768749775862
  0
LINE
  8
0
  6
CONTINUOUS
 62
     7
 10
93.68144741926017
 20
206.6463994144708
 11
93.5328690661404
 21
206.6163696048174
  0
LINE
  8
0
  6
CONTINUOUS
 62
     7
 10
86.39868525665725
 20
211.9537969427602
 11
87.15195565116736
 21
211.9537969427602
  0
LINE
  8
0
  6
CONTINUOUS
 62
     7
 10
93.681447890618
 20
211.3535963984214
 11
93.54027918355202
 21
211.2795795984003
  0
LINE
  8
0
  6
CONTINUOUS
 62
     7
 10
82.64350627674578
 20
199.0778372749698
 11
84.05771983911893
 21
199.0778372749697
  0
ARC
  8
0
  6
CONTINUOUS
 62
     7
 10
67.64480130188979
 20
126.1572134010205
 40
4.540701872681025
 50
226.1313838566456
 51
258.7108048833832
  0
ARC
  8
0
  6
CONTINUOUS
 62
     7
 10
92.43023487047287
 20
136.6589512403787
 40
2.981817233640827
 50
315.0443361579896
 51
0.413579892580401
  0
LINE
  8
0
  6
CONTINUOUS
 62
     7
 10
94.54032897919558
 20
134.5521202392846
 11
83.92852344135456
 21
123.9403147014435
  0
LINE
  8
0
  6
CONTINUOUS
 62
     7
 10
59.47008840217622
 20
88.96977635287514
 11
59.3019584223899
 21
88.98546278397055
  0
LINE
  8
0
  6
CONTINUOUS
 62
     7
 10
65.29088051761485
 20
89.27059831230252
 11
65.29088051761485
 21
118.2705983123025
  0
LINE
  8
0
  6
CONTINUOUS
 62
     7
 10
58.27117020529161
 20
88.97020379553433
 11
58.27157769014941
 21
88.96982537767964
  0
ARC
  8
0
  6
CONTINUOUS
 62
     7
 10
577.9515877696
 20
545.1915693350095
 40
664.8146164898416
 50
218.0928151005635
 51
219.4367884586008
  0
LINE
  8
0
  6
CONTINUOUS
 62
     7
 10
88.87057030083197
 20
86.27059831230252
 11
28.87057030083186
 21
86.27059831230252
  0
LINE
  8
0
  6
CONTINUOUS
 62
     7
 10
95.35614902019091
 20
137.6149798547296
 11
95.54816586567485
 21
137.4229630092456
  0
LINE
  8
0
  6
CONTINUOUS
 62
     7
 10
88.87057030083191
 20
86.27059831230252
 11
88.56322610244555
 21
88.01363387742502
  0
ARC
  8
0
  6
CONTINUOUS
 62
     7
 10
87.57841834943193
 20
87.83998569980253
 40
0.9999999999999388
 50
9.999999997477742
 51
88.00000000042301
  0
ARC
  8
0
  6
CONTINUOUS
 62
     7
 10
30.16272225223183
 20
87.83998569980253
 40
0.9999999999999213
 50
91.99999999957708
 51
170.0000000025223
  0
LINE
  8
0
  6
CONTINUOUS
 62
     7
 10
73.34501293641722
 20
159.6261159385033
 11
73.39270443824138
 21
159.5784244366792
  0
LINE
  8
0
  6
CONTINUOUS
 62
     7
 10
87.61331784612699
 20
88.83937652682181
 11
76.3705703008319
 21
89.23198192230261
  0
LINE
  8
0
  6
CONTINUOUS
 62
     7
 10
74.3705703008319
 20
89.27059831230252
 11
74.3705703008319
 21
118.2705983123026
  0
LINE
  8
0
  6
CONTINUOUS
 62
     7
 10
52.45026008404892
 20
89.27059831230252
 11
52.45026008404892
 21
118.2705983123025
  0
LINE
  8
0
  6
CONTINUOUS
 62
     7
 10
77.8705703008319
 20
118.2705983123026
 11
39.87057030083187
 21
118.2705983123025
  0
LINE
  8
0
  6
CONTINUOUS
 62
     7
 10
66.75590798328913
 20
121.7043668771982
 11
68.38844368873255
 21
121.3885113620288
  0
LINE
  8
0
  6
CONTINUOUS
 62
     7
 10
53.20506734022936
 20
136.9567525669751
 11
53.16898255953363
 21
137.2805300629079
  0
LINE
  8
0
  6
CONTINUOUS
 62
     7
 10
29.17791449921826
 20
88.013633877425
 11
28.87057030083186
 21
86.27059831230252
  0
LINE
  8
0
  6
CONTINUOUS
 62
     7
 10
41.37057030083192
 20
89.23198192230261
 11
30.12782275553678
 21
88.83937652682181
  0
LINE
  8
0
  6
CONTINUOUS
 62
     7
 10
43.37057030083192
 20
89.27059831230252
 11
43.37057030083192
 21
118.2705983123025
  0
LINE
  8
0
  6
CONTINUOUS
 62
     7
 10
95.54816586567479
 20
136.5442833528054
 11
95.54816586567479
 21
137.4229630092457
  0
ARC
  8
0
  6
CONTINUOUS
 62
     7
 10
92.54816586567483
 20
136.5442833528054
 40
2.999999999999989
 50
315.0
 51
0.0000000000001137
  0
ARC
  8
0
  6
CONTINUOUS
 62
     7
 10
69.42057030083188
 20
120.7705983123025
 40
23.10000000000002
 50
135.0
 51
175.1957441729509
  0
LINE
  8
0
  6
CONTINUOUS
 62
     7
 10
76.90782259946451
 20
216.9125169564957
 11
77.50460202780114
 21
216.2993342716998
  0
ARC
  8
0
  6
CONTINUOUS
 62
     7
 10
72.45007030083195
 20
89.7662539176026
 40
0.4999999999999195
 50
262.4415590318888
 51
269.4994267598884
  0
LINE
  8
0
  6
CONTINUOUS
 62
     7
 10
79.91168821342588
 20
221.0732574530719
 11
80.28051818392468
 21
220.1698122235042
  0
LINE
  8
0
  6
CONTINUOUS
 62
     7
 10
76.25826895715855
 20
205.6594877671708
 11
75.53672865571433
 21
205.442592483938
  0
LINE
  8
0
  6
CONTINUOUS
 62
     7
 10
76.90782259946451
 20
201.0874830435043
 11
77.50460202780114
 21
201.7006657283001
  0
LINE
  8
0
  6
CONTINUOUS
 62
     7
 10
79.91168821342588
 20
196.926742546928
 11
80.28051818392468
 21
197.8301877764958
  0
LINE
  8
0
  6
CONTINUOUS
 62
     7
 10
61.92523842025445
 20
145.9435997225436
 11
61.71310638589851
 21
145.7314676881876
  0
CIRCLE
  8
0
  6
CONTINUOUS
 62
     7
 10
58.87059187703809
 20
233.97206084703
 40
0.5996260769260834
  0
ARC
  8
0
  6
CONTINUOUS
 62
     7
 10
45.29107030083181
 20
89.7662539176026
 40
0.4999999999999446
 50
270.5005732401119
 51
277.5584409681103
  0
LINE
  8
0
  6
CONTINUOUS
 62
     7
 10
76.25826895715855
 20
212.3405122328292
 11
75.53672865571433
 21
212.557407516062
  0
ARC
  8
0
  6
CONTINUOUS
 62
     7
 10
94.66428238919163
 20
138.3068464857288
 40
1.249999999999966
 50
315.0
 51
45.0
  0
ARC
  8
0
  6
CONTINUOUS
 62
     7
 10
45.4052308343081
 20
122.788882313038
 40
0.9999999999999798
 50
285.0
 51
355.1960682703685
  0
LINE
  8
0
  6
CONTINUOUS
 62
     7
 10
77.8705703008319
 20
118.2705983123026
 11
77.8705703008319
 21
119.8869348183131
  0
LINE
  8
0
  6
CONTINUOUS
 62
     7
 10
39.87057030083187
 20
119.8869348183131
 11
39.87057030083187
 21
118.2705983123025
  0
LINE
  8
0
  6
CONTINUOUS
 62
     7
 10
84.05768067139343
 20
123.8111574714046
 11
94.66948620923445
 21
134.4229630092457
  0
LINE
  8
0
  6
CONTINUOUS
 62
     7
 10
81.00042362736843
 20
197.1935882268186
 11
80.64653545933949
 21
196.3267423081133
  0
ARC
  8
0
  6
CONTINUOUS
 62
     7
 10
58.87057030083194
 20
209.0
 40
30.00000000000004
 50
31.55611169222744
 51
328.4438883077726
  0
ARC
  8
0
  6
CONTINUOUS
 62
     7
 10
74.22889641290038
 20
158.7422324620201
 40
1.250000000000005
 50
45.00000000000001
 51
135.0
  0
LINE
  8
0
  6
CONTINUOUS
 62
     7
 10
83.15833489092607
 20
195.03384
 11
83.2812389531451
 21
196.0195808859625
  0
LINE
  8
0
  6
CONTINUOUS
 62
     7
 10
84.11687615601117
 20
195.8112032275451
 11
83.99397175586921
 21
194.8254619297981
  0
LINE
  8
0
  6
CONTINUOUS
 62
     7
 10
86.66697399043639
 20
194.825462
 11
86.54406962295015
 21
195.8112030113659
  0
LINE
  8
0
  6
CONTINUOUS
 62
     7
 10
76.08185003740027
 20
211.1667351119486
 11
75.3603097359561
 21
211.3836303951814
  0
LINE
  8
0
  6
CONTINUOUS
 62
     7
 10
78.00335435313406
 20
200.7298453350502
 11
77.40657492479743
 21
200.1166626502544
  0
LINE
  8
0
  6
CONTINUOUS
 62
     7
 10
61.68069468619182
 20
146.1882134050791
 11
61.63928041978613
 21
146.2405016583561
  0
CIRCLE
  8
0
  6
CONTINUOUS
 62
     7
 10
58.87059187843159
 20
184.0279004898227
 40
0.5996271196801163
  0
ARC
  8
0
  6
CONTINUOUS
 62
     7
 10
40.37057030083187
 20
119.8869348183131
 40
0.4999999999999986
 50
105.0
 51
179.9999999999999
  0
LINE
  8
0
  6
CONTINUOUS
 62
     7
 10
87.37970676704117
 20
196.0195811353977
 11
87.5026108984604
 21
195.0338397246755
  0
LINE
  8
0
  6
CONTINUOUS
 62
     7
 10
90.01441042150572
 20
196.326742
 11
89.66052197608805
 21
197.1935886160607
  0
LINE
  8
0
  6
CONTINUOUS
 62
     7
 10
78.00335435313406
 20
217.2701546649498
 11
77.40657492479743
 21
217.8833373497456
  0
ARC
  8
0
  6
CONTINUOUS
 62
     7
 10
77.3705703008319
 20
119.8869348183131
 40
0.5000000000000004
 50
359.9999999999998
 51
74.99999999999977
  0
LINE
  8
0
  6
CONTINUOUS
 62
     7
 10
80.40264460153486
 20
198.494119
 11
80.47070262580908
 21
198.494119
  0
LINE
  8
0
  6
CONTINUOUS
 62
     7
 10
90.74925754163262
 20
221.073257453072
 11
90.38042757113381
 21
220.1698122235042
  0
LINE
  8
0
  6
CONTINUOUS
 62
     7
 10
80.47070262580908
 20
219.505881
 11
80.86240810356495
 21
219.6227545122516
  0
LINE
  8
0
  6
CONTINUOUS
 62
     7
 10
92.65759140192444
 20
217.2701546649498
 11
93.25437083026107
 21
217.8833373497456
  0
LINE
  8
0
  6
CONTINUOUS
 62
     7
 10
86.64099299527219
 20
222.9661602753244
 11
87.5026108984604
 21
222.9661602753244
  0
LINE
  8
0
  6
CONTINUOUS
 62
     7
 10
75.44835057757471
 20
212.0119076284848
 11
76.30141173840362
 21
212.0289114808619
  0
LINE
  8
0
  6
CONTINUOUS
 62
     7
 10
76.68156269173683
 20
205.8839615547024
 11
76.25826895715855
 21
205.6594877671708
  0
LINE
  8
0
  6
CONTINUOUS
 62
     7
 10
89.76946136492748
 20
196.9267425469281
 11
90.74925754163256
 21
196.9267425469281
  0
LINE
  8
0
  6
CONTINUOUS
 62
     7
 10
93.75312315559404
 20
216.9125169564957
 11
93.15634372725735
 21
216.2993342716998
  0
LINE
  8
0
  6
CONTINUOUS
 62
     7
 10
77.4402628497759
 20
201.6345581547253
 11
77.86726049402
 21
201.610768990133
  0
LINE
  8
0
  6
CONTINUOUS
 62
     7
 10
80.40264533642085
 20
219.505881
 11
80.47070262580908
 21
219.505881
  0
LINE
  8
0
  6
CONTINUOUS
 62
     7
 10
95.3006360191024
 20
211.3836303951814
 11
93.53286906613602
 21
211.3836303951814
  0
LINE
  8
0
  6
CONTINUOUS
 62
     7
 10
92.21819996096544
 20
201.0874830435043
 11
93.75312315559398
 21
201.0874830435043
  0
LINE
  8
0
  6
CONTINUOUS
 62
     7
 10
94.40267679789994
 20
205.6594877671708
 11
95.12421709934416
 21
205.442592483938
  0
LINE
  8
0
  6
CONTINUOUS
 62
     7
 10
80.86276551569739
 20
198.3769868867467
 11
80.47070262580908
 21
198.494119
  0
LINE
  8
0
  6
CONTINUOUS
 62
     7
 10
87.37970676704117
 20
221.9804188646023
 11
87.5026108984604
 21
222.9661602753244
  0
LINE
  8
0
  6
CONTINUOUS
 62
     7
 10
75.44742791770655
 20
205.9881107628414
 11
76.30141173840362
 21
205.9710885191382
  0
LINE
  8
0
  6
CONTINUOUS
 62
     7
 10
76.68153459160905
 20
212.1158901920464
 11
76.25826895715855
 21
212.3405122328292
  0
LINE
  8
0
  6
CONTINUOUS
 62
     7
 10
92.65759140192444
 20
200.7298453350502
 11
93.25437083026107
 21
200.1166626502544
  0
LINE
  8
0
  6
CONTINUOUS
 62
     7
 10
90.74925754163256
 20
196.9267425469281
 11
90.38042757113381
 21
197.8301877764958
  0
LINE
  8
0
  6
CONTINUOUS
 62
     7
 10
94.57909571765816
 20
211.1667351119486
 11
95.3006360191024
 21
211.3836303951814
  0
LINE
  8
0
  6
CONTINUOUS
 62
     7
 10
84.11687615601117
 20
222.1887967724549
 11
83.99397175586921
 21
223.1745380702019
  0
LINE
  8
0
  6
CONTINUOUS
 62
     7
 10
92.21846642442328
 20
216.9125169564957
 11
93.75312315559404
 21
216.9125169564957
  0
LINE
  8
0
  6
CONTINUOUS
 62
     7
 10
89.7694613686762
 20
221.073257453072
 11
90.74925754163262
 21
221.073257453072
  0
LINE
  8
0
  6
CONTINUOUS
 62
     7
 10
86.66697399918934
 20
223.1745380702019
 11
86.54406962295015
 21
222.1887969886341
  0
LINE
  8
0
  6
CONTINUOUS
 62
     7
 10
76.30141173840362
 20
205.9710885191382
 11
76.65792839286557
 21
205.9144893245987
  0
LINE
  8
0
  6
CONTINUOUS
 62
     7
 10
76.30141173840362
 20
212.0289114808619
 11
76.68153459160905
 21
212.1158901920464
  0
LINE
  8
0
  6
CONTINUOUS
 62
     7
 10
93.75312315559398
 20
201.0874830435043
 11
93.15634372725735
 21
201.7006657283001
  0
LINE
  8
0
  6
CONTINUOUS
 62
     7
 10
94.40267679789994
 20
212.3405122328292
 11
95.12421709934416
 21
212.557407516062
  0
LINE
  8
0
  6
CONTINUOUS
 62
     7
 10
76.50548694119892
 20
210.9445395747919
 11
76.08185003740027
 21
211.1667351119486
  0
LINE
  8
0
  6
CONTINUOUS
 62
     7
 10
81.00042362736843
 20
220.8064117731814
 11
80.64653545933955
 21
221.6732576918866
  0
LINE
  8
0
  6
CONTINUOUS
 62
     7
 10
93.53286906613602
 20
206.6163696048186
 11
95.3006360191024
 21
206.6163696048186
  0
LINE
  8
0
  6
CONTINUOUS
 62
     7
 10
76.2533828158662
 20
206.8901686954843
 11
76.50547000640219
 21
207.0556054359149
  0
LINE
  8
0
  6
CONTINUOUS
 62
     7
 10
95.3006360191024
 20
206.6163696048186
 11
94.57909571765816
 21
206.8332648880514
  0
LINE
  8
0
  6
CONTINUOUS
 62
     7
 10
83.15833485659809
 20
222.9661602753245
 11
83.2812389531451
 21
221.9804191140375
  0
LINE
  8
0
  6
CONTINUOUS
 62
     7
 10
86.64099299527219
 20
195.0338397246755
 11
87.5026108984604
 21
195.0338397246755
  0
LINE
  8
0
  6
CONTINUOUS
 62
     7
 10
90.01441030507374
 20
221.6732576849718
 11
89.66052197608805
 21
220.8064113839393
  0
LINE
  8
0
  6
CONTINUOUS
 62
     7
 10
76.65792839286557
 20
205.9144893245987
 11
76.68156269173683
 21
205.8839615547024
  0
ARC
  8
0
  6
CONTINUOUS
 62
     7
 10
90.44023947262853
 20
198.4559422200252
 40
3.176048638618819
 50
45.72139591686994
 51
83.372831873949
  0
LINE
  8
0
  6
CONTINUOUS
 62
     7
 10
88.85709923509117
 20
218.8718853682099
 11
85.67589260237652
 21
218.6318106702642
  0
ARC
  8
0
  6
CONTINUOUS
 62
     7
 10
90.4325464439751
 20
219.5602207403799
 40
3.192996663752071
 50
276.7308190541821
 51
314.174953154996
  0
LINE
  8
0
  6
CONTINUOUS
 62
     7
 10
87.565001232098
 20
201.7737115161656
 11
90.80678142859529
 21
201.610768990133
  0
ARC
  8
0
  6
CONTINUOUS
 62
     7
 10
87.74047926675567
 20
221.5320030770444
 40
2.052570902737237
 50
279.207802061347
 51
339.2982240623505
  0
LINE
  8
0
  6
CONTINUOUS
 62
     7
 10
84.10084021022935
 20
217.7784084508244
 11
84.80043214290856
 21
219.492051714056
  0
LINE
  8
0
  6
CONTINUOUS
 62
     7
 10
84.35740859064745
 20
217.7784084508244
 11
84.7521244295554
 21
217.9952608708292
  0
ARC
  8
0
  6
CONTINUOUS
 62
     7
 10
88.2749623197487
 20
213.2537133290237
 40
2.012866430419824
 50
96.02309601747001
 51
121.9130544460569
  0
LINE
  8
0
  6
CONTINUOUS
 62
     7
 10
84.31330062333154
 20
199.7011719465343
 11
84.29598871803563
 21
199.4727546198693
  0
LINE
  8
0
  6
CONTINUOUS
 62
     7
 10
87.4053416506861
 20
215.8393274055052
 11
91.146242491017
 21
216.0273205958724
  0
LINE
  8
0
  6
CONTINUOUS
 62
     7
 10
88.06892264400908
 20
198.4941193917866
 11
88.20492873731807
 21
198.4840245111924
  0
ARC
  8
0
  6
CONTINUOUS
 62
     7
 10
87.66593101833176
 20
196.4098806628502
 40
2.143033187957776
 50
21.45068882285995
 51
75.43302071448004
  0
LINE
  8
0
  6
CONTINUOUS
 62
     7
 10
82.53291732234737
 20
197.49849
 11
86.13465339895744
 21
197.49849
  0
LINE
  8
0
  6
CONTINUOUS
 62
     7
 10
84.26124500662931
 20
198.6172161046435
 11
84.75582397147708
 21
198.6172161046435
  0
LINE
  8
0
  6
CONTINUOUS
 62
     7
 10
82.53068185621255
 20
220.50151
 11
86.13465339895744
 21
220.50151
  0
LINE
  8
0
  6
CONTINUOUS
 62
     7
 10
87.565001232098
 20
216.2262884838344
 11
90.80678142859529
 21
216.389231009867
  0
LINE
  8
0
  6
CONTINUOUS
 62
     7
 10
91.76315157066335
 20
216.3209334780761
 11
92.0526176365889
 21
216.6183558941877
  0
LINE
  8
0
  6
CONTINUOUS
 62
     7
 10
91.3055337539282
 20
215.4184106166171
 11
88.06375355743097
 21
215.2554680905845
  0
LINE
  8
0
  6
CONTINUOUS
 62
     7
 10
84.80043214290856
 20
219.492051714056
 11
84.98371415159313
 21
219.5058809864177
  0
LINE
  8
0
  6
CONTINUOUS
 62
     7
 10
86.5299465057739
 20
214.6762503948121
 11
86.27337812535586
 21
214.6762503948121
  0
LINE
  8
0
  6
CONTINUOUS
 62
     7
 10
88.85709923509117
 20
199.1281146317901
 11
85.67589260237652
 21
199.3681893297358
  0
LINE
  8
0
  6
CONTINUOUS
 62
     7
 10
86.27337812535586
 20
214.6762503948121
 11
87.4053416506861
 21
215.8393274055052
  0
LINE
  8
0
  6
CONTINUOUS
 62
     7
 10
83.82628195688974
 20
198.4941193917866
 11
88.06892264400908
 21
198.4941193917866
  0
LINE
  8
0
  6
CONTINUOUS
 62
     7
 10
84.10084021022935
 20
200.2215915491756
 11
84.31330062333154
 21
199.7011719465343
  0
LINE
  8
0
  6
CONTINUOUS
 62
     7
 10
86.5299465057739
 20
214.6762503948121
 11
86.97937666487877
 21
214.8234315904741
  0
LINE
  8
0
  6
CONTINUOUS
 62
     7
 10
84.80043214290856
 20
198.507948285944
 11
84.98371415159313
 21
198.4941190135822
  0
LINE
  8
0
  6
CONTINUOUS
 62
     7
 10
83.1535625701419
 20
199.0778372749698
 11
83.00530439979116
 21
199.4409940775916
  0
LINE
  8
0
  6
CONTINUOUS
 62
     7
 10
84.7521244295554
 20
200.0047391291708
 11
84.35740859064745
 21
200.2215915491756
  0
LINE
  8
0
  6
CONTINUOUS
 62
     7
 10
92.0526176365889
 20
216.6183558941877
 11
92.14540753853152
 21
216.8441958071274
  0
ARC
  8
0
  6
CONTINUOUS
 62
     7
 10
90.93580925465734
 20
218.5799238718178
 40
3.183058634108267
 50
276.6701815284466
 51
314.235590680735
  0
LINE
  8
0
  6
CONTINUOUS
 62
     7
 10
83.82628195688974
 20
219.5058806082134
 11
88.06892264400908
 21
219.5058806082134
  0
LINE
  8
0
  6
CONTINUOUS
 62
     7
 10
84.75582380472864
 20
198.6172159527584
 11
84.80043214290856
 21
198.507948285944
  0
LINE
  8
0
  6
CONTINUOUS
 62
     7
 10
83.00530439979116
 20
199.4409940775916
 11
84.20738592780826
 21
199.4409940775916
  0
ARC
  8
0
  6
CONTINUOUS
 62
     7
 10
88.43970365701543
 20
197.0953327602988
 40
2.075191847916923
 50
20.73916891420484
 51
78.39660882551219
  0
ARC
  8
0
  6
CONTINUOUS
 62
     7
 10
88.41596426075017
 20
220.9325292835936
 40
2.107333246450341
 50
282.083283448584
 51
338.7809388117001
  0
LINE
  8
0
  6
CONTINUOUS
 62
     7
 10
86.76573719315462
 20
202.2348345371529
 11
87.33316395197845
 21
202.2348345371529
  0
LINE
  8
0
  6
CONTINUOUS
 62
     7
 10
85.70229686421011
 20
202.4574430293922
 11
85.37479587828074
 21
202.7939457498149
  0
ARC
  8
0
  6
CONTINUOUS
 62
     7
 10
88.2749623197487
 20
204.7462866709763
 40
2.012866430419824
 50
238.0869455539431
 51
263.9769039825301
  0
ARC
  8
0
  6
CONTINUOUS
 62
     7
 10
90.93578296937012
 20
199.4200209031107
 40
3.18311653857222
 50
45.76476378704726
 51
83.3294640037721
  0
LINE
  8
0
  6
CONTINUOUS
 62
     7
 10
86.27337812535586
 20
203.3237496051879
 11
86.61714629501905
 21
202.9705325216015
  0
LINE
  8
0
  6
CONTINUOUS
 62
     7
 10
85.37479587828074
 20
202.7939457498149
 11
86.5768774062979
 21
202.7939457498149
  0
LINE
  8
0
  6
CONTINUOUS
 62
     7
 10
86.97937666487877
 20
203.1765684095258
 11
86.52994650577396
 21
203.3237496051879
  0
ARC
  8
0
  6
CONTINUOUS
 62
     7
 10
92.05317001471242
 20
197.1212665624307
 40
8.855586003496162
 50
74.61441636910915
 51
87.93263915888377
  0
LINE
  8
0
  6
CONTINUOUS
 62
     7
 10
87.33316384332925
 20
202.2348343024831
 11
87.4053416506861
 21
202.1606725944948
  0
LINE
  8
0
  6
CONTINUOUS
 62
     7
 10
87.4053416506861
 20
202.1606725944948
 11
91.146242491017
 21
201.9726794041276
  0
LINE
  8
0
  6
CONTINUOUS
 62
     7
 10
86.61714629501905
 20
202.9705325216015
 11
86.6730471420545
 21
202.835304026037
  0
ARC
  8
0
  6
CONTINUOUS
 62
     7
 10
92.05316983927776
 20
220.8787345805095
 40
8.855587152021121
 50
272.0673617086777
 51
285.3855827633263
  0
LINE
  8
0
  6
CONTINUOUS
 62
     7
 10
92.54904910396984
 20
207.1448656400187
 11
89.27411589725521
 21
207.2025017511008
  0
ARC
  8
0
  6
CONTINUOUS
 62
     7
 10
92.23164798792418
 20
198.3084582032181
 40
8.842106075908147
 50
74.6042183860486
 51
87.94283714194735
  0
LINE
  8
0
  6
CONTINUOUS
 62
     7
 10
91.3055337539282
 20
202.5815893833829
 11
88.06375355743097
 21
202.7445319094155
  0
LINE
  8
0
  6
CONTINUOUS
 62
     7
 10
86.27337812535586
 20
203.3237496051879
 11
86.52994650577396
 21
203.3237496051879
  0
LINE
  8
0
  6
CONTINUOUS
 62
     7
 10
91.76315157066335
 20
201.6790665219238
 11
92.0526176365889
 21
201.3816441058123
  0
LINE
  8
0
  6
CONTINUOUS
 62
     7
 10
93.54027918355202
 20
206.7204204015996
 11
93.68144741926017
 21
206.6463994144708
  0
LINE
  8
0
  6
CONTINUOUS
 62
     7
 10
92.0526176365889
 20
201.3816441058123
 11
92.14540385862436
 21
201.1557963113853
  0
TEXT
  8
0
  6
CONTINUOUS
 62
     7
 10
93.27919844941856
 20
65.32842003251217
 40
3.0
  1
FNVHP-16BG
  0
ENDSEC
  0
EOF
