  0
SECTION
  2
HEADER
  9
$ACADVER
  1
AC1004
  9
$INSBASE
 10
0.0
 20
0.0
  9
$EXTMIN
 10
14.74116882584882
 20
44.67045454545455
  9
$EXTMAX
 10
185.0
 20
252.0
  9
$LIMMIN
 10
0.0
 20
0.0
  9
$LIMMAX
 10
12.0
 20
9.0
  9
$ORTHOMODE
 70
     0
  9
$REGENMODE
 70
     1
  9
$FILLMODE
 70
     1
  9
$QTEXTMODE
 70
     0
  9
$DRAGMODE
 70
     2
  9
$LTSCALE
 40
1.0
  9
$OSMODE
 70
    37
  9
$ATTMODE
 70
     1
  9
$TEXTSIZE
 40
0.2
  9
$TRACEWID
 40
0.05
  9
$TEXTSTYLE
  7
STANDARD
  9
$CLAYER
  8
0
  9
$CELTYPE
  6
BYLAYER
  9
$CECOLOR
 62
   256
  9
$DIMSCALE
 40
1.0
  9
$DIMASZ
 40
3.0
  9
$DIMEXO
 40
0.0625
  9
$DIMDLI
 40
0.38
  9
$DIMRND
 40
0.0
  9
$DIMDLE
 40
0.0
  9
$DIMEXE
 40
1.5
  9
$DIMTP
 40
0.0
  9
$DIMTM
 40
0.0
  9
$DIMTXT
 40
3.0
  9
$DIMCEN
 40
0.09
  9
$DIMTSZ
 40
0.0
  9
$DIMTOL
 70
     0
  9
$DIMLIM
 70
     0
  9
$DIMTIH
 70
     1
  9
$DIMTOH
 70
     1
  9
$DIMSE1
 70
     0
  9
$DIMSE2
 70
     0
  9
$DIMTAD
 70
     1
  9
$DIMZIN
 70
     0
  9
$DIMBLK
  1

  9
$DIMASO
 70
     1
  9
$DIMSHO
 70
     1
  9
$DIMPOST
  1

  9
$DIMAPOST
  1

  9
$DIMALT
 70
     0
  9
$DIMALTD
 70
     2
  9
$DIMALTF
 40
25.4
  9
$DIMLFAC
 40
1.0
  9
$DIMTOFL
 70
     0
  9
$DIMTVP
 40
0.0
  9
$DIMTIX
 70
     0
  9
$DIMSOXD
 70
     0
  9
$DIMSAH
 70
     0
  9
$DIMBLK1
  1

  9
$DIMBLK2
  1

  9
$LUNITS
 70
     2
  9
$LUPREC
 70
     4
  9
$SKETCHINC
 40
0.1
  9
$FILLETRAD
 40
0.5
  9
$AUNITS
 70
     0
  9
$AUPREC
 70
     0
  9
$MENU
  1
.
  9
$ELEVATION
 40
0.0
  9
$THICKNESS
 40
0.0
  9
$LIMCHECK
 70
     0
  9
$CHAMFERA
 40
0.0
  9
$CHAMFERB
 40
0.0
  9
$SKPOLY
 70
     0
  9
$TDCREATE
 40
2460052.539035301
  9
$TDUPDATE
 40
2460052.539035775
  9
$TDINDWG
 40
0.0000000116
  9
$TDUSRTIMER
 40
0.0000000116
  9
$USRTIMER
 70
     1
  9
$ANGBASE
 50
0.0
  9
$ANGDIR
 70
     0
  9
$PDMODE
 70
     0
  9
$PDSIZE
 40
0.0
  9
$PLINEWID
 40
0.0
  9
$COORDS
 70
     1
  9
$SPLFRAME
 70
     0
  9
$SPLINETYPE
 70
     6
  9
$SPLINESEGS
 70
     8
  9
$ATTDIA
 70
     0
  9
$ATTREQ
 70
     1
  9
$SURFTAB1
 70
     6
  9
$SURFTAB2
 70
     6
  9
$SURFTYPE
 70
     6
  9
$SURFU
 70
     6
  9
$SURFV
 70
     6
  9
$UCSNAME
  2

  9
$UCSORG
 10
0.0
 20
0.0
 30
0.0
  9
$UCSXDIR
 10
1.0
 20
0.0
 30
0.0
  9
$UCSYDIR
 10
0.0
 20
1.0
 30
0.0
  9
$USERI1
 70
     0
  9
$USERI2
 70
     0
  9
$USERI3
 70
     0
  9
$USERI4
 70
     0
  9
$USERI5
 70
     0
  9
$USERR1
 40
0.0
  9
$USERR2
 40
0.0
  9
$USERR3
 40
0.0
  9
$USERR4
 40
0.0
  9
$USERR5
 40
0.0
  9
$WORLDVIEW
 70
     1
  0
ENDSEC
  0
SECTION
  2
TABLES
  0
TABLE
  2
LTYPE
 70
     2
  0
LTYPE
  2
CONTINUOUS
 70
     0
  3
Solid line
 72
    65
 73
     0
 40
0.0
  0
LTYPE
  2
CENTER
 70
     0
  3

 72
    65
 73
     0
 40
0.0
  0
ENDTAB
  0
TABLE
  2
LAYER
 70
     1
  0
LAYER
  2
0
 70
     0
 62
     7
  6
CONTINUOUS
  0
ENDTAB
  0
TABLE
  2
STYLE
 70
     2
  0
STYLE
  2
STANDARD
 70
     0
 40
0.0
 41
1.0
 50
0.0
 71
     0
 42
0.2
  3
txt
  4

  0
STYLE
  2
ＭＳ_ゴシック
 70
     0
 40
0.0
 41
1.0
 50
0.0
 71
     0
 42
0.2
  3
ＭＳ ゴシック.shx
  4

  0
ENDTAB
  0
TABLE
  2
VIEW
 70
     0
  0
ENDTAB
  0
ENDSEC
  0
SECTION
  2
BLOCKS
  0
BLOCK
  8
0
  2
D_FRAME_VIEW_1510
 70
     0
 10
0.0
 20
0.0
  0
ENDBLK
  8
0
  0
BLOCK
  8
0
  2
D_FRAME_VIEW_2161
 70
     0
 10
0.0
 20
0.0
  0
ENDBLK
  8
0
  0
BLOCK
  8
0
  2
D_FRAME_VIEW_2705
 70
     0
 10
0.0
 20
0.0
  0
ENDBLK
  8
0
  0
ENDSEC
  0
SECTION
  2
ENTITIES
  0
INSERT
  8
0
  6
CONTINUOUS
 62
     7
  2
D_FRAME_VIEW_1510
 10
0.0
 20
0.0
 30
0.0
  0
LINE
  8
0
  6
CONTINUOUS
 62
     7
 10
80.96891279408399
 20
210.0689314303283
 11
79.55469923156927
 21
210.0689314303285
  0
LINE
  8
0
  6
CONTINUOUS
 62
     7
 10
82.1200199459653
 20
226.0367959351416
 11
81.2421482867652
 21
226.0367959351414
  0
LINE
  8
0
  6
CONTINUOUS
 62
     7
 10
38.01178482138263
 20
217.9659928878632
 11
37.91376993988356
 21
218.1439211460537
  0
LINE
  8
0
  6
CONTINUOUS
 62
     7
 10
82.86728013288833
 20
222.8155388688285
 11
82.13981209780229
 21
222.8155388688285
  0
LINE
  8
0
  6
CONTINUOUS
 62
     7
 10
82.10240654760179
 20
222.810759463105
 11
82.13981209780258
 21
222.8155388688263
  0
LINE
  8
0
  6
CONTINUOUS
 62
     7
 10
78.16167261523219
 20
207.742690892485
 11
78.0485458296481
 21
207.742690892485
  0
LINE
  8
0
  6
CONTINUOUS
 62
     7
 10
77.66686425413866
 20
207.5623734195156
 11
78.0485458296481
 21
207.742690892485
  0
LINE
  8
0
  6
CONTINUOUS
 62
     7
 10
37.91362245431907
 20
218.144014452994
 11
37.7844838973412
 21
218.25
  0
LINE
  8
0
  6
CONTINUOUS
 62
     7
 10
80.6272138224478
 20
228.0435020043671
 11
80.71287218131882
 21
228.0726028248375
  0
LINE
  8
0
  6
CONTINUOUS
 62
     7
 10
81.29993304022645
 20
228.0726028248395
 11
80.71287218131798
 21
228.0726028248395
  0
LINE
  8
0
  6
CONTINUOUS
 62
     7
 10
37.78448389734805
 20
221.75
 11
37.91352886656354
 21
221.8558463870366
  0
LINE
  8
0
  6
CONTINUOUS
 62
     7
 10
80.60982262321298
 20
227.8152887915754
 11
80.6272138224478
 21
228.0435020043671
  0
LINE
  8
0
  6
CONTINUOUS
 62
     7
 10
81.56475553654086
 20
209.3618650597
 11
80.96891279408399
 21
210.0689314303283
  0
CIRCLE
  8
0
  6
CONTINUOUS
 62
     7
 10
46.7411473084146
 20
195.0279392204026
 40
0.599626166256187
  0
CIRCLE
  8
0
  6
CONTINUOUS
 62
     7
 10
46.74114730935406
 20
244.9720995757762
 40
0.5996272092037609
  0
LINE
  8
0
  6
CONTINUOUS
 62
     7
 10
83.6650726113978
 20
214.6118470437386
 11
82.9296317552106
 21
214.9699720136188
  0
LINE
  8
0
  6
CONTINUOUS
 62
     7
 10
78.16167261525919
 20
232.2573091074919
 11
77.83641379545836
 21
232.2573091074919
  0
LINE
  8
0
  6
CONTINUOUS
 62
     7
 10
81.41530759047389
 20
226.1407431261108
 11
81.2421482867652
 21
226.0367959351414
  0
LINE
  8
0
  6
CONTINUOUS
 62
     7
 10
79.09822520096016
 20
230.8058979365184
 11
79.04446036091414
 21
230.7324718235774
  0
LINE
  8
0
  6
CONTINUOUS
 62
     7
 10
37.91367482931878
 20
221.8559384337992
 11
38.01183949763028
 21
222.0341212252817
  0
LINE
  8
0
  6
CONTINUOUS
 62
     7
 10
88.1411105206335
 20
208.4230113031252
 11
87.59873570166015
 21
209.113651661162
  0
LINE
  8
0
  6
CONTINUOUS
 62
     7
 10
88.6504974756024
 20
214.2013626305889
 11
90.41826442856873
 21
214.2013626305889
  0
LINE
  8
0
  6
CONTINUOUS
 62
     7
 10
83.36053777085912
 20
204.1825372790477
 11
84.55094451085237
 21
204.1825372790477
  0
LINE
  8
0
  6
CONTINUOUS
 62
     7
 10
79.73904728370648
 20
238.0285576035823
 11
79.61725908798994
 21
236.9411116539667
  0
LINE
  8
0
  6
CONTINUOUS
 62
     7
 10
79.71276753446728
 20
237.793905906027
 11
80.78664896867623
 21
237.793905906027
  0
LINE
  8
0
  6
CONTINUOUS
 62
     7
 10
66.77686717288402
 20
214.5712506115463
 11
66.09550534749121
 21
214.2013626305889
  0
LINE
  8
0
  6
CONTINUOUS
 62
     7
 10
80.78664896867625
 20
202.206094093973
 11
80.66486077297652
 21
203.2935400435929
  0
LINE
  8
0
  6
CONTINUOUS
 62
     7
 10
72.90788039820548
 20
236.4984484705585
 11
73.26132350820588
 21
235.5174493071773
  0
LINE
  8
0
  6
CONTINUOUS
 62
     7
 10
84.55094451085237
 20
204.1825372790477
 11
84.21960530660819
 21
205.1021859381147
  0
LINE
  8
0
  6
CONTINUOUS
 62
     7
 10
79.73904728370647
 20
201.9714423964176
 11
79.61725908798994
 21
203.0588883460333
  0
LINE
  8
0
  6
CONTINUOUS
 62
     7
 10
83.25244626786684
 20
204.4825506928285
 11
83.60588937785441
 21
203.5015515294414
  0
LINE
  8
0
  6
CONTINUOUS
 62
     7
 10
87.59873570166013
 20
230.8863483388379
 11
88.1411105206335
 21
231.5769886968748
  0
LINE
  8
0
  6
CONTINUOUS
 62
     7
 10
67.15697378380914
 20
226.8291200281994
 11
66.47561195841632
 21
227.1990080091568
  0
LINE
  8
0
  6
CONTINUOUS
 62
     7
 10
69.08237943931017
 20
207.3082940649091
 11
69.62475425828355
 21
207.9989344229459
  0
LINE
  8
0
  6
CONTINUOUS
 62
     7
 10
72.29416446945176
 20
205.1021859381147
 11
71.96282526520758
 21
204.1825372790478
  0
LINE
  8
0
  6
CONTINUOUS
 62
     7
 10
90.41826442856873
 20
214.2013626305889
 11
89.73690260317593
 21
214.5712506115463
  0
LINE
  8
0
  6
CONTINUOUS
 62
     7
 10
75.84890900309793
 20
236.7064599564107
 11
75.72712080738367
 21
237.793905906027
  0
LINE
  8
0
  6
CONTINUOUS
 62
     7
 10
66.09550534749121
 20
225.798637369411
 11
66.77686717288402
 21
225.4287493884536
  0
LINE
  8
0
  6
CONTINUOUS
 62
     7
 10
66.47561195841632
 20
212.8009919908431
 11
67.15697378380914
 21
213.1708799718005
  0
LINE
  8
0
  6
CONTINUOUS
 62
     7
 10
86.45668836978155
 20
208.4230113031252
 11
88.1411105206335
 21
208.4230113031252
  0
LINE
  8
0
  6
CONTINUOUS
 62
     7
 10
90.03815781764364
 20
227.1990080091568
 11
89.35679599225082
 21
226.8291200281994
  0
LINE
  8
0
  6
CONTINUOUS
 62
     7
 10
80.78664896867623
 20
237.793905906027
 11
80.66486077297652
 21
236.706459956407
  0
LINE
  8
0
  6
CONTINUOUS
 62
     7
 10
79.71276753446726
 20
202.206094093973
 11
80.78664896867625
 21
202.206094093973
  0
LINE
  8
0
  6
CONTINUOUS
 62
     7
 10
87.43139033674979
 20
232.6917059350908
 11
86.88901551777641
 21
232.001065577054
  0
LINE
  8
0
  6
CONTINUOUS
 62
     7
 10
84.21960530660819
 20
234.8978140618852
 11
84.55094451085237
 21
235.8174627209522
  0
LINE
  8
0
  6
CONTINUOUS
 62
     7
 10
76.89651068810504
 20
236.9411116539695
 11
76.7747224923882
 21
238.028557603588
  0
LINE
  8
0
  6
CONTINUOUS
 62
     7
 10
86.88901551777641
 20
207.9989344229459
 11
87.43139033674979
 21
207.3082940649091
  0
LINE
  8
0
  6
CONTINUOUS
 62
     7
 10
68.91503407439981
 20
209.113651661162
 11
68.37265925542644
 21
208.4230113031252
  0
LINE
  8
0
  6
CONTINUOUS
 62
     7
 10
89.73690260317592
 20
225.4287493884536
 11
90.41826442856873
 21
225.798637369411
  0
LINE
  8
0
  6
CONTINUOUS
 62
     7
 10
71.96282526520758
 20
235.8174627209522
 11
72.29416446945176
 21
234.8978140618852
  0
LINE
  8
0
  6
CONTINUOUS
 62
     7
 10
76.89651068810504
 20
203.0588883460305
 11
76.77472249238821
 21
201.971442396412
  0
LINE
  8
0
  6
CONTINUOUS
 62
     7
 10
69.62475425828355
 20
232.001065577054
 11
69.08237943931017
 21
232.6917059350909
  0
LINE
  8
0
  6
CONTINUOUS
 62
     7
 10
72.9078803982055
 20
203.5015515294415
 11
73.26132350820588
 21
204.4825506928226
  0
LINE
  8
0
  6
CONTINUOUS
 62
     7
 10
89.35679599225082
 20
213.1708799718005
 11
90.03815781764364
 21
212.8009919908431
  0
LINE
  8
0
  6
CONTINUOUS
 62
     7
 10
75.84890900309793
 20
203.2935400435892
 11
75.72712080738366
 21
202.206094093973
  0
LINE
  8
0
  6
CONTINUOUS
 62
     7
 10
88.1411105206335
 20
231.5769886968748
 11
86.45669150531832
 21
231.5769886968748
  0
LINE
  8
0
  6
CONTINUOUS
 62
     7
 10
90.41826442856873
 20
225.798637369411
 11
88.65049747560239
 21
225.798637369411
  0
LINE
  8
0
  6
CONTINUOUS
 62
     7
 10
83.25244626786684
 20
235.5174493071714
 11
83.60588937785442
 21
236.4984484705585
  0
LINE
  8
0
  6
CONTINUOUS
 62
     7
 10
68.37265925542644
 20
231.5769886968748
 11
68.9150340743998
 21
230.8863483388379
  0
LINE
  8
0
  6
CONTINUOUS
 62
     7
 10
53.16147904263183
 20
74.9981861261476
 11
53.16147904263183
 21
103.9981861261476
  0
ARC
  8
0
  6
CONTINUOUS
 62
     7
 10
62.04487516423001
 20
99.73700126432202
 40
6.364526230666073
 50
67.44046052541484
 51
87.95791870071623
  0
LINE
  8
0
  6
CONTINUOUS
 62
     7
 10
60.30582779853915
 20
106.2142372967581
 11
62.27166549081974
 21
106.0974855453026
  0
LINE
  8
0
  6
CONTINUOUS
 62
     7
 10
62.24116882584885
 20
74.9981861261476
 11
62.24116882584885
 21
103.9981861261476
  0
LINE
  8
0
  6
CONTINUOUS
 62
     7
 10
63.47835316123115
 20
155.8946200451973
 11
63.51690569269777
 21
155.8560675137307
  0
LINE
  8
0
  6
CONTINUOUS
 62
     7
 10
65.24612011419751
 20
155.8946200451974
 11
91.26764966186246
 21
129.8730904975324
  0
LINE
  8
0
  6
CONTINUOUS
 62
     7
 10
91.11279050307314
 20
128.2601827033554
 11
91.26764966186241
 21
128.1053235445661
  0
ARC
  8
0
  6
CONTINUOUS
 62
     7
 10
88.1697741987956
 20
127.3221718531917
 40
2.988483456072118
 50
315.0318245324556
 51
0.2664244717483371
  0
LINE
  8
0
  6
CONTINUOUS
 62
     7
 10
90.2841245390731
 20
125.210169010915
 11
78.96521222004557
 21
113.8912566918874
  0
LINE
  8
0
  6
CONTINUOUS
 62
     7
 10
51.85063656502822
 20
108.5801975721653
 11
54.75913122088826
 21
107.4823314110823
  0
LINE
  8
0
  6
CONTINUOUS
 62
     7
 10
64.48658290912206
 20
105.6145226321582
 11
65.74116882582953
 21
104.9830057645963
  0
LINE
  8
0
  6
CONTINUOUS
 62
     7
 10
60.30582779853915
 20
106.2142372967581
 11
58.8908725191339
 21
106.4044477047718
  0
LINE
  8
0
  6
CONTINUOUS
 62
     7
 10
76.74116882584889
 20
71.99818612614763
 11
16.74116882584883
 21
71.99818612614762
  0
LINE
  8
0
  6
CONTINUOUS
 62
     7
 10
40.32085860906585
 20
74.99818612614759
 11
40.32085860906584
 21
103.9981861261476
  0
LINE
  8
0
  6
CONTINUOUS
 62
     7
 10
27.74116882584887
 20
103.9981861261476
 11
65.74116882584882
 21
103.9981861261476
  0
LINE
  8
0
  6
CONTINUOUS
 62
     7
 10
69.65773339114581
 20
109.0890425520037
 11
69.75639473737131
 21
108.9982316761138
  0
LINE
  8
0
  6
CONTINUOUS
 62
     7
 10
31.24116882584886
 20
74.99818612614759
 11
31.24116882584886
 21
103.9981861261476
  0
ARC
  8
0
  6
CONTINUOUS
 62
     7
 10
60.32066882584894
 20
75.4938417314477
 40
0.4999999999999474
 50
262.4415590319097
 51
269.4994267598872
  0
ARC
  8
0
  6
CONTINUOUS
 62
     7
 10
90.38376618537927
 20
128.9892070210492
 40
1.249999999999986
 50
315.0000000000003
 51
45.0
  0
ARC
  8
0
  6
CONTINUOUS
 62
     7
 10
18.0333207772488
 20
73.56757351364762
 40
0.9999999999999213
 50
91.99999999957603
 51
170.0000000025222
  0
LINE
  8
0
  6
CONTINUOUS
 62
     7
 10
51.42218254200052
 20
141.4342863699324
 11
50.99791847335929
 21
141.0100223012912
  0
LINE
  8
0
  6
CONTINUOUS
 62
     7
 10
79.07005768639449
 20
113.7864112255385
 11
90.38897000542204
 21
125.105323544566
  0
LINE
  8
0
  6
CONTINUOUS
 62
     7
 10
17.04851302423523
 20
73.74122169127008
 11
16.74116882584883
 21
71.99818612614762
  0
LINE
  8
0
  6
CONTINUOUS
 62
     7
 10
76.74116882584889
 20
71.99818612614763
 11
76.43382462746249
 21
73.7412216912701
  0
ARC
  8
0
  6
CONTINUOUS
 62
     7
 10
64.36223663771433
 20
155.0107365687142
 40
1.250000000000025
 50
45.00000000000001
 51
135.0
  0
LINE
  8
0
  6
CONTINUOUS
 62
     7
 10
75.48391637114408
 20
74.56696434066693
 11
64.24116882584899
 21
74.95956973614771
  0
LINE
  8
0
  6
CONTINUOUS
 62
     7
 10
91.26764966186244
 20
127.2266438881257
 11
91.26764966186244
 21
128.1053235445661
  0
ARC
  8
0
  6
CONTINUOUS
 62
     7
 10
57.29116882584884
 20
106.9981861261476
 40
23.10000000000001
 50
141.6451426694456
 51
176.41168655801
  0
LINE
  8
0
  6
CONTINUOUS
 62
     7
 10
27.74116882584887
 20
105.6145226321582
 11
27.74116882584888
 21
103.9981861261476
  0
ARC
  8
0
  6
CONTINUOUS
 62
     7
 10
38.39258791123212
 20
121.9532401017669
 40
1.000000000000004
 50
321.6442999382825
 51
14.99999999999994
  0
LINE
  8
0
  6
CONTINUOUS
 62
     7
 10
29.2411688258488
 20
74.9595697361477
 11
17.99842128055371
 21
74.5669643406669
  0
ARC
  8
0
  6
CONTINUOUS
 62
     7
 10
33.23841101193737
 20
108.5064439109184
 40
1.000000000000004
 50
285.0
 51
356.4118955945517
  0
ARC
  8
0
  6
CONTINUOUS
 62
     7
 10
88.26764966186242
 20
127.2266438881257
 40
2.999999999999989
 50
315.0000000000002
 51
359.9999999999996
  0
ARC
  8
0
  6
CONTINUOUS
 62
     7
 10
28.24116882584888
 20
105.6145226321581
 40
0.5000000000000022
 50
105.0000000000004
 51
180.0000000000003
  0
LINE
  8
0
  6
CONTINUOUS
 62
     7
 10
76.38305191795631
 20
115.6248888566942
 11
76.80731598659754
 21
116.0491529253354
  0
ARC
  8
0
  6
CONTINUOUS
 62
     7
 10
75.4490168744489
 20
73.56757351364764
 40
0.999999999999934
 50
9.999999997477742
 51
88.00000000042398
  0
ARC
  8
0
  6
CONTINUOUS
 62
     7
 10
33.16166882584878
 20
75.49384173144769
 40
0.4999999999999456
 50
270.5005732401119
 51
277.5584409680903
  0
LINE
  8
0
  6
CONTINUOUS
 62
     7
 10
78.1577739647647
 20
205.8204805289601
 11
77.89647866604342
 21
206.4871255246947
  0
LINE
  8
0
  6
CONTINUOUS
 62
     7
 10
77.89647866604342
 20
206.4871255246947
 11
76.48226510367031
 21
206.4871255246947
  0
TEXT
  8
0
  6
CONTINUOUS
 62
     7
 10
98.27919844941854
 20
44.3284200325122
 40
3.0
  1
FNVHP-16BG
  0
LINE
  8
0
  6
CONTINUOUS
 62
     7
 10
72.3868820253239
 20
205.8204805289417
 11
72.68270460607445
 21
205.8204805289417
  0
LINE
  8
0
  6
CONTINUOUS
 62
     7
 10
75.2001952062315
 20
235.2656356059804
 11
75.19545981247074
 21
235.2233533081321
  0
LINE
  8
0
  6
CONTINUOUS
 62
     7
 10
69.44667518701155
 20
231.0005075759016
 11
69.82146951236442
 21
231.1817735837112
  0
LINE
  8
0
  6
CONTINUOUS
 62
     7
 10
75.19545981247074
 20
204.7766466918678
 11
79.43810049959004
 21
204.7766466918678
  0
LINE
  8
0
  6
CONTINUOUS
 62
     7
 10
84.55094451085237
 20
235.8174627209522
 11
83.36053777085911
 21
235.8174627209522
  0
LINE
  8
0
  6
CONTINUOUS
 62
     7
 10
67.18025068560033
 20
226.2932486813105
 11
67.54359190988993
 21
226.4320530733393
  0
LINE
  8
0
  6
CONTINUOUS
 62
     7
 10
72.89464859710067
 20
234.2093430112315
 11
72.68270460607488
 21
234.1795194710571
  0
LINE
  8
0
  6
CONTINUOUS
 62
     7
 10
77.46710413933661
 20
205.8204805289601
 11
81.7097448264559
 21
205.8204805289601
  0
LINE
  8
0
  6
CONTINUOUS
 62
     7
 10
79.64937438065402
 20
205.9216643439007
 11
80.5609088548596
 21
205.8204791321024
  0
LINE
  8
0
  6
CONTINUOUS
 62
     7
 10
76.15822225758679
 20
235.4580050056946
 11
78.39049881458014
 21
235.4580050056946
  0
LINE
  8
0
  6
CONTINUOUS
 62
     7
 10
76.15314169255225
 20
204.5419949943053
 11
78.39049881458014
 21
204.5419949943053
  0
LINE
  8
0
  6
CONTINUOUS
 62
     7
 10
78.58891882510439
 20
206.0108612319061
 11
78.6210554738141
 21
205.9216643439006
  0
LINE
  8
0
  6
CONTINUOUS
 62
     7
 10
72.38702412394898
 20
234.1795194710583
 11
72.68270460607445
 21
234.1795194710583
  0
LINE
  8
0
  6
CONTINUOUS
 62
     7
 10
73.04926059609207
 20
234.2796804203759
 11
72.93361328886623
 21
234.2223977892169
  0
LINE
  8
0
  6
CONTINUOUS
 62
     7
 10
81.7097448264559
 20
234.1795194710398
 11
81.84554089446247
 21
234.1899291039688
  0
ARC
  8
0
  6
CONTINUOUS
 62
     7
 10
81.30074750307736
 20
236.1765798933015
 40
2.059995436415569
 50
285.3350702199089
 51
341.3390700299628
  0
LINE
  8
0
  6
CONTINUOUS
 62
     7
 10
67.5436592318501
 20
213.5677308405695
 11
67.18025068560033
 21
213.7067513186895
  0
LINE
  8
0
  6
CONTINUOUS
 62
     7
 10
66.20695613939614
 20
226.2437371915652
 11
67.18025068560033
 21
226.2932486813105
  0
LINE
  8
0
  6
CONTINUOUS
 62
     7
 10
69.82140494273666
 20
208.818318406596
 11
69.44667518701155
 21
208.9994924240983
  0
LINE
  8
0
  6
CONTINUOUS
 62
     7
 10
72.93361328886623
 20
234.2223977892169
 11
72.89464859710067
 21
234.2093430112315
  0
LINE
  8
0
  6
CONTINUOUS
 62
     7
 10
67.18025068560033
 20
213.7067513186895
 11
66.21092933678794
 21
213.7560606896138
  0
LINE
  8
0
  6
CONTINUOUS
 62
     7
 10
73.04929793353458
 20
205.7202958193577
 11
72.68270460607488
 21
205.8204805289429
  0
LINE
  8
0
  6
CONTINUOUS
 62
     7
 10
75.19545981247074
 20
235.2233533081321
 11
79.43810049959004
 21
235.2233533081321
  0
LINE
  8
0
  6
CONTINUOUS
 62
     7
 10
75.2001970857025
 20
204.7343476122361
 11
75.19545981247074
 21
204.7766466918678
  0
LINE
  8
0
  6
CONTINUOUS
 62
     7
 10
77.46710413933661
 20
234.1795194710398
 11
81.7097448264559
 21
234.1795194710398
  0
LINE
  8
0
  6
CONTINUOUS
 62
     7
 10
87.40584124614203
 20
226.2932486813105
 11
84.24206847926536
 21
226.1577070883317
  0
LINE
  8
0
  6
CONTINUOUS
 62
     7
 10
83.7603700151508
 20
214.9367250418656
 11
83.826455420519
 21
214.9008495404045
  0
LINE
  8
0
  6
CONTINUOUS
 62
     7
 10
85.1394167447308
 20
231.0005075759016
 11
82.02657431683048
 21
230.7474296195391
  0
LINE
  8
0
  6
CONTINUOUS
 62
     7
 10
81.927595719148
 20
210.6994748807255
 11
81.73935256666381
 21
210.8344511252914
  0
ARC
  8
0
  6
CONTINUOUS
 62
     7
 10
85.42126345810425
 20
232.6639531088375
 40
2.810918726996805
 50
278.7555063726588
 51
320.7731194105538
  0
LINE
  8
0
  6
CONTINUOUS
 62
     7
 10
82.7757421749688
 20
206.4345173221279
 11
79.74023154714918
 21
206.771512982025
  0
LINE
  8
0
  6
CONTINUOUS
 62
     7
 10
78.8860384933954
 20
207.3935824678631
 11
78.49948863089634
 21
207.6166358134243
  0
ARC
  8
0
  6
CONTINUOUS
 62
     7
 10
82.23961097399237
 20
204.4269499260657
 40
2.091965876671661
 50
18.83087835807278
 51
71.84522345756602
  0
LINE
  8
0
  6
CONTINUOUS
 62
     7
 10
82.89143618267168
 20
206.4147741452784
 11
82.7757421749688
 21
206.4345173221279
  0
LINE
  8
0
  6
CONTINUOUS
 62
     7
 10
77.00311252439404
 20
206.4871255246947
 11
76.88545485848336
 21
206.8136903057339
  0
ARC
  8
0
  6
CONTINUOUS
 62
     7
 10
82.95653332924648
 20
212.0539203842428
 40
1.700951271340099
 50
232.7769921823579
 51
262.5604670722291
  0
ARC
  8
0
  6
CONTINUOUS
 62
     7
 10
85.41197701401697
 20
207.3198084010776
 40
2.8283895063681
 50
39.36273549364329
 51
81.10863872314395
  0
ARC
  8
0
  6
CONTINUOUS
 62
     7
 10
82.96321784957806
 20
227.9298063745313
 40
1.717958985024665
 50
97.59031979812444
 51
127.0722209472892
  0
LINE
  8
0
  6
CONTINUOUS
 62
     7
 10
81.73935256666381
 20
229.1655488747086
 11
81.927595719148
 21
229.3005251192745
  0
LINE
  8
0
  6
CONTINUOUS
 62
     7
 10
78.49948863089634
 20
232.3833641865756
 11
78.8860384933954
 21
232.6064175321369
  0
LINE
  8
0
  6
CONTINUOUS
 62
     7
 10
85.84913692861454
 20
210.1142096623144
 11
82.73629450071421
 21
210.367287618677
  0
ARC
  8
0
  6
CONTINUOUS
 62
     7
 10
82.25349766569445
 20
210.9554763872529
 40
1.717958985024954
 50
232.9277790527135
 51
262.4096802018731
  0
ARC
  8
0
  6
CONTINUOUS
 62
     7
 10
84.70640657766809
 20
233.7876524929915
 40
2.820580541952235
 50
278.8308610497361
 51
320.697764733476
  0
LINE
  8
0
  6
CONTINUOUS
 62
     7
 10
82.73629450071421
 20
229.632712381323
 11
85.84913692861453
 21
229.8857903376855
  0
LINE
  8
0
  6
CONTINUOUS
 62
     7
 10
84.85477432735894
 20
214.9008495404045
 11
87.61181659000908
 21
214.7827471946294
  0
LINE
  8
0
  6
CONTINUOUS
 62
     7
 10
82.28491299934677
 20
214.9699720136188
 11
81.75134551300894
 21
215.2596275136349
  0
LINE
  8
0
  6
CONTINUOUS
 62
     7
 10
76.88545485848336
 20
206.8136903057339
 11
78.08753638642979
 21
206.8136903057339
  0
ARC
  8
0
  6
CONTINUOUS
 62
     7
 10
84.71154265347111
 20
206.2213285674896
 40
2.810919894294106
 50
39.2268897270547
 51
81.24448448973322
  0
LINE
  8
0
  6
CONTINUOUS
 62
     7
 10
79.0330376113914
 20
207.2138496722388
 11
78.8860384933954
 21
207.3935824678631
  0
LINE
  8
0
  6
CONTINUOUS
 62
     7
 10
82.8404556469248
 20
209.7290658783149
 11
85.55312044305683
 21
209.5085498016369
  0
LINE
  8
0
  6
CONTINUOUS
 62
     7
 10
79.64937438065401
 20
234.0783356560993
 11
78.62105547381408
 21
234.0783356560993
  0
LINE
  8
0
  6
CONTINUOUS
 62
     7
 10
80.81250515808412
 20
228.9980396406973
 11
81.3016177223417
 21
228.9980396406974
  0
LINE
  8
0
  6
CONTINUOUS
 62
     7
 10
81.75134551300894
 20
215.2596275136349
 11
82.95342704095538
 21
215.2596275136349
  0
LINE
  8
0
  6
CONTINUOUS
 62
     7
 10
78.20324267349312
 20
207.0813248266759
 11
78.17196623911909
 21
206.8417339736067
  0
LINE
  8
0
  6
CONTINUOUS
 62
     7
 10
79.74023154714918
 20
233.2284870179749
 11
82.7757421749688
 21
233.565482677872
  0
LINE
  8
0
  6
CONTINUOUS
 62
     7
 10
80.56090885485952
 20
234.1795208678975
 11
79.64937438065401
 21
234.0783356560993
  0
LINE
  8
0
  6
CONTINUOUS
 62
     7
 10
78.8860384933954
 20
232.6064175321369
 11
79.0330376113914
 21
232.7861503277612
  0
LINE
  8
0
  6
CONTINUOUS
 62
     7
 10
79.87183920560584
 20
210.3989620648474
 11
81.07392073355227
 21
210.3989620648474
  0
LINE
  8
0
  6
CONTINUOUS
 62
     7
 10
86.13630634214992
 20
209.1750479027147
 11
86.46392460666786
 21
208.7578707263584
  0
LINE
  8
0
  6
CONTINUOUS
 62
     7
 10
82.02657431683048
 20
209.2525703804608
 11
85.1394167447308
 21
208.9994924240984
  0
ARC
  8
0
  6
CONTINUOUS
 62
     7
 10
87.03064518512782
 20
208.521398877326
 40
5.198908734085911
 50
63.42104754937525
 51
85.86146705122945
  0
LINE
  8
0
  6
CONTINUOUS
 62
     7
 10
87.61181659000908
 20
214.7827471946294
 11
88.26211763814756
 21
214.60413274993
  0
LINE
  8
0
  6
CONTINUOUS
 62
     7
 10
86.46392460666787
 20
208.7578707263584
 11
86.53426844229027
 21
208.492269410517
  0
LINE
  8
0
  6
CONTINUOUS
 62
     7
 10
86.46392460666787
 20
231.2421292736415
 11
86.13630634214994
 21
230.8249520972852
  0
LINE
  8
0
  6
CONTINUOUS
 62
     7
 10
78.01037606663876
 20
207.6166358134244
 11
78.20324267349312
 21
207.0813248266759
  0
LINE
  8
0
  6
CONTINUOUS
 62
     7
 10
80.81250515808412
 20
211.0019603593026
 11
81.12821181047761
 21
210.5999509963746
  0
LINE
  8
0
  6
CONTINUOUS
 62
     7
 10
81.3016177223417
 20
211.0019603593026
 11
80.81250515808412
 21
211.0019603593026
  0
LINE
  8
0
  6
CONTINUOUS
 62
     7
 10
81.75953170933973
 20
209.7960512102246
 11
81.81213674008487
 21
209.7290658783149
  0
ARC
  8
0
  6
CONTINUOUS
 62
     7
 10
87.03119146844512
 20
231.4766122609133
 40
5.196885649529039
 50
274.1341083181986
 51
296.5833770811951
  0
LINE
  8
0
  6
CONTINUOUS
 62
     7
 10
81.3016177223417
 20
228.9980396406974
 11
81.73935256666381
 21
229.1655488747086
  0
LINE
  8
0
  6
CONTINUOUS
 62
     7
 10
78.01037606663876
 20
232.3833641865756
 11
78.49948863089634
 21
232.3833641865756
  0
LINE
  8
0
  6
CONTINUOUS
 62
     7
 10
84.24206847926536
 20
213.8422929116683
 11
87.40584124614203
 21
213.7067513186895
  0
LINE
  8
0
  6
CONTINUOUS
 62
     7
 10
81.12821181047761
 20
210.5999509963746
 11
81.17083261598617
 21
210.4411658477649
  0
LINE
  8
0
  6
CONTINUOUS
 62
     7
 10
78.62105547381408
 20
234.0783356560993
 11
78.01037606663876
 21
232.3833641865756
  0
LINE
  8
0
  6
CONTINUOUS
 62
     7
 10
81.73935256666381
 20
210.8344511252914
 11
81.3016177223417
 21
211.0019603593026
  0
ARC
  8
0
  6
CONTINUOUS
 62
     7
 10
82.3117584075162
 20
235.5168387117889
 40
2.005759533833314
 50
283.3751349639369
 51
342.0237005431454
  0
LINE
  8
0
  6
CONTINUOUS
 62
     7
 10
81.81213674008487
 20
230.270934121685
 11
80.81250515808412
 21
228.9980396406973
  0
ARC
  8
0
  6
CONTINUOUS
 62
     7
 10
82.24681314536276
 20
229.0607968539733
 40
1.700951271340099
 50
97.43953292777078
 51
127.2230078176421
  0
LINE
  8
0
  6
CONTINUOUS
 62
     7
 10
80.13101940492363
 20
210.0689314303284
 11
79.87183920560584
 21
210.3989620648474
  0
LINE
  8
0
  6
CONTINUOUS
 62
     7
 10
80.10278497420039
 20
209.8872431210865
 11
80.59189753845799
 21
209.8872431210865
  0
LINE
  8
0
  6
CONTINUOUS
 62
     7
 10
88.26211763814756
 20
214.60413274993
 11
88.67369017237122
 21
214.3807041279731
  0
LINE
  8
0
  6
CONTINUOUS
 62
     7
 10
88.67369017237122
 20
214.3807041279731
 11
88.80314951129046
 21
214.2506384216397
  0
LINE
  8
0
  6
CONTINUOUS
 62
     7
 10
81.0296323827801
 20
230.2802661129247
 11
80.59189753845799
 21
230.1127568789135
  0
LINE
  8
0
  6
CONTINUOUS
 62
     7
 10
81.21787553526427
 20
230.4152423574906
 11
81.0296323827801
 21
230.2802661129247
  0
LINE
  8
0
  6
CONTINUOUS
 62
     7
 10
83.36651911101458
 20
214.0202032730149
 11
84.24206847926536
 21
213.8422929116683
  0
LINE
  8
0
  6
CONTINUOUS
 62
     7
 10
88.67369017237122
 20
225.6192958720268
 11
88.26211763814756
 21
225.39586725007
  0
LINE
  8
0
  6
CONTINUOUS
 62
     7
 10
82.67966782369818
 20
214.1822061760278
 11
83.15111284251546
 21
214.0924928373282
  0
LINE
  8
0
  6
CONTINUOUS
 62
     7
 10
83.74662572193968
 20
224.5794260872393
 11
84.62217509019044
 21
224.7573364485859
  0
LINE
  8
0
  6
CONTINUOUS
 62
     7
 10
83.53121945344056
 20
224.5071365229259
 11
83.74662572193968
 21
224.5794260872393
  0
LINE
  8
0
  6
CONTINUOUS
 62
     7
 10
84.24206847926536
 20
226.1577070883317
 11
83.36651911101458
 21
225.9797967269851
  0
LINE
  8
0
  6
CONTINUOUS
 62
     7
 10
81.0296323827801
 20
209.7197338870753
 11
81.21787553526427
 21
209.5847576425093
  0
LINE
  8
0
  6
CONTINUOUS
 62
     7
 10
88.80306045721147
 20
225.749731440399
 11
88.67369017237122
 21
225.6192958720268
  0
LINE
  8
0
  6
CONTINUOUS
 62
     7
 10
84.62217509019044
 20
224.7573364485859
 11
87.78594785706714
 21
224.8928780415646
  0
ARC
  8
0
  6
CONTINUOUS
 62
     7
 10
87.4107539176816
 20
230.0782227586831
 40
5.198900876868103
 50
274.1385157712658
 51
296.5789696281298
  0
LINE
  8
0
  6
CONTINUOUS
 62
     7
 10
80.59189753845799
 20
209.8872431210865
 11
81.0296323827801
 21
209.7197338870753
  0
LINE
  8
0
  6
CONTINUOUS
 62
     7
 10
82.19055525944057
 20
214.1822061760278
 11
82.67966782369818
 21
214.1822061760278
  0
LINE
  8
0
  6
CONTINUOUS
 62
     7
 10
84.62217509019045
 20
215.2426635514141
 11
83.74662572193968
 21
215.4205739127607
  0
LINE
  8
0
  6
CONTINUOUS
 62
     7
 10
82.57066187036568
 20
215.5825768157736
 11
82.96727036589031
 21
215.3672716575259
  0
LINE
  8
0
  6
CONTINUOUS
 62
     7
 10
83.53121945344056
 20
215.4928634770741
 11
83.05977443462328
 21
215.5825768157736
  0
LINE
  8
0
  6
CONTINUOUS
 62
     7
 10
82.57066187036568
 20
224.4174231842263
 11
83.05977443462328
 21
224.4174231842264
  0
LINE
  8
0
  6
CONTINUOUS
 62
     7
 10
88.80314951129046
 20
214.2506384216397
 11
88.65049747560425
 21
214.201362630588
  0
LINE
  8
0
  6
CONTINUOUS
 62
     7
 10
78.17196623911909
 20
206.8417339736067
 11
78.0875363864298
 21
206.8136903057339
  0
ARC
  8
0
  6
CONTINUOUS
 62
     7
 10
87.41127474711652
 20
209.923673432751
 40
5.196972056663247
 50
63.41681196919561
 51
85.86570263141053
  0
LINE
  8
0
  6
CONTINUOUS
 62
     7
 10
88.65049747560232
 20
225.798637369411
 11
88.80306045721147
 21
225.749731440399
  0
LINE
  8
0
  6
CONTINUOUS
 62
     7
 10
83.36651911101458
 20
225.9797967269851
 11
83.15111284251545
 21
225.9075071626717
  0
LINE
  8
0
  6
CONTINUOUS
 62
     7
 10
82.67966782369818
 20
225.8177938239722
 11
82.19055525944057
 21
225.8177938239722
  0
LINE
  8
0
  6
CONTINUOUS
 62
     7
 10
83.05977443462328
 20
224.4174231842264
 11
83.53121945344056
 21
224.5071365229259
  0
LINE
  8
0
  6
CONTINUOUS
 62
     7
 10
83.826455420519
 20
225.0991504595954
 11
82.57066187036568
 21
224.4174231842263
  0
LINE
  8
0
  6
CONTINUOUS
 62
     7
 10
83.15111284251546
 20
214.0924928373282
 11
83.36651911101458
 21
214.0202032730149
  0
LINE
  8
0
  6
CONTINUOUS
 62
     7
 10
86.53457219779264
 20
231.5072124199103
 11
86.46392460666787
 21
231.2421292736415
  0
LINE
  8
0
  6
CONTINUOUS
 62
     7
 10
81.17083261598617
 20
210.4411658477649
 11
81.07392073355228
 21
210.3989620648474
  0
LINE
  8
0
  6
CONTINUOUS
 62
     7
 10
88.26211763814756
 20
225.39586725007
 11
87.61181659000908
 21
225.2172528053705
  0
LINE
  8
0
  6
CONTINUOUS
 62
     7
 10
83.15111284251545
 20
225.9075071626717
 11
82.67966782369818
 21
225.8177938239722
  0
LINE
  8
0
  6
CONTINUOUS
 62
     7
 10
83.05977443462328
 20
215.5825768157736
 11
82.57066187036568
 21
215.5825768157736
  0
LINE
  8
0
  6
CONTINUOUS
 62
     7
 10
87.78594785706714
 20
215.1071219584353
 11
84.62217509019045
 21
215.2426635514141
  0
LINE
  8
0
  6
CONTINUOUS
 62
     7
 10
80.59189753845799
 20
230.1127568789135
 11
80.10278497420039
 21
230.1127568789134
  0
LINE
  8
0
  6
CONTINUOUS
 62
     7
 10
83.74662572193968
 20
215.4205739127607
 11
83.53121945344056
 21
215.4928634770741
  0
LINE
  8
0
  6
CONTINUOUS
 62
     7
 10
82.96727036589031
 20
215.3672716575259
 11
83.04501484496278
 21
215.2892746684388
  0
LINE
  8
0
  6
CONTINUOUS
 62
     7
 10
50.94654735598118
 20
202.05
 11
59.17908965015364
 21
202.05
  0
ARC
  8
0
  6
CONTINUOUS
 62
     7
 10
88.66221344315444
 20
220.0426559364972
 40
22.06974705673531
 50
166.9167757266095
 51
178.163268977739
  0
ARC
  8
0
  6
CONTINUOUS
 62
     7
 10
79.91792676407854
 20
224.2199912059287
 40
12.26396247993308
 50
129.3819909000075
 51
145.4104549649007
  0
ARC
  8
0
  6
CONTINUOUS
 62
     7
 10
84.62365044474738
 20
218.7876141578248
 40
17.85982310515861
 50
196.9938893508867
 51
209.8130221473791
  0
ARC
  8
0
  6
CONTINUOUS
 62
     7
 10
142.2373882592439
 20
75.2578913132953
 40
30.93865732697362
 50
78.86881774461983
 51
85.4137387018835
  0
LINE
  8
0
  6
CONTINUOUS
 62
     7
 10
83.04501484496278
 20
215.2892746684388
 11
82.95342704095538
 21
215.2596275136349
  0
ARC
  8
0
  6
CONTINUOUS
 62
     7
 10
88.6335661427676
 20
219.9535930961748
 40
22.04099447203935
 50
181.8292805214606
 51
193.0905710431882
  0
ARC
  8
0
  6
CONTINUOUS
 62
     7
 10
50.40083037767643
 20
223.0
 40
0.5000000000000026
 50
270.0
 51
353.7642628910344
  0
ARC
  8
0
  6
CONTINUOUS
 62
     7
 10
155.0
 20
134.3721965003669
 40
25.37396483782936
 50
266.0452662895763
 51
273.9547337104236
  0
ARC
  8
0
  6
CONTINUOUS
 62
     7
 10
76.7326204023664
 20
213.3740157564102
 40
13.03984350984735
 50
272.823302487547
 51
332.1316367941668
  0
ARC
  8
0
  6
CONTINUOUS
 62
     7
 10
66.21458194931543
 20
219.9395794279411
 40
25.42255676187003
 50
330.1309372737593
 51
33.79109933819325
  0
ARC
  8
0
  6
CONTINUOUS
 62
     7
 10
76.9152477530224
 20
227.1252046559724
 40
12.53315749608482
 50
33.69778595384918
 51
87.90689718538987
  0
LINE
  8
0
  6
CONTINUOUS
 62
     7
 10
165.2887595218398
 20
106.0974855453027
 11
167.1247779029185
 21
106.2142372967581
  0
ARC
  8
0
  6
CONTINUOUS
 62
     7
 10
155.0
 20
141.7897998595789
 40
36.80694175687396
 50
259.3698579173193
 51
280.6301420826807
  0
LINE
  8
0
  6
CONTINUOUS
 62
     7
 10
59.18282161483875
 20
237.9499999999999
 11
50.94654735598118
 21
237.9499999999999
  0
ARC
  8
0
  6
CONTINUOUS
 62
     7
 10
72.22124191198156
 20
218.8950911917578
 40
21.44669150752629
 50
180.983744340633
 51
227.8400707964542
  0
ARC
  8
0
  6
CONTINUOUS
 62
     7
 10
65.19502436149531
 20
211.8941304482831
 40
11.55227814801234
 50
230.3668257837498
 51
266.8910172160579
  0
LINE
  8
0
  6
CONTINUOUS
 62
     7
 10
81.37123890208383
 20
226.1407431261108
 11
82.08543142865904
 21
226.1407431261108
  0
ARC
  8
0
  6
CONTINUOUS
 62
     7
 10
37.56084460466646
 20
217.75
 40
0.5000000000000051
 50
5.086641829648954
 51
25.57360126924771
  0
ARC
  8
0
  6
CONTINUOUS
 62
     7
 10
77.51712994485902
 20
212.6389285502582
 40
8.23583401176059
 50
237.1495968302602
 51
253.389821311087
  0
ARC
  8
0
  6
CONTINUOUS
 62
     7
 10
50.2784344657634
 20
218.5
 40
0.5000000000000004
 50
3.10041877601202
 51
90.0
  0
LINE
  8
0
  6
CONTINUOUS
 62
     7
 10
77.3730014115468
 20
239.65
 11
64.99863274078221
 21
239.65
  0
ARC
  8
0
  6
CONTINUOUS
 62
     7
 10
63.97064752616094
 20
219.9999999431563
 40
26.73342260429174
 50
176.0787140866178
 51
183.9212956308282
  0
ARC
  8
0
  6
CONTINUOUS
 62
     7
 10
77.56987954859761
 20
227.2465453621634
 40
8.360679017329048
 50
106.7322158296078
 51
122.7282759686853
  0
LINE
  8
0
  6
CONTINUOUS
 62
     7
 10
64.99863274078221
 20
200.35
 11
77.3730014115468
 21
200.35
  0
ARC
  8
0
  6
CONTINUOUS
 62
     7
 10
37.56084460466646
 20
222.25
 40
0.499999999999999
 50
334.4693187757399
 51
354.91335817035
  0
ARC
  8
0
  6
CONTINUOUS
 62
     7
 10
56.92761721616956
 20
218.6773139279834
 40
18.88937775173475
 50
182.6801819030317
 51
230.8683122105992
  0
ARC
  8
0
  6
CONTINUOUS
 62
     7
 10
51.10950828643185
 20
212.4242387050601
 40
10.38252578755701
 50
233.9974451105125
 51
266.1904037730779
  0
ARC
  8
0
  6
CONTINUOUS
 62
     7
 10
84.68537999646794
 20
221.1856705529574
 40
17.92666672451206
 50
150.2111002821104
 51
162.9819370536541
  0
ARC
  8
0
  6
CONTINUOUS
 62
     7
 10
65.83509186515167
 20
226.2971733022341
 40
13.40534040432931
 50
95.53387092799346
 51
154.0438104362806
  0
ARC
  8
0
  6
CONTINUOUS
 62
     7
 10
74.71506039921353
 20
220.555040854403
 40
23.93686559360632
 50
150.9873837961809
 51
174.2673994039816
  0
ARC
  8
0
  6
CONTINUOUS
 62
     7
 10
167.8401294162675
 20
74.69627983253116
 40
31.50468550158827
 50
94.64511817821945
 51
101.0723253752777
  0
LINE
  8
0
  6
CONTINUOUS
 62
     7
 10
142.8752220970814
 20
106.2142372967581
 11
144.7112404781602
 21
106.0974855453026
  0
ARC
  8
0
  6
CONTINUOUS
 62
     7
 10
79.88235828144452
 20
215.7472963363789
 40
12.21611212493493
 50
214.5580457450494
 51
230.6495490495715
  0
LINE
  8
0
  6
CONTINUOUS
 62
     7
 10
81.2045178644907
 20
211.7335508417039
 11
80.89848927753191
 21
211.7335508417039
  0
ARC
  8
0
  6
CONTINUOUS
 62
     7
 10
51.84867770046578
 20
225.6284659969412
 40
12.40692967750606
 50
98.0499870709777
 51
154.776582106819
  0
ARC
  8
0
  6
CONTINUOUS
 62
     7
 10
60.11964956048408
 20
220.4398288052499
 40
22.13133037351542
 50
151.7481046892572
 51
175.4225025104012
  0
LINE
  8
0
  6
CONTINUOUS
 62
     7
 10
167.4376265804843
 20
142.2938346374736
 11
167.2573091075149
 21
142.675516212983
  0
LINE
  8
0
  6
CONTINUOUS
 62
     7
 10
142.742690892508
 20
142.7886429985941
 11
142.742690892508
 21
142.4633841786519
  0
LINE
  8
0
  6
CONTINUOUS
 62
     7
 10
148.8592568738891
 20
146.0422779738088
 11
148.9632040648585
 21
145.8691186701001
  0
LINE
  8
0
  6
CONTINUOUS
 62
     7
 10
167.2573091075149
 20
142.7886429985671
 11
167.2573091075149
 21
142.675516212983
  0
LINE
  8
0
  6
CONTINUOUS
 62
     7
 10
136.0
 20
103.9981861261476
 11
173.9999999999999
 21
103.9981861261476
  0
LINE
  8
0
  6
CONTINUOUS
 62
     7
 10
169.1795194710583
 20
142.7847443481068
 11
168.5128744753053
 21
142.5234490493783
  0
LINE
  8
0
  6
CONTINUOUS
 62
     7
 10
146.9273971751605
 20
145.9269034235614
 11
146.9273971751605
 21
145.3398425646529
  0
LINE
  8
0
  6
CONTINUOUS
 62
     7
 10
147.1847112084245
 20
145.2367930065479
 11
146.9564979956328
 21
145.2541842057827
  0
LINE
  8
0
  6
CONTINUOUS
 62
     7
 10
148.9632040648583
 20
146.7469903293002
 11
148.9632040648585
 21
145.8691186701001
  0
LINE
  8
0
  6
CONTINUOUS
 62
     7
 10
168.5128744753053
 20
142.5234490493783
 11
168.5128744753049
 21
141.1092354868637
  0
LINE
  8
0
  6
CONTINUOUS
 62
     7
 10
152.1844611311714
 20
147.4942505162232
 11
152.1844611311714
 21
146.7667824811372
  0
LINE
  8
0
  6
CONTINUOUS
 62
     7
 10
164.9310685696717
 20
145.5958831774189
 11
164.9310685696714
 21
144.1816696149042
  0
LINE
  8
0
  6
CONTINUOUS
 62
     7
 10
142.8752220970814
 20
106.2142372967581
 11
142.4049868593849
 21
106.3048526599891
  0
LINE
  8
0
  6
CONTINUOUS
 62
     7
 10
144.1941020634816
 20
143.7251955842951
 11
144.2675281764225
 21
143.6714307442491
  0
LINE
  8
0
  6
CONTINUOUS
 62
     7
 10
165.6381349403
 20
146.1917259198758
 11
164.9310685696717
 21
145.5958831774189
  0
LINE
  8
0
  6
CONTINUOUS
 62
     7
 10
160.3881529562613
 20
148.2920429947327
 11
160.0300279863812
 21
147.5566021385455
  0
LINE
  8
0
  6
CONTINUOUS
 62
     7
 10
146.9564979956328
 20
145.2541842057827
 11
146.9273971751624
 21
145.3398425646537
  0
LINE
  8
0
  6
CONTINUOUS
 62
     7
 10
138.0588883460305
 20
144.2442294712898
 11
136.971442396412
 21
144.3660176670067
  0
LINE
  8
0
  6
CONTINUOUS
 62
     7
 10
136.9714423964177
 20
141.4016928756884
 11
138.0588883460333
 21
141.5234810714049
  0
LINE
  8
0
  6
CONTINUOUS
 62
     7
 10
170.5
 20
74.9981861261476
 11
170.5
 21
103.9981861261476
  0
LINE
  8
0
  6
CONTINUOUS
 62
     7
 10
137.206094093973
 20
140.3540911907186
 11
138.2935400435929
 21
140.4758793864183
  0
LINE
  8
0
  6
CONTINUOUS
 62
     7
 10
149.2013626305889
 20
130.7224757308261
 11
149.5712506115463
 21
131.4038375562189
  0
LINE
  8
0
  6
CONTINUOUS
 62
     7
 10
165.8863483388379
 20
133.5420044577347
 11
166.5769886968748
 21
132.9996296387614
  0
LINE
  8
0
  6
CONTINUOUS
 62
     7
 10
148.1708799718005
 20
131.7839441671441
 11
147.8009919908431
 21
131.1025823417512
  0
LINE
  8
0
  6
CONTINUOUS
 62
     7
 10
167.6917059350908
 20
133.7093498226451
 11
167.001065577054
 21
134.2517246416185
  0
LINE
  8
0
  6
CONTINUOUS
 62
     7
 10
170.5174493071714
 20
137.888293891528
 11
171.4984484705585
 21
137.5348507815405
  0
LINE
  8
0
  6
CONTINUOUS
 62
     7
 10
185.0
 20
71.99818612614762
 11
124.9999999999999
 21
71.99818612614762
  0
LINE
  8
0
  6
CONTINUOUS
 62
     7
 10
148.579689783217
 20
74.9981861261476
 11
148.579689783217
 21
103.9981861261476
  0
LINE
  8
0
  6
CONTINUOUS
 62
     7
 10
173.0285576035823
 20
141.4016928756884
 11
171.9411116539667
 21
141.5234810714049
  0
LINE
  8
0
  6
CONTINUOUS
 62
     7
 10
171.9411116539695
 20
144.2442294712898
 11
173.028557603588
 21
144.3660176670067
  0
LINE
  8
0
  6
CONTINUOUS
 62
     7
 10
171.4984484705585
 20
148.2328597611894
 11
170.5174493071773
 21
147.879416651189
  0
LINE
  8
0
  6
CONTINUOUS
 62
     7
 10
167.5951851929059
 20
106.3049768395376
 11
167.1247779029186
 21
106.2142372967581
  0
LINE
  8
0
  6
CONTINUOUS
 62
     7
 10
170.8174627209522
 20
149.1779148941873
 11
169.8978140618852
 21
148.8465756899431
  0
LINE
  8
0
  6
CONTINUOUS
 62
     7
 10
171.7064599564107
 20
145.2918311562969
 11
172.793905906027
 21
145.4136193520112
  0
LINE
  8
0
  6
CONTINUOUS
 62
     7
 10
167.001065577054
 20
151.5159859011113
 11
167.6917059350909
 21
152.0583607200847
  0
LINE
  8
0
  6
CONTINUOUS
 62
     7
 10
160.4287493884536
 20
131.4038375562189
 11
160.798637369411
 21
130.7224757308261
  0
LINE
  8
0
  6
CONTINUOUS
 62
     7
 10
161.4203102167829
 20
74.9981861261476
 11
161.4203102167829
 21
103.9981861261476
  0
LINE
  8
0
  6
CONTINUOUS
 62
     7
 10
139.4825506928285
 20
137.888293891528
 11
138.5015515294414
 21
137.5348507815404
  0
LINE
  8
0
  6
CONTINUOUS
 62
     7
 10
142.9989344229459
 20
134.2517246416185
 11
142.3082940649091
 21
133.7093498226451
  0
LINE
  8
0
  6
CONTINUOUS
 62
     7
 10
162.1990080091568
 20
131.1025823417512
 11
161.8291200281994
 21
131.7839441671441
  0
LINE
  8
0
  6
CONTINUOUS
 62
     7
 10
169.8978140618852
 20
136.9211348527867
 11
170.8174627209522
 21
136.5897956485425
  0
LINE
  8
0
  6
CONTINUOUS
 62
     7
 10
139.1825372790478
 20
136.5897956485425
 11
140.1021859381147
 21
136.9211348527867
  0
LINE
  8
0
  6
CONTINUOUS
 62
     7
 10
172.793905906027
 20
140.3540911907186
 11
171.706459956407
 21
140.4758793864183
  0
LINE
  8
0
  6
CONTINUOUS
 62
     7
 10
139.5
 20
74.9981861261476
 11
139.5
 21
103.9981861261476
  0
LINE
  8
0
  6
CONTINUOUS
 62
     7
 10
143.4230113031252
 20
132.9996296387614
 11
144.113651661162
 21
133.5420044577347
  0
LINE
  8
0
  6
CONTINUOUS
 62
     7
 10
152.189240536895
 20
146.7293769309367
 11
152.1844611311737
 21
146.7667824811375
  0
LINE
  8
0
  6
CONTINUOUS
 62
     7
 10
148.7562628084347
 20
130.8339265227311
 11
148.7067513186895
 21
131.8072210689352
  0
LINE
  8
0
  6
CONTINUOUS
 62
     7
 10
161.8291200281994
 20
153.9837663755858
 11
162.1990080091568
 21
154.6651282009786
  0
LINE
  8
0
  6
CONTINUOUS
 62
     7
 10
139.1825372790478
 20
149.1779148941873
 11
139.1825372790478
 21
147.9875081541837
  0
LINE
  8
0
  6
CONTINUOUS
 62
     7
 10
143.4230113031252
 20
152.7680809039684
 11
143.4230113031252
 21
151.0837376245613
  0
LINE
  8
0
  6
CONTINUOUS
 62
     7
 10
138.2935400435892
 20
145.2918311562969
 11
137.206094093973
 21
145.4136193520112
  0
LINE
  8
0
  6
CONTINUOUS
 62
     7
 10
160.798637369411
 20
155.0452348119037
 11
160.4287493884536
 21
154.3638729865108
  0
LINE
  8
0
  6
CONTINUOUS
 62
     7
 10
148.7067513186895
 20
131.8072210689353
 11
148.5679469205849
 21
132.1705622951256
  0
LINE
  8
0
  6
CONTINUOUS
 62
     7
 10
161.4322683726038
 20
132.1706293710557
 11
161.2932486813105
 21
131.8072210689352
  0
LINE
  8
0
  6
CONTINUOUS
 62
     7
 10
147.8009919908431
 20
154.6651282009786
 11
148.1708799718005
 21
153.9837663755858
  0
LINE
  8
0
  6
CONTINUOUS
 62
     7
 10
140.1021859381147
 20
148.8465756899431
 11
139.1825372790478
 21
149.1779148941873
  0
LINE
  8
0
  6
CONTINUOUS
 62
     7
 10
143.9994924240984
 20
134.0736455703465
 11
143.8182266491335
 21
134.4484397323194
  0
LINE
  8
0
  6
CONTINUOUS
 62
     7
 10
149.5712506115463
 20
154.3638729865108
 11
149.2013626305889
 21
155.0452348119037
  0
LINE
  8
0
  6
CONTINUOUS
 62
     7
 10
138.5015515294414
 20
148.2328597611894
 11
139.4825506928226
 21
147.879416651189
  0
LINE
  8
0
  6
CONTINUOUS
 62
     7
 10
149.2013626305889
 20
155.0452348119037
 11
149.2013626305889
 21
153.2774678589373
  0
LINE
  8
0
  6
CONTINUOUS
 62
     7
 10
172.793905906027
 20
144.3397379177668
 11
172.793905906027
 21
145.4136193520112
  0
LINE
  8
0
  6
CONTINUOUS
 62
     7
 10
144.113651661162
 20
152.225706084995
 11
143.4230113031252
 21
152.7680809039684
  0
LINE
  8
0
  6
CONTINUOUS
 62
     7
 10
166.5769886968748
 20
152.7680809039684
 11
165.8863483388379
 21
152.225706084995
  0
LINE
  8
0
  6
CONTINUOUS
 62
     7
 10
142.3082940649091
 20
152.0583607200847
 11
142.9989344229459
 21
151.5159859011113
  0
LINE
  8
0
  6
CONTINUOUS
 62
     7
 10
137.206094093973
 20
144.3397379177668
 11
137.206094093973
 21
145.4136193520112
  0
LINE
  8
0
  6
CONTINUOUS
 62
     7
 10
160.798637369411
 20
153.2774678589373
 11
160.798637369411
 21
155.0452348119037
  0
LINE
  8
0
  6
CONTINUOUS
 62
     7
 10
166.5769886968748
 20
151.0836564418492
 11
166.5769886968748
 21
152.7680809039684
  0
LINE
  8
0
  6
CONTINUOUS
 62
     7
 10
170.8174627209522
 20
147.9875081541837
 11
170.8174627209522
 21
149.1779148941873
  0
LINE
  8
0
  6
CONTINUOUS
 62
     7
 10
161.2932486813105
 20
131.8072210689352
 11
161.2439393103862
 21
130.8378997201229
  0
LINE
  8
0
  6
CONTINUOUS
 62
     7
 10
170.4580050057
 20
140.7801106962182
 11
170.4580050057
 21
143.0174691978803
  0
LINE
  8
0
  6
CONTINUOUS
 62
     7
 10
169.1795194710398
 20
137.0138481626176
 11
169.1795194710398
 21
137.3096749893793
  0
LINE
  8
0
  6
CONTINUOUS
 62
     7
 10
139.5419949942999
 20
140.7851941700413
 11
139.5419949942999
 21
143.0174691978803
  0
LINE
  8
0
  6
CONTINUOUS
 62
     7
 10
140.8204805289594
 20
137.3096749893804
 11
140.7203290592956
 21
137.6762160811383
  0
LINE
  8
0
  6
CONTINUOUS
 62
     7
 10
169.1795194710405
 20
137.3096749893804
 11
169.2797033703426
 21
137.6762670436427
  0
LINE
  8
0
  6
CONTINUOUS
 62
     7
 10
139.7766466918617
 20
139.8224301957755
 11
139.7343137261671
 21
139.8271712640632
  0
LINE
  8
0
  6
CONTINUOUS
 62
     7
 10
139.7766466918617
 20
139.8224301957755
 11
139.7766466918617
 21
144.0650708828948
  0
LINE
  8
0
  6
CONTINUOUS
 62
     7
 10
140.8204805289601
 20
137.0140720136124
 11
140.8204805289601
 21
137.3096749893793
  0
LINE
  8
0
  6
CONTINUOUS
 62
     7
 10
166.1816815151982
 20
134.4483752711581
 11
166.0005075759016
 21
134.0736455703465
  0
ARC
  8
0
  6
CONTINUOUS
 62
     7
 10
171.1751741082878
 20
145.9276548785376
 40
2.059605770816074
 50
108.6233177834436
 51
164.4232357855858
  0
LINE
  8
0
  6
CONTINUOUS
 62
     7
 10
169.1912144741172
 20
146.480719161565
 11
169.1795194710583
 21
146.3367152097608
  0
LINE
  8
0
  6
CONTINUOUS
 62
     7
 10
167.7861503277612
 20
143.6600079947263
 11
167.6064175321369
 21
143.5130088767303
  0
LINE
  8
0
  6
CONTINUOUS
 62
     7
 10
167.6064175321369
 20
143.5130088767303
 11
167.3833641865756
 21
143.1264590142313
  0
LINE
  8
0
  6
CONTINUOUS
 62
     7
 10
169.0783356560993
 20
144.276344763989
 11
169.1795208679159
 21
145.1878792383602
  0
LINE
  8
0
  6
CONTINUOUS
 62
     7
 10
170.2233533081383
 20
139.8224301957755
 11
170.265525263969
 21
139.8271532318099
  0
LINE
  8
0
  6
CONTINUOUS
 62
     7
 10
170.2233533081383
 20
139.8224301957755
 11
170.2233533081383
 21
144.0650708828948
  0
LINE
  8
0
  6
CONTINUOUS
 62
     7
 10
168.565482677872
 20
147.4027125583037
 11
168.2284870179749
 21
144.3672019304841
  0
LINE
  8
0
  6
CONTINUOUS
 62
     7
 10
167.9186751733241
 20
142.8302130568281
 11
168.1582660263932
 21
142.798936622454
  0
ARC
  8
0
  6
CONTINUOUS
 62
     7
 10
139.4831756116506
 20
146.9387420078712
 40
2.005742541483679
 50
13.37486229853084
 51
72.02397320855174
  0
LINE
  8
0
  6
CONTINUOUS
 62
     7
 10
141.771512982025
 20
144.3672019304841
 11
141.4345173221279
 21
147.4027125583037
  0
LINE
  8
0
  6
CONTINUOUS
 62
     7
 10
169.1795194710583
 20
142.0940745226415
 11
169.1795194710583
 21
146.3367152097608
  0
LINE
  8
0
  6
CONTINUOUS
 62
     7
 10
142.393582467863
 20
143.5130088767303
 11
142.2138496722388
 21
143.6600079947263
  0
LINE
  8
0
  6
CONTINUOUS
 62
     7
 10
142.6166358134243
 20
143.1264590142313
 11
142.393582467863
 21
143.5130088767303
  0
LINE
  8
0
  6
CONTINUOUS
 62
     7
 10
140.9216643439006
 20
143.248025857149
 11
142.6166358134244
 21
142.6373464499737
  0
LINE
  8
0
  6
CONTINUOUS
 62
     7
 10
140.9216643439006
 20
144.276344763989
 11
140.9216643439006
 21
143.248025857149
  0
LINE
  8
0
  6
CONTINUOUS
 62
     7
 10
140.8204805289417
 20
142.0940745226415
 11
140.8204805289417
 21
146.3367152097608
  0
LINE
  8
0
  6
CONTINUOUS
 62
     7
 10
167.3833641865756
 20
142.6373464499737
 11
167.9186751733241
 21
142.8302130568281
  0
ARC
  8
0
  6
CONTINUOUS
 62
     7
 10
168.7786940909555
 20
149.3385000789274
 40
2.810944261142127
 50
129.2270804689869
 51
171.2442937478008
  0
ARC
  8
0
  6
CONTINUOUS
 62
     7
 10
141.2129873891207
 20
149.3337428958545
 40
2.819892079782695
 50
8.825509916648798
 51
50.70311586656363
  0
LINE
  8
0
  6
CONTINUOUS
 62
     7
 10
168.512874475305
 20
141.6300829077289
 11
168.1863096942661
 21
141.5124252418183
  0
LINE
  8
0
  6
CONTINUOUS
 62
     7
 10
140.820479132084
 20
145.1878792383602
 11
140.9216643439006
 21
144.276344763989
  0
LINE
  8
0
  6
CONTINUOUS
 62
     7
 10
143.9994924240983
 20
149.7663871280657
 11
144.2525703804608
 21
146.6535447001654
  0
LINE
  8
0
  6
CONTINUOUS
 62
     7
 10
165.7474296195391
 20
146.6535447001654
 11
166.0005075759016
 21
149.7663871280657
  0
LINE
  8
0
  6
CONTINUOUS
 62
     7
 10
142.6166358134244
 20
142.6373464499737
 11
142.6166358134243
 21
143.1264590142313
  0
LINE
  8
0
  6
CONTINUOUS
 62
     7
 10
168.9891387680939
 20
143.2158892084393
 11
169.0783356560993
 21
143.248025857149
  0
LINE
  8
0
  6
CONTINUOUS
 62
     7
 10
168.1863096942661
 20
141.5124252418183
 11
168.1863096942661
 21
142.7145067697647
  0
LINE
  8
0
  6
CONTINUOUS
 62
     7
 10
164.1655488747086
 20
146.3663229499987
 11
163.9980396406974
 21
145.9285881056766
  0
LINE
  8
0
  6
CONTINUOUS
 62
     7
 10
163.9980396406973
 20
145.439475541419
 11
164.4000490036253
 21
145.7551821938125
  0
LINE
  8
0
  6
CONTINUOUS
 62
     7
 10
144.7290658783149
 20
146.4391071234198
 11
146.0019603593026
 21
145.439475541419
  0
LINE
  8
0
  6
CONTINUOUS
 62
     7
 10
164.8857903376855
 20
150.4761073119494
 11
164.632712381323
 21
147.3632648840491
  0
LINE
  8
0
  6
CONTINUOUS
 62
     7
 10
164.3005251192745
 20
146.5545661024829
 11
164.1655488747086
 21
146.3663229499987
  0
LINE
  8
0
  6
CONTINUOUS
 62
     7
 10
148.7067513186895
 20
152.032811629477
 11
148.8422929116683
 21
148.8690388626003
  0
LINE
  8
0
  6
CONTINUOUS
 62
     7
 10
160.0991504595954
 20
149.4817447106939
 11
160.2172528053705
 21
152.238786973344
  0
LINE
  8
0
  6
CONTINUOUS
 62
     7
 10
160.0300279863811
 20
146.9118833826817
 11
159.7403724863651
 21
146.3783158963439
  0
LINE
  8
0
  6
CONTINUOUS
 62
     7
 10
159.7403724863651
 20
146.3783158963439
 11
159.7403724863651
 21
147.5803974242903
  0
LINE
  8
0
  6
CONTINUOUS
 62
     7
 10
160.0632749581343
 20
148.3873403984857
 11
160.0991504595954
 21
148.4534258038539
  0
LINE
  8
0
  6
CONTINUOUS
 62
     7
 10
145.8344511252913
 20
146.3663229499987
 11
145.6994748807255
 21
146.5545661024829
  0
LINE
  8
0
  6
CONTINUOUS
 62
     7
 10
166.2421292736415
 20
151.0908949900028
 11
166.5077102893777
 21
151.1612507960288
  0
LINE
  8
0
  6
CONTINUOUS
 62
     7
 10
165.2039487897754
 20
146.3865020926746
 11
165.270934121685
 21
146.4391071234198
  0
LINE
  8
0
  6
CONTINUOUS
 62
     7
 10
165.8249520972853
 20
150.7632767254848
 11
166.2421292736416
 21
151.0908949900028
  0
ARC
  8
0
  6
CONTINUOUS
 62
     7
 10
147.0701936254684
 20
147.5901882329128
 40
1.717958985024316
 50
187.5903197981208
 51
217.0722209472922
  0
LINE
  8
0
  6
CONTINUOUS
 62
     7
 10
146.0019603593025
 20
145.9285881056766
 11
145.8344511252913
 21
146.3663229499987
  0
ARC
  8
0
  6
CONTINUOUS
 62
     7
 10
166.4786579915291
 20
151.6575999482184
 40
5.198966581952094
 50
153.4211740151593
 51
175.8613405854472
  0
LINE
  8
0
  6
CONTINUOUS
 62
     7
 10
160.2172528053705
 20
152.238786973344
 11
160.39586725007
 21
152.8890880214825
  0
LINE
  8
0
  6
CONTINUOUS
 62
     7
 10
159.6327283424741
 20
147.5942407492252
 11
159.7107253315611
 21
147.6719852282977
  0
LINE
  8
0
  6
CONTINUOUS
 62
     7
 10
159.4174231842264
 20
147.1976322537006
 11
159.6327283424741
 21
147.5942407492252
  0
LINE
  8
0
  6
CONTINUOUS
 62
     7
 10
164.9310685696715
 20
144.7579897882586
 11
164.6010379351526
 21
144.4988095889408
  0
LINE
  8
0
  6
CONTINUOUS
 62
     7
 10
146.0019603593026
 20
145.439475541419
 11
146.0019603593025
 21
145.9285881056766
  0
ARC
  8
0
  6
CONTINUOUS
 62
     7
 10
142.3360578926431
 20
150.0482401329499
 40
2.810906896037849
 50
8.755413759400339
 51
50.77321202381206
  0
ARC
  8
0
  6
CONTINUOUS
 62
     7
 10
162.946079615757
 20
147.5835037125814
 40
1.700951271340213
 50
322.7769921823589
 51
352.5604670722287
  0
LINE
  8
0
  6
CONTINUOUS
 62
     7
 10
165.270934121685
 20
147.4674260302597
 11
165.4914501983631
 21
150.1800908263917
  0
ARC
  8
0
  6
CONTINUOUS
 62
     7
 10
167.6781687185822
 20
150.0401042392181
 40
2.826212253446333
 50
129.3459032122483
 51
171.1254710045396
  0
LINE
  8
0
  6
CONTINUOUS
 62
     7
 10
145.367287618677
 20
147.3632648840491
 11
145.1142096623144
 21
150.4761073119494
  0
LINE
  8
0
  6
CONTINUOUS
 62
     7
 10
143.7578707263584
 20
151.0908949900028
 11
144.1750479027147
 21
150.7632767254849
  0
ARC
  8
0
  6
CONTINUOUS
 62
     7
 10
143.5230571381192
 20
151.6580710451706
 40
5.197221937074112
 50
4.134844046510068
 51
26.58264135288385
  0
ARC
  8
0
  6
CONTINUOUS
 62
     7
 10
145.9392031460265
 20
146.8737835286976
 40
1.700951271339923
 50
187.4395329277687
 51
217.2230078176437
  0
LINE
  8
0
  6
CONTINUOUS
 62
     7
 10
161.1577070883317
 20
148.8690388626003
 11
161.2932486813105
 21
152.032811629477
  0
ARC
  8
0
  6
CONTINUOUS
 62
     7
 10
164.0445236127472
 20
146.8804680490293
 40
1.717958985024771
 50
322.9277790527123
 51
352.4096802018756
  0
LINE
  8
0
  6
CONTINUOUS
 62
     7
 10
164.4000490036253
 20
145.7551821938125
 11
164.5588341522351
 21
145.7978029993211
  0
LINE
  8
0
  6
CONTINUOUS
 62
     7
 10
164.6010379351526
 20
144.4988095889408
 11
164.6010379351526
 21
145.7008911168872
  0
LINE
  8
0
  6
CONTINUOUS
 62
     7
 10
163.9980396406974
 20
145.9285881056766
 11
163.9980396406973
 21
145.439475541419
  0
INSERT
  8
0
  6
CONTINUOUS
 62
     7
  2
D_FRAME_VIEW_2161
 10
0.0
 20
0.0
 30
0.0
  0
INSERT
  8
0
  6
CONTINUOUS
 62
     7
  2
D_FRAME_VIEW_2705
 10
0.0
 20
0.0
 30
0.0
  0
ARC
  8
0
  6
CONTINUOUS
 62
     7
 10
159.4713217883082
 20
135.3683056978282
 40
10.41094665747621
 50
51.6930462627048
 51
58.22240608885977
  0
ARC
  8
0
  6
CONTINUOUS
 62
     7
 10
156.1904861281991
 20
131.2150836420157
 40
15.70369037633604
 50
44.56786396282814
 51
51.69304626270514
  0
ARC
  8
0
  6
CONTINUOUS
 62
     7
 10
61.95961356028367
 20
220.0
 40
21.10559743974411
 50
2.036525079150351
 51
7.527117653368748
  0
ARC
  8
0
  6
CONTINUOUS
 62
     7
 10
66.19914868919813
 20
220.5601868332791
 40
16.82921258832124
 50
7.527117653368505
 51
13.25748274607578
  0
ARC
  8
0
  6
CONTINUOUS
 62
     7
 10
156.8904388090208
 20
120.3372781578445
 40
26.7328272723303
 50
107.2487464352408
 51
111.2956303005677
  0
ARC
  8
0
  6
CONTINUOUS
 62
     7
 10
58.62997347807794
 20
218.2502734647896
 40
24.74300517762777
 50
17.80671296082587
 51
22.94011718849781
  0
ARC
  8
0
  6
CONTINUOUS
 62
     7
 10
72.54218667037027
 20
224.1385049560996
 40
9.636021825447617
 50
22.9401171884988
 51
30.43795703782964
  0
ARC
  8
0
  6
CONTINUOUS
 62
     7
 10
85.40709706613477
 20
231.4234491767987
 40
0.9433689216911275
 50
278.9045742098237
 51
320.6226294218656
  0
ARC
  8
0
  6
CONTINUOUS
 62
     7
 10
150.5286782117662
 20
135.3683056977677
 40
10.41094665756324
 50
127.0189054894208
 51
128.3069537368044
  0
ARC
  8
0
  6
CONTINUOUS
 62
     7
 10
153.8095138717357
 20
131.2150836420589
 40
15.70369037625522
 50
128.3069537368044
 51
134.5340528191649
  0
ARC
  8
0
  6
CONTINUOUS
 62
     7
 10
83.5354484077204
 20
216.1856663952113
 40
1.57216529717856
 50
167.6997835508677
 51
172.1874927017686
  0
ARC
  8
0
  6
CONTINUOUS
 62
     7
 10
82.67024597024057
 20
216.3743144578974
 40
0.6866353149779199
 50
139.3006331506823
 51
167.6997835508674
  0
ARC
  8
0
  6
CONTINUOUS
 62
     7
 10
83.02808702932255
 20
216.0665294698412
 40
1.158633008232518
 50
126.0720702343125
 51
139.300633150682
  0
ARC
  8
0
  6
CONTINUOUS
 62
     7
 10
82.59967921360972
 20
216.6546251929003
 40
0.4310412023109389
 50
90.0
 51
126.0720702342928
  0
ARC
  8
0
  6
CONTINUOUS
 62
     7
 10
156.1904861282603
 20
132.6292972045702
 40
15.70369037626059
 50
34.87586367804562
 51
38.76241194403923
  0
ARC
  8
0
  6
CONTINUOUS
 62
     7
 10
162.7870602161316
 20
137.2270010219416
 40
7.662939783868949
 50
16.6186590044959
 51
34.87586367804596
  0
ARC
  8
0
  6
CONTINUOUS
 62
     7
 10
156.989467334617
 20
115.3687104660484
 40
0.2394673346170773
 50
167.1320202285775
 51
180.0
  0
ARC
  8
0
  6
CONTINUOUS
 62
     7
 10
147.2129397838681
 20
137.2270010219449
 40
7.66293978386881
 50
145.1241363219536
 51
163.3960245978424
  0
ARC
  8
0
  6
CONTINUOUS
 62
     7
 10
153.8095138717391
 20
132.629297204574
 40
15.70369037625984
 50
139.3509960070131
 51
145.1241363219551
  0
ARC
  8
0
  6
CONTINUOUS
 62
     7
 10
147.2129397838681
 20
135.8127874595718
 40
7.66293978386881
 50
145.1241363219536
 51
157.3199310136255
  0
ARC
  8
0
  6
CONTINUOUS
 62
     7
 10
153.8095138717391
 20
131.215083642201
 40
15.70369037625984
 50
134.5340528191653
 51
145.1241363219551
  0
ARC
  8
0
  6
CONTINUOUS
 62
     7
 10
159.4713217882374
 20
136.7825192602879
 40
10.41094665755679
 50
56.68996106965443
 51
58.2224060886864
  0
ARC
  8
0
  6
CONTINUOUS
 62
     7
 10
75.71109311312036
 20
236.6249725606092
 40
1.22684911600134
 50
289.2422951527436
 51
14.93266893839512
  0
ARC
  8
0
  6
CONTINUOUS
 62
     7
 10
156.1904861281758
 20
131.2150836420643
 40
15.70369037631854
 50
34.87586367738441
 51
38.76241194382288
  0
ARC
  8
0
  6
CONTINUOUS
 62
     7
 10
162.7870602162209
 20
135.8127874594438
 40
7.662939783779743
 50
22.6509638039181
 51
34.87586367738385
  0
ARC
  8
0
  6
CONTINUOUS
 62
     7
 10
155.0
 20
122.0126636891805
 40
26.4926904925467
 50
91.24925949120727
 51
91.6226039555374
  0
ARC
  8
0
  6
CONTINUOUS
 62
     7
 10
71.1020809666121
 20
215.6010296970127
 40
10.24248473753844
 50
329.3243211801863
 51
335.351730774027
  0
ARC
  8
0
  6
CONTINUOUS
 62
     7
 10
68.69810412042645
 20
221.1018738921798
 40
14.53480727381599
 50
38.31240132945252
 51
50.46213409789289
  0
ARC
  8
0
  6
CONTINUOUS
 62
     7
 10
79.13467818472157
 20
203.2767548979868
 40
1.530274646758429
 50
0.6284736464177613
 51
78.56362459971172
  0
ARC
  8
0
  6
CONTINUOUS
 62
     7
 10
78.09267079076602
 20
203.0467305507202
 40
1.524636772486808
 50
0.4568942287745585
 51
78.73520401852909
  0
ARC
  8
0
  6
CONTINUOUS
 62
     7
 10
72.9535840291185
 20
227.8374619003395
 40
7.712538099662297
 50
55.12413632195443
 51
73.11512541611057
  0
ARC
  8
0
  6
CONTINUOUS
 62
     7
 10
68.32612161096338
 20
221.1981915400203
 40
15.80533238525055
 50
54.84817604019178
 51
55.12413632195443
  0
ARC
  8
0
  6
CONTINUOUS
 62
     7
 10
81.40497089325866
 20
203.9106889173858
 40
1.933957380604917
 50
17.19922496938363
 51
80.93291352536035
  0
ARC
  8
0
  6
CONTINUOUS
 62
     7
 10
155.6052368233677
 20
128.5151632635633
 40
18.18261080346624
 50
75.90875031070397
 51
82.07749173881899
  0
ARC
  8
0
  6
CONTINUOUS
 62
     7
 10
79.10813434548324
 20
236.7452009927231
 40
1.557208411854641
 50
282.2334828762417
 51
358.5744188776289
  0
ARC
  8
0
  6
CONTINUOUS
 62
     7
 10
79.39222374585353
 20
232.3242677776991
 40
1.158633008231751
 50
220.699366849318
 51
223.5363526398523
  0
ARC
  8
0
  6
CONTINUOUS
 62
     7
 10
79.03438268677212
 20
232.0164827896434
 40
0.6866353149779093
 50
192.3002164491328
 51
220.6993668493185
  0
ARC
  8
0
  6
CONTINUOUS
 62
     7
 10
79.89958512425196
 20
232.2051308523295
 40
1.57216529717856
 50
183.4624480401787
 51
192.3002164491323
  0
ARC
  8
0
  6
CONTINUOUS
 62
     7
 10
56.31427393704465
 20
218.1401508157211
 40
26.30025725174188
 50
17.70808220591269
 51
20.16153490700909
  0
ARC
  8
0
  6
CONTINUOUS
 62
     7
 10
155.605236823341
 20
128.5151632634405
 40
18.18261080359267
 50
73.02918816335807
 51
75.90875031071658
  0
ARC
  8
0
  6
CONTINUOUS
 62
     7
 10
153.1095611907787
 20
120.3372781572352
 40
26.73282727297283
 50
67.50908344785466
 51
73.02918816335819
  0
ARC
  8
0
  6
CONTINUOUS
 62
     7
 10
156.1904861282642
 20
131.2150836420589
 40
15.70369037625522
 50
38.76241194403912
 51
44.56786396287222
  0
ARC
  8
0
  6
CONTINUOUS
 62
     7
 10
155.0000000000071
 20
123.9346864980966
 40
22.80290073066433
 50
90.0000000000365
 51
91.354958462201
  0
ARC
  8
0
  6
CONTINUOUS
 62
     7
 10
155.0000000000072
 20
123.9346864980968
 40
22.80290073066416
 50
82.47288234677795
 51
90.00000000003655
  0
ARC
  8
0
  6
CONTINUOUS
 62
     7
 10
155.6052368233869
 20
128.5151632634317
 40
18.18261080359816
 50
82.07749173893787
 51
82.47288234677855
  0
ARC
  8
0
  6
CONTINUOUS
 62
     7
 10
155.0
 20
144.5777685450494
 40
31.21562138815216
 50
270.0
 51
273.2140075926873
  0
ARC
  8
0
  6
CONTINUOUS
 62
     7
 10
154.9999999999999
 20
144.5777685450494
 40
31.21562138815216
 50
266.7859924073127
 51
270.0000000000001
  0
ARC
  8
0
  6
CONTINUOUS
 62
     7
 10
147.5079468084809
 20
137.4309051328179
 40
8.89283346386989
 50
137.9129868021184
 51
138.9131379423001
  0
ARC
  8
0
  6
CONTINUOUS
 62
     7
 10
67.01606315128703
 20
218.8287774013193
 40
15.44958535398614
 50
309.4002502913738
 51
312.8965732154858
  0
ARC
  8
0
  6
CONTINUOUS
 62
     7
 10
71.38590746236386
 20
234.4076374487038
 40
1.03208715864248
 50
316.6210353405723
 51
28.35526296574034
  0
ARC
  8
0
  6
CONTINUOUS
 62
     7
 10
72.34646821885315
 20
204.9628686436484
 40
1.033279020566152
 50
332.2995981089478
 51
47.14123121606173
  0
ARC
  8
0
  6
CONTINUOUS
 62
     7
 10
159.0897681157096
 20
133.2237127239862
 40
14.41304854471902
 50
63.2756201075766
 51
64.86448228250357
  0
ARC
  8
0
  6
CONTINUOUS
 62
     7
 10
68.41017418610666
 20
209.6742782204766
 40
0.7544439315259349
 50
312.0039205529548
 51
18.0968159591543
  0
ARC
  8
0
  6
CONTINUOUS
 62
     7
 10
67.0104514666733
 20
226.2996978435148
 40
0.5493238016462657
 50
13.94215047003761
 51
74.53009729028369
  0
ARC
  8
0
  6
CONTINUOUS
 62
     7
 10
71.3719763157912
 20
205.5905456093469
 40
1.043516247711543
 50
332.0958182638251
 51
42.91733197025417
  0
ARC
  8
0
  6
CONTINUOUS
 62
     7
 10
69.09086695305884
 20
231.4396150668484
 40
0.7747659840817935
 50
340.5612374195765
 51
46.44149327659198
  0
ARC
  8
0
  6
CONTINUOUS
 62
     7
 10
74.66260314951558
 20
236.3779872300468
 40
1.230941066911311
 50
293.9654178394321
 51
15.47672089565663
  0
ARC
  8
0
  6
CONTINUOUS
 62
     7
 10
79.91374371208167
 20
207.8354067678513
 40
1.077950118929101
 50
215.2124776751671
 51
260.7370913927501
  0
ARC
  8
0
  6
CONTINUOUS
 62
     7
 10
68.69810412042658
 20
218.8981261078201
 40
14.53480727381582
 50
309.5378659021071
 51
321.6875986705475
  0
ARC
  8
0
  6
CONTINUOUS
 62
     7
 10
71.10208096661194
 20
224.398970302987
 40
10.24248473753867
 50
38.08638499502752
 51
38.30695373680443
  0
ARC
  8
0
  6
CONTINUOUS
 62
     7
 10
67.01606315128704
 20
221.1712225986807
 40
15.44958535398614
 50
38.30695373680433
 51
41.91077222464951
  0
ARC
  8
0
  6
CONTINUOUS
 62
     7
 10
72.54218667037031
 20
215.8614950439003
 40
9.63602182544757
 50
329.5620429621703
 51
337.0598828115013
  0
ARC
  8
0
  6
CONTINUOUS
 62
     7
 10
58.62997347807605
 20
221.7497265352111
 40
24.74300517762978
 50
337.0598828115025
 51
342.1932870391739
  0
ARC
  8
0
  6
CONTINUOUS
 62
     7
 10
59.85347178665845
 20
219.9999999999999
 40
22.43392175413484
 50
1.915888811245153
 51
4.936601422433326
  0
ARC
  8
0
  6
CONTINUOUS
 62
     7
 10
72.4082460473999
 20
235.0265538227328
 40
0.9842355057521771
 50
310.6383045108109
 51
29.91787411692303
  0
ARC
  8
0
  6
CONTINUOUS
 62
     7
 10
74.55189776858029
 20
203.5697307139606
 40
1.326091787496347
 50
347.9787664785448
 51
62.57960088418543
  0
ARC
  8
0
  6
CONTINUOUS
 62
     7
 10
78.07158899712944
 20
236.970707377264
 40
1.545953407001058
 50
281.904838842448
 51
358.9030629102483
  0
ARC
  8
0
  6
CONTINUOUS
 62
     7
 10
78.38244979761878
 20
206.5799616500854
 40
1.158633008231388
 50
126.0720702343006
 51
132.3735501464846
  0
ARC
  8
0
  6
CONTINUOUS
 62
     7
 10
77.95404198190683
 20
207.1680573731439
 40
0.4310412023108001
 50
90.0
 51
126.0720702343058
  0
ARC
  8
0
  6
CONTINUOUS
 62
     7
 10
79.92044085329904
 20
232.1538860541989
 40
1.089606637907218
 50
99.51985187804496
 51
144.5305790540366
  0
ARC
  8
0
  6
CONTINUOUS
 62
     7
 10
66.19914868919702
 20
219.4398131667212
 40
16.8292125883224
 50
346.7425172539238
 51
352.472882346631
  0
ARC
  8
0
  6
CONTINUOUS
 62
     7
 10
61.95961356028366
 20
220.0
 40
21.10559743974414
 50
352.4728823466312
 51
357.9634749208496
  0
ARC
  8
0
  6
CONTINUOUS
 62
     7
 10
72.95358402911852
 20
212.1625380996605
 40
7.712538099662269
 50
286.8848745838896
 51
304.8758636780456
  0
ARC
  8
0
  6
CONTINUOUS
 62
     7
 10
68.32612161096388
 20
218.8018084599792
 40
15.80533238524989
 50
304.875863678045
 51
305.1518239598077
  0
ARC
  8
0
  6
CONTINUOUS
 62
     7
 10
85.41053894945404
 20
208.5825695530035
 40
0.9368932186632296
 50
39.22639286277189
 51
81.24640350553835
  0
ARC
  8
0
  6
CONTINUOUS
 62
     7
 10
81.63408813505032
 20
227.4430487997726
 40
0.6866353149779093
 50
192.3002164491328
 51
200.6652327662154
  0
ARC
  8
0
  6
CONTINUOUS
 62
     7
 10
82.49929057253016
 20
227.6316968624587
 40
1.57216529717856
 50
180.0
 51
192.3002164491323
  0
ARC
  8
0
  6
CONTINUOUS
 62
     7
 10
82.49929057253016
 20
227.6316968624587
 40
1.57216529717856
 50
167.6997835508677
 51
180.0
  0
ARC
  8
0
  6
CONTINUOUS
 62
     7
 10
81.63408813505033
 20
227.8203449251449
 40
0.6866353149779199
 50
158.0319782363359
 51
167.6997835508674
  0
ARC
  8
0
  6
CONTINUOUS
 62
     7
 10
154.9256338131926
 20
127.6261900473721
 40
21.38960031508579
 50
48.24868211119753
 51
48.61347043851804
  0
ARC
  8
0
  6
CONTINUOUS
 62
     7
 10
155.7031715844306
 20
127.3343179244263
 40
21.12478083638998
 50
77.6335781600464
 51
78.08065952423576
  0
ARC
  8
0
  6
CONTINUOUS
 62
     7
 10
80.96905603416273
 20
211.0221989043901
 40
0.6866353149779199
 50
139.3006331506823
 51
151.396980324614
  0
ARC
  8
0
  6
CONTINUOUS
 62
     7
 10
81.32689709324444
 20
210.7144139163341
 40
1.158633008232173
 50
126.0720702343078
 51
139.3006331506818
  0
ARC
  8
0
  6
CONTINUOUS
 62
     7
 10
80.89848927753191
 20
211.302509639393
 40
0.4310412023109389
 50
90.0
 51
126.0720702342928
  0
ARC
  8
0
  6
CONTINUOUS
 62
     7
 10
150.5286782116963
 20
135.3683056978256
 40
10.4109466574812
 50
112.940117188969
 51
127.0189054893059
  0
ARC
  8
0
  6
CONTINUOUS
 62
     7
 10
156.8904388092939
 20
120.3372781574358
 40
26.73282727281166
 50
111.295630300792
 51
112.9401171889691
  0
ARC
  8
0
  6
CONTINUOUS
 62
     7
 10
75.73478698324277
 20
203.3875843528275
 40
1.207328882833177
 50
344.2017656345551
 51
71.62124318914323
  0
ARC
  8
0
  6
CONTINUOUS
 62
     7
 10
64.35983080480572
 20
219.4045566527385
 40
17.88839380017444
 50
346.5947442422779
 51
350.3203573287434
  0
ARC
  8
0
  6
CONTINUOUS
 62
     7
 10
83.76739636424784
 20
222.0444747711736
 40
1.57216529717856
 50
180.0
 51
184.1713828393385
  0
ARC
  8
0
  6
CONTINUOUS
 62
     7
 10
83.76739636424784
 20
222.0444747711736
 40
1.57216529717856
 50
167.6997835508677
 51
180.0
  0
ARC
  8
0
  6
CONTINUOUS
 62
     7
 10
82.90219392676802
 20
222.2331228338597
 40
0.6866353149779199
 50
139.3006331506823
 51
167.6997835508674
  0
ARC
  8
0
  6
CONTINUOUS
 62
     7
 10
83.26003498585
 20
221.9253378458035
 40
1.158633008232518
 50
130.3630251442473
 51
139.300633150682
  0
ARC
  8
0
  6
CONTINUOUS
 62
     7
 10
155.0743661868069
 20
127.6261900473725
 40
21.38960031508521
 50
131.3865295614819
 51
131.7513178888024
  0
ARC
  8
0
  6
CONTINUOUS
 62
     7
 10
156.8904388092371
 20
120.3372781572545
 40
26.73282727295893
 50
106.9708118367149
 51
107.2487464353089
  0
ARC
  8
0
  6
CONTINUOUS
 62
     7
 10
154.3947631766675
 20
128.515163263446
 40
18.18261080358981
 50
97.5271176536779
 51
106.9708118367148
  0
ARC
  8
0
  6
CONTINUOUS
 62
     7
 10
155.0000000000808
 20
123.9346864981322
 40
22.80290073063933
 50
96.34676632402346
 51
97.5271176536765
  0
ARC
  8
0
  6
CONTINUOUS
 62
     7
 10
154.9999999999999
 20
123.9346864984088
 40
22.80290073035181
 50
91.35495846220157
 51
96.34676632389956
  0
ARC
  8
0
  6
CONTINUOUS
 62
     7
 10
159.4713217882339
 20
135.3683056977679
 40
10.41094665756299
 50
58.22240608868672
 51
67.05988281150248
  0
ARC
  8
0
  6
CONTINUOUS
 62
     7
 10
153.1095611909803
 20
120.3372781578476
 40
26.732827272327
 50
67.05988281150131
 51
67.50908344774835
  0
LINE
  8
0
  6
CONTINUOUS
 62
     7
 10
159.7573364485858
 20
149.2491454735253
 11
159.5794260872392
 21
148.3735961052746
  0
LINE
  8
0
  6
CONTINUOUS
 62
     7
 10
165.1127568789135
 20
145.2188679217929
 11
165.2802661129247
 21
145.656602766115
  0
LINE
  8
0
  6
CONTINUOUS
 62
     7
 10
159.5071365229259
 20
148.1581898367755
 11
159.4174231842264
 21
147.6867448179582
  0
ARC
  8
0
  6
CONTINUOUS
 62
     7
 10
144.921712648217
 20
152.0377065591435
 40
5.198966581951728
 50
4.13865941455219
 51
26.57882598484168
  0
ARC
  8
0
  6
CONTINUOUS
 62
     7
 10
155.648328118249
 20
129.4098048768949
 40
19.47716561791311
 50
73.97914579367814
 51
75.90875031076666
  0
LINE
  8
0
  6
CONTINUOUS
 62
     7
 10
149.3807041279731
 20
153.3006605557061
 11
149.60413274993
 21
152.8890880214825
  0
LINE
  8
0
  6
CONTINUOUS
 62
     7
 10
165.1127568789134
 20
144.7297553575353
 11
165.1127568789135
 21
145.2188679217929
  0
LINE
  8
0
  6
CONTINUOUS
 62
     7
 10
168.1582660263932
 20
142.798936622454
 11
168.1863096942661
 21
142.7145067697647
  0
LINE
  8
0
  6
CONTINUOUS
 62
     7
 10
164.5588341522351
 20
145.7978029993211
 11
164.6010379351526
 21
145.7008911168872
  0
LINE
  8
0
  6
CONTINUOUS
 62
     7
 10
160.8177938239722
 20
147.3066382070331
 11
160.9075071626717
 21
147.7780832258504
  0
LINE
  8
0
  6
CONTINUOUS
 62
     7
 10
160.39586725007
 20
152.8890880214825
 11
160.6192958720268
 21
153.3006605557061
  0
LINE
  8
0
  6
CONTINUOUS
 62
     7
 10
160.749361568403
 20
153.4301198969606
 11
160.7986373694119
 21
153.2774678589392
  0
ARC
  8
0
  6
CONTINUOUS
 62
     7
 10
150.528678211762
 20
136.7825192602876
 40
10.41094665755666
 50
119.0737664489895
 51
123.3008522310265
  0
ARC
  8
0
  6
CONTINUOUS
 62
     7
 10
151.229211013079
 20
134.8398596920755
 40
13.28891105373779
 50
119.2098425442529
 51
121.0878423588541
  0
ARC
  8
0
  6
CONTINUOUS
 62
     7
 10
163.4932691154715
 20
145.4073221068699
 40
0.4260441487191587
 50
189.1132417803744
 51
247.0105895555103
  0
ARC
  8
0
  6
CONTINUOUS
 62
     7
 10
154.3516718817567
 20
129.4098048768961
 40
19.47716561791348
 50
103.0814576267579
 51
106.0200351165177
  0
ARC
  8
0
  6
CONTINUOUS
 62
     7
 10
158.127960026395
 20
146.8327759291874
 40
0.3193150714423601
 50
191.9273872025898
 51
266.7728861591542
  0
ARC
  8
0
  6
CONTINUOUS
 62
     7
 10
154.9999999999999
 20
157.1070710754047
 40
29.00174753083856
 50
264.209046821917
 51
270.0000000000001
  0
ARC
  8
0
  6
CONTINUOUS
 62
     7
 10
155.0
 20
157.1070710754047
 40
29.00174753083856
 50
269.9999999999999
 51
272.8912528834575
  0
LINE
  8
0
  6
CONTINUOUS
 62
     7
 10
160.6192958720268
 20
153.3006605557061
 11
160.749361568403
 21
153.4301198969606
  0
ARC
  8
0
  6
CONTINUOUS
 62
     7
 10
151.8857589471919
 20
127.671866974546
 40
0.617832156168771
 50
353.8194530188288
 51
72.21808120378836
  0
LINE
  8
0
  6
CONTINUOUS
 62
     7
 10
149.9008495404045
 20
148.4534258038539
 11
150.5825768157736
 21
147.1976322537006
  0
ARC
  8
0
  6
CONTINUOUS
 62
     7
 10
154.4187018489009
 20
147.6587117046247
 40
0.0262176626658304
 50
141.942732192387
 51
271.4095713581896
  0
ARC
  8
0
  6
CONTINUOUS
 62
     7
 10
154.3460264371191
 20
147.7156090305817
 40
0.0660808810860451
 50
321.942732192428
 51
3.99599855274505
  0
ARC
  8
0
  6
CONTINUOUS
 62
     7
 10
155.6052368233707
 20
129.9293768260894
 40
18.18261080345447
 50
73.33514321813493
 51
75.90875031070415
  0
LINE
  8
0
  6
CONTINUOUS
 62
     7
 10
150.5825768157736
 20
147.6867448179582
 11
150.492863477074
 21
148.1581898367755
  0
LINE
  8
0
  6
CONTINUOUS
 62
     7
 10
150.242663551414
 20
149.2491454735253
 11
150.1071219584353
 21
152.412918240402
  0
LINE
  8
0
  6
CONTINUOUS
 62
     7
 10
144.5847576425093
 20
145.8448459185992
 11
144.7197338870753
 21
145.656602766115
  0
LINE
  8
0
  6
CONTINUOUS
 62
     7
 10
143.4927875819699
 20
151.1615425822231
 11
143.7578707263584
 21
151.0908949900028
  0
LINE
  8
0
  6
CONTINUOUS
 62
     7
 10
150.5825768157736
 20
147.1976322537006
 11
150.5825768157736
 21
147.6867448179582
  0
ARC
  8
0
  6
CONTINUOUS
 62
     7
 10
154.3947631766283
 20
129.9293768260902
 40
18.18261080345359
 50
102.8909510147226
 51
106.6685893628946
  0
ARC
  8
0
  6
CONTINUOUS
 62
     7
 10
155.000000000003
 20
124.5032100249148
 40
24.42640822566569
 50
88.23996340895066
 51
90.00000000000009
  0
ARC
  8
0
  6
CONTINUOUS
 62
     7
 10
155.000000000003
 20
124.5032100249148
 40
24.42640822566569
 50
89.99999999999991
 51
91.35495846225287
  0
ARC
  8
0
  6
CONTINUOUS
 62
     7
 10
165.0762831355381
 20
152.0382570598974
 40
5.196927877930151
 50
153.4167153112321
 51
175.8657992893724
  0
LINE
  8
0
  6
CONTINUOUS
 62
     7
 10
148.8422929116683
 20
148.8690388626003
 11
149.0202032730149
 21
147.9934894943495
  0
LINE
  8
0
  6
CONTINUOUS
 62
     7
 10
160.9797967269851
 20
147.9934894943495
 11
161.1577070883317
 21
148.8690388626003
  0
LINE
  8
0
  6
CONTINUOUS
 62
     7
 10
149.2013626305889
 20
153.2774678589373
 11
149.250275187928
 21
153.4300324772938
  0
LINE
  8
0
  6
CONTINUOUS
 62
     7
 10
149.0202032730149
 20
147.9934894943495
 11
149.0924928373282
 21
147.7780832258504
  0
LINE
  8
0
  6
CONTINUOUS
 62
     7
 10
149.60413274993
 20
152.8890880214825
 11
149.7827471946294
 21
152.238786973344
  0
LINE
  8
0
  6
CONTINUOUS
 62
     7
 10
159.8928780415646
 20
152.412918240402
 11
159.7573364485858
 21
149.2491454735253
  0
LINE
  8
0
  6
CONTINUOUS
 62
     7
 10
144.7197338870753
 20
145.656602766115
 11
144.8872431210865
 21
145.2188679217929
  0
LINE
  8
0
  6
CONTINUOUS
 62
     7
 10
165.2802661129247
 20
145.656602766115
 11
165.4152423574906
 21
145.8448459185992
  0
LINE
  8
0
  6
CONTINUOUS
 62
     7
 10
159.4174231842264
 20
147.6867448179582
 11
159.4174231842264
 21
147.1976322537006
  0
LINE
  8
0
  6
CONTINUOUS
 62
     7
 10
159.5794260872392
 20
148.3735961052746
 11
159.5071365229259
 21
148.1581898367755
  0
ARC
  8
0
  6
CONTINUOUS
 62
     7
 10
152.4128556518669
 20
146.8250717743011
 40
0.2432308012782055
 50
203.1682338216673
 51
286.0169804850995
  0
LINE
  8
0
  6
CONTINUOUS
 62
     7
 10
144.8872431210865
 20
145.2188679217929
 11
144.8872431210865
 21
144.7297553575353
  0
LINE
  8
0
  6
CONTINUOUS
 62
     7
 10
150.4205739127607
 20
148.3735961052746
 11
150.242663551414
 21
149.2491454735253
  0
LINE
  8
0
  6
CONTINUOUS
 62
     7
 10
149.0924928373282
 20
147.7780832258504
 11
149.1822061760278
 21
147.3066382070331
  0
LINE
  8
0
  6
CONTINUOUS
 62
     7
 10
160.9075071626717
 20
147.7780832258504
 11
160.9797967269851
 21
147.9934894943495
  0
LINE
  8
0
  6
CONTINUOUS
 62
     7
 10
150.492863477074
 20
148.1581898367755
 11
150.4205739127607
 21
148.3735961052746
  0
ARC
  8
0
  6
CONTINUOUS
 62
     7
 10
154.9999999999996
 20
125.3489000609366
 40
22.80290073033878
 50
90.00000000000011
 51
91.35495846220158
  0
ARC
  8
0
  6
CONTINUOUS
 62
     7
 10
154.9999999999996
 20
125.3489000609366
 40
22.80290073033878
 50
88.21392468212724
 51
89.99999999999994
  0
LINE
  8
0
  6
CONTINUOUS
 62
     7
 10
149.1822061760278
 20
147.3066382070331
 11
149.1822061760278
 21
146.8175256427755
  0
LINE
  8
0
  6
CONTINUOUS
 62
     7
 10
160.8177938239722
 20
146.8175256427755
 11
160.8177938239722
 21
147.3066382070331
  0
LINE
  8
0
  6
CONTINUOUS
 62
     7
 10
149.250275187928
 20
153.4300324772938
 11
149.3807041279731
 21
153.3006605557061
  0
ARC
  8
0
  6
CONTINUOUS
 62
     7
 10
154.4884805038264
 20
147.7191266079229
 40
0.0660808811870088
 50
178.8890407313338
 51
220.8862693004351
  0
ARC
  8
0
  6
CONTINUOUS
 62
     7
 10
154.4187018490577
 20
147.6587117046418
 40
0.0262176626790813
 50
271.4145008267329
 51
40.88626930043688
  0
ARC
  8
0
  6
CONTINUOUS
 62
     7
 10
62.70734754109144
 20
219.2968284155694
 40
21.12478083638997
 50
347.6335781600462
 51
348.0806595242355
  0
ARC
  8
0
  6
CONTINUOUS
 62
     7
 10
148.6513625888882
 20
116.107581048104
 40
11.62367087871353
 50
183.764291699648
 51
237.4900936826796
  0
ARC
  8
0
  6
CONTINUOUS
 62
     7
 10
66.5881132588622
 20
218.8095138717395
 40
15.70369037626054
 50
304.8758636780456
 51
308.7624119440392
  0
ARC
  8
0
  6
CONTINUOUS
 62
     7
 10
71.18581707623356
 20
212.2129397838683
 40
7.662939783868977
 50
292.6509638037589
 51
304.875863678046
  0
ARC
  8
0
  6
CONTINUOUS
 62
     7
 10
161.0296827671253
 20
116.3637341217291
 40
12.01180463382751
 50
303.1384286009365
 51
350.2686435549965
  0
ARC
  8
0
  6
CONTINUOUS
 62
     7
 10
70.74133531449044
 20
224.4713217883035
 40
10.41094665748145
 50
22.94011718896945
 51
37.01890548930595
  0
ARC
  8
0
  6
CONTINUOUS
 62
     7
 10
55.71030777409883
 20
218.1095611907054
 40
26.73282727281383
 50
21.29563030079152
 51
22.94011718896854
  0
LINE
  8
0
  6
CONTINUOUS
 62
     7
 10
173.6294095225512
 20
106.0974855453026
 11
168.9171307843063
 21
107.3601368277257
  0
LINE
  8
0
  6
CONTINUOUS
 62
     7
 10
141.0830473188522
 20
107.3601845503232
 11
136.3705904774488
 21
106.0974855453026
  0
LINE
  8
0
  6
CONTINUOUS
 62
     7
 10
125.3073441983863
 20
73.74122169127008
 11
125.0
 21
71.99818612614762
  0
ARC
  8
0
  6
CONTINUOUS
 62
     7
 10
70.74133531443266
 20
224.4713217882336
 40
10.41094665756338
 50
37.01890548942102
 51
38.30695373680441
  0
ARC
  8
0
  6
CONTINUOUS
 62
     7
 10
66.58811325872408
 20
221.1904861282643
 40
15.70369037625513
 50
38.30695373680435
 51
44.53405281916496
  0
ARC
  8
0
  6
CONTINUOUS
 62
     7
 10
173.4999999999999
 20
105.6145226321581
 40
0.5000000000000004
 50
359.9999999999999
 51
74.99999999999966
  0
ARC
  8
0
  6
CONTINUOUS
 62
     7
 10
55.71030777392784
 20
218.1095611907655
 40
26.73282727295024
 50
16.97081183671446
 51
17.24874643530859
  0
ARC
  8
0
  6
CONTINUOUS
 62
     7
 10
63.88819288011339
 20
220.6052368233332
 40
18.18261080358739
 50
7.527117653676441
 51
16.97081183671463
  0
ARC
  8
0
  6
CONTINUOUS
 62
     7
 10
59.30771611480018
 20
219.9999999999191
 40
22.80290073063641
 50
6.346766324024429
 51
7.527117653677465
  0
ARC
  8
0
  6
CONTINUOUS
 62
     7
 10
59.30771611507384
 20
220.0
 40
22.80290073035183
 50
1.35495846220158
 51
6.346766323899658
  0
ARC
  8
0
  6
CONTINUOUS
 62
     7
 10
63.88819288022865
 20
219.3947631766321
 40
18.18261080346591
 50
345.9087503107042
 51
352.0774917388192
  0
LINE
  8
0
  6
CONTINUOUS
 62
     7
 10
136.0
 20
105.6145226321582
 11
136.0
 21
103.9981861261476
  0
ARC
  8
0
  6
CONTINUOUS
 62
     7
 10
59.30771611476167
 20
219.9999999999928
 40
22.80290073066436
 50
0.0000000000364366
 51
1.354958462201125
  0
ARC
  8
0
  6
CONTINUOUS
 62
     7
 10
59.30771611476126
 20
219.9999999999927
 40
22.80290073066477
 50
352.4728823467784
 51
0.000000000036664
  0
ARC
  8
0
  6
CONTINUOUS
 62
     7
 10
63.88819288009412
 20
219.3947631766137
 40
18.18261080360088
 50
352.0774917389366
 51
352.4728823467772
  0
ARC
  8
0
  6
CONTINUOUS
 62
     7
 10
63.88819288010619
 20
219.3947631766586
 40
18.18261080359201
 50
343.0291881633585
 51
345.9087503107172
  0
ARC
  8
0
  6
CONTINUOUS
 62
     7
 10
55.71030777389725
 20
221.8904388092222
 40
26.73282727297604
 50
337.5090834478551
 51
343.0291881633581
  0
ARC
  8
0
  6
CONTINUOUS
 62
     7
 10
70.74133531443266
 20
215.5286782117663
 40
10.41094665756338
 50
328.2224060886861
 51
337.0598828115018
  0
ARC
  8
0
  6
CONTINUOUS
 62
     7
 10
55.71030777451182
 20
221.8904388090199
 40
26.73282727232792
 50
337.0598828115017
 51
337.5090834477488
  0
ARC
  8
0
  6
CONTINUOUS
 62
     7
 10
168.5795000000001
 20
75.49384173144769
 40
0.4999999999999336
 50
262.4415590319086
 51
269.4994267598884
  0
ARC
  8
0
  6
CONTINUOUS
 62
     7
 10
136.5
 20
105.6145226321581
 40
0.4999999999999851
 50
105.0000000000003
 51
180.0000000000003
  0
ARC
  8
0
  6
CONTINUOUS
 62
     7
 10
141.4204999999999
 20
75.49384173144769
 40
0.4999999999999465
 50
270.5005732401116
 51
277.558440968091
  0
ARC
  8
0
  6
CONTINUOUS
 62
     7
 10
183.7078480486001
 20
73.56757351364762
 40
0.9999999999999092
 50
9.99999999747734
 51
88.00000000042337
  0
LINE
  8
0
  6
CONTINUOUS
 62
     7
 10
185.0
 20
71.99818612614762
 11
184.6926558016136
 21
73.74122169127008
  0
ARC
  8
0
  6
CONTINUOUS
 62
     7
 10
161.5637365372773
 20
141.3320874894959
 40
13.10329580148338
 50
2.921672650831979
 51
62.63661238611952
  0
ARC
  8
0
  6
CONTINUOUS
 62
     7
 10
155.0713993529617
 20
130.8592598795405
 40
25.40625150736205
 50
60.4886003449129
 51
124.1799669405543
  0
ARC
  8
0
  6
CONTINUOUS
 62
     7
 10
147.8167722640252
 20
141.5646796693051
 40
12.47430266508929
 50
124.2380964265203
 51
178.0090267477773
  0
LINE
  8
0
  6
CONTINUOUS
 62
     7
 10
148.8592568738891
 20
145.9982092854188
 11
148.8592568738891
 21
146.712401811994
  0
ARC
  8
0
  6
CONTINUOUS
 62
     7
 10
126.2921519513999
 20
73.56757351364762
 40
0.9999999999999352
 50
91.99999999957662
 51
170.0000000025225
  0
ARC
  8
0
  6
CONTINUOUS
 62
     7
 10
62.99921966403799
 20
220.0743661868067
 40
21.38960031508477
 50
318.2486821112639
 51
318.6134704385178
  0
ARC
  8
0
  6
CONTINUOUS
 62
     7
 10
68.59674234065128
 20
215.9102318842903
 40
14.41304854471903
 50
333.2756201075767
 51
334.8644822825036
  0
ARC
  8
0
  6
CONTINUOUS
 62
     7
 10
57.38569330584563
 20
220.0
 40
26.49269049254667
 50
1.249259491207283
 51
1.62260395553736
  0
ARC
  8
0
  6
CONTINUOUS
 62
     7
 10
62.99921966403799
 20
219.9256338131932
 40
21.38960031508477
 50
41.38652956148226
 51
41.75131788873611
  0
LINE
  8
0
  6
CONTINUOUS
 62
     7
 10
137.05
 20
123.8097919981737
 11
137.05
 21
115.5735177393161
  0
ARC
  8
0
  6
CONTINUOUS
 62
     7
 10
55.71030777450967
 20
218.1095611909793
 40
26.7328272723302
 50
17.24874643524066
 51
21.29563030056741
  0
LINE
  8
0
  6
CONTINUOUS
 62
     7
 10
173.9999999999999
 20
103.9981861261476
 11
173.9999999999999
 21
105.6145226321582
  0
LINE
  8
0
  6
CONTINUOUS
 62
     7
 10
159.7107253315611
 20
147.6719852282977
 11
159.7403724863651
 21
147.5803974242903
  0
LINE
  8
0
  6
CONTINUOUS
 62
     7
 10
155.7964558506266
 20
131.2323586352562
 11
155.7499904312072
 21
131.2307746687972
  0
ARC
  8
0
  6
CONTINUOUS
 62
     7
 10
162.3610723772401
 20
142.1440999142002
 40
8.235832996282806
 50
327.1496093082033
 51
343.3898383304488
  0
LINE
  8
0
  6
CONTINUOUS
 62
     7
 10
135.35
 20
141.9999717948817
 11
135.35
 21
129.6256031241171
  0
ARC
  8
0
  6
CONTINUOUS
 62
     7
 10
68.00232682123512
 20
218.8095138717396
 40
15.70369037626073
 50
304.8758636780458
 51
308.7624119440395
  0
ARC
  8
0
  6
CONTINUOUS
 62
     7
 10
72.60003063860665
 20
212.2129397838684
 40
7.662939783869088
 50
286.6186590045045
 51
304.8758636780453
  0
ARC
  8
0
  6
CONTINUOUS
 62
     7
 10
156.5
 20
114.9054048490983
 40
0.5000000000000004
 50
93.100418776012
 51
180.0
  0
ARC
  8
0
  6
CONTINUOUS
 62
     7
 10
152.0
 20
115.0278007610113
 40
0.5000000000000026
 50
0.0
 51
83.76426289103438
  0
ARC
  8
0
  6
CONTINUOUS
 62
     7
 10
156.1049088082422
 20
136.8482122953165
 40
21.44669150752629
 50
270.983744340633
 51
317.8400707964541
  0
ARC
  8
0
  6
CONTINUOUS
 62
     7
 10
163.1058695517169
 20
129.8219947448302
 40
11.55227814801225
 50
320.3668257837496
 51
356.8910172160584
  0
ARC
  8
0
  6
CONTINUOUS
 62
     7
 10
72.80393474948295
 20
227.492053191519
 40
8.89283346386989
 50
47.91298680211844
 51
48.9131379421168
  0
ARC
  8
0
  6
CONTINUOUS
 62
     7
 10
50.74174008271348
 20
218.0105326653829
 40
0.239467334617105
 50
77.1320202285774
 51
90.0
  0
ARC
  8
0
  6
CONTINUOUS
 62
     7
 10
72.60003063860995
 20
227.7870602161315
 40
7.662939783869088
 50
55.12413632195467
 51
73.39602459783833
  0
ARC
  8
0
  6
CONTINUOUS
 62
     7
 10
68.00232682123858
 20
221.1904861282604
 40
15.70369037626055
 50
49.35099600701245
 51
55.12413632195432
  0
ARC
  8
0
  6
CONTINUOUS
 62
     7
 10
71.18581707623686
 20
227.7870602161316
 40
7.662939783869005
 50
55.1241363219545
 51
67.31993101361991
  0
ARC
  8
0
  6
CONTINUOUS
 62
     7
 10
66.5881132588656
 20
221.1904861282605
 40
15.70369037626038
 50
44.53405281916491
 51
55.1241363219545
  0
LINE
  8
0
  6
CONTINUOUS
 62
     7
 10
163.2664491582961
 20
145.8314882478256
 11
163.2664491582961
 21
145.5254596608668
  0
ARC
  8
0
  6
CONTINUOUS
 62
     7
 10
70.74133531449317
 20
215.5286782116917
 40
10.41094665747625
 50
321.6930462627051
 51
328.2224060888601
  0
ARC
  8
0
  6
CONTINUOUS
 62
     7
 10
66.58811325868056
 20
218.809513871801
 40
15.70369037633637
 50
314.5678639628284
 51
321.6930462627051
  0
ARC
  8
0
  6
CONTINUOUS
 62
     7
 10
79.95079816171366
 20
219.9999999999999
 40
31.21562138815133
 50
179.9999999999998
 51
183.2140075926873
  0
ARC
  8
0
  6
CONTINUOUS
 62
     7
 10
79.95079816171366
 20
220.0000000000001
 40
31.21562138815133
 50
176.7859924073126
 51
180.0000000000002
  0
LINE
  8
0
  6
CENTER
 62
     1
 10
14.74116882584882
 20
220.0
 11
78.74116882584889
 21
220.0
  0
LINE
  8
0
  6
CENTER
 62
     1
 10
46.74116882584885
 20
187.9999999999999
 11
46.74116882584885
 21
252.0
  0
ARC
  8
0
  6
CONTINUOUS
 62
     7
 10
150.7800072029183
 20
144.5448951810261
 40
12.26395995525074
 50
219.3819612053662
 51
235.4104541245067
  0
ARC
  8
0
  6
CONTINUOUS
 62
     7
 10
153.8143286020019
 20
149.3123480703177
 40
17.92666426895689
 50
240.2110779086516
 51
252.9819375819186
  0
LINE
  8
0
  6
CENTER
 62
     1
 10
46.74116882584886
 20
63.99999999999999
 11
46.74116882584884
 21
160.0
  0
ARC
  8
0
  6
CONTINUOUS
 62
     7
 10
147.7534565040694
 20
142.1968507675847
 40
8.360681060492942
 50
196.7322359956928
 51
212.7283116071703
  0
LINE
  8
0
  6
CENTER
 62
     1
 10
155.0
 20
64.0
 11
155.0
 21
166.0
  0
LINE
  8
0
  6
CENTER
 62
     1
 10
46.74116882584885
 20
111.3514133838408
 11
81.19487772100399
 21
145.8051222789961
  0
ARC
  8
0
  6
CONTINUOUS
 62
     7
 10
66.58811325872408
 20
218.8095138717357
 40
15.70369037625513
 50
308.7624119440391
 51
314.5678639628723
  0
ARC
  8
0
  6
CONTINUOUS
 62
     7
 10
148.702826697766
 20
130.4620622484867
 40
13.40534040432948
 50
185.5338709279964
 51
244.0438104362804
  0
ARC
  8
0
  6
CONTINUOUS
 62
     7
 10
154.4449582910429
 20
139.3420288181042
 40
23.93686346121381
 50
240.9873833044323
 51
264.267375812809
  0
ARC
  8
0
  6
CONTINUOUS
 62
     7
 10
154.9573440927932
 20
153.2891842054711
 40
22.06974743639075
 50
256.9167820962375
 51
268.163268749737
  0
ARC
  8
0
  6
CONTINUOUS
 62
     7
 10
155.0473398240588
 20
153.2554716168598
 40
22.0358498865312
 50
271.9481643967747
 51
283.0911911424004
  0
ARC
  8
0
  6
CONTINUOUS
 62
     7
 10
159.2527037140874
 20
144.5093286136313
 40
12.21611205310579
 50
304.5580463633246
 51
320.6495493178605
  0
LINE
  8
0
  6
CONTINUOUS
 62
     7
 10
174.65
 20
129.6256031241171
 11
174.65
 21
141.9999717948817
  0
ARC
  8
0
  6
CONTINUOUS
 62
     7
 10
156.2123855184186
 20
149.2506214639971
 40
17.85982381768771
 50
286.9938822287538
 51
299.8130221716714
  0
LINE
  8
0
  6
CONTINUOUS
 62
     7
 10
148.579181463035
 20
75.05636714286277
 11
137.4999999999999
 21
74.9595697361477
  0
LINE
  8
0
  6
CONTINUOUS
 62
     7
 10
172.945822289812
 20
114.3331317685422
 11
172.9779079628803
 21
123.8059655057265
  0
LINE
  8
0
  6
CONTINUOUS
 62
     7
 10
50.4196198288691
 20
202.0618590384498
 11
50.94681718369871
 21
202.0500000038421
  0
LINE
  8
0
  6
CONTINUOUS
 62
     7
 10
174.6442337371222
 20
129.1954112402825
 11
174.6499999338441
 21
129.6244272598729
  0
LINE
  8
0
  6
CONTINUOUS
 62
     7
 10
79.07005768639463
 20
113.7864112255386
 11
49.15944084220355
 21
143.6970280697294
  0
LINE
  8
0
  6
CONTINUOUS
 62
     7
 10
51.85063656502822
 20
108.5801975721653
 11
39.1767613931665
 21
121.3326984430274
  0
LINE
  8
0
  6
CONTINUOUS
 62
     7
 10
172.5000000000001
 20
74.9595697361477
 11
183.7427475452951
 21
74.56696434066691
  0
LINE
  8
0
  6
CONTINUOUS
 62
     7
 10
64.99959562336659
 20
239.6560725966031
 11
64.54235894447895
 21
239.6400362990483
  0
LINE
  8
0
  6
CONTINUOUS
 62
     7
 10
37.33766291865104
 20
129.75397707741
 11
39.35851373752119
 21
122.2120591468694
  0
LINE
  8
0
  6
CONTINUOUS
 62
     7
 10
64.56844085694756
 20
200.3557662628777
 11
64.99745687653801
 21
200.3500000661558
  0
LINE
  8
0
  6
CONTINUOUS
 62
     7
 10
139.5807915557212
 20
140.1302173546088
 11
139.4500027005953
 21
141.8170352820785
  0
LINE
  8
0
  6
CONTINUOUS
 62
     7
 10
167.4009014245453
 20
143.1264590142313
 11
167.4009014245453
 21
142.5810123652417
  0
LINE
  8
0
  6
CONTINUOUS
 62
     7
 10
172.5000000000001
 20
74.9595697361477
 11
161.4208185369649
 21
75.05636714286273
  0
LINE
  8
0
  6
CONTINUOUS
 62
     7
 10
126.2572524547048
 20
74.56696434066693
 11
137.4999999999999
 21
74.95956973614767
  0
LINE
  8
0
  6
CONTINUOUS
 62
     7
 10
135.3439274033968
 20
129.6265660067015
 11
135.3599637009517
 21
129.1693293278133
  0
LINE
  8
0
  6
CONTINUOUS
 62
     7
 10
50.95392664234623
 20
237.9604427417159
 11
50.11124853461915
 21
237.913141162213
  0
LINE
  8
0
  6
CONTINUOUS
 62
     7
 10
157.9143336047887
 20
147.4942505162161
 11
157.9143336047887
 21
146.7667824811306
  0
LINE
  8
0
  6
CONTINUOUS
 62
     7
 10
170.5499989132452
 20
141.8192875561741
 11
170.419314193308
 21
140.1303322888274
  0
LINE
  8
0
  6
CONTINUOUS
 62
     7
 10
156.0
 20
113.8031370508814
 11
156.0
 21
127.4596997744722
  0
LINE
  8
0
  6
CONTINUOUS
 62
     7
 10
160.0632749581343
 20
146.1423885760307
 11
160.0632749581343
 21
149.4817447106939
  0
LINE
  8
0
  6
CONTINUOUS
 62
     7
 10
144.5085498016369
 20
150.1800908263917
 11
144.8121104882342
 21
146.4458579286039
  0
LINE
  8
0
  6
CONTINUOUS
 62
     7
 10
165.2039487897754
 20
145.8258385330446
 11
165.2039487897754
 21
147.4674260302597
  0
LINE
  8
0
  6
CONTINUOUS
 62
     7
 10
166.0005078951588
 20
134.0736455405914
 11
165.9465518876612
 21
133.4947251905972
  0
LINE
  8
0
  6
CONTINUOUS
 62
     7
 10
168.9891387680939
 20
142.7101235484756
 11
168.9891387680939
 21
144.276344763989
  0
LINE
  8
0
  6
CONTINUOUS
 62
     7
 10
152.5
 20
127.6053500425555
 11
152.5
 21
113.8912566918874
  0
LINE
  8
0
  6
CONTINUOUS
 62
     7
 10
144.0534480864303
 20
133.4947251881825
 11
143.9994924240984
 21
134.0736455703465
  0
LINE
  8
0
  6
CONTINUOUS
 62
     7
 10
154.25
 20
146.9012721493605
 11
154.25
 21
155.7068814352624
  0
LINE
  8
0
  6
CONTINUOUS
 62
     7
 10
155.75
 20
147.6782645488567
 11
155.75
 21
155.7068814352624
  0
LINE
  8
0
  6
CONTINUOUS
 62
     7
 10
163.1397118274828
 20
145.339842564634
 11
163.1397118274828
 21
145.9269034235403
  0
LINE
  8
0
  6
CONTINUOUS
 62
     7
 10
144.2842448266313
 20
143.6714307442491
 11
144.2842448266313
 21
144.2761720487458
  0
LINE
  8
0
  6
CONTINUOUS
 62
     7
 10
154.25
 20
131.2307746960753
 11
154.25
 21
130.0608291074674
  0
LINE
  8
0
  6
CONTINUOUS
 62
     7
 10
149.7827471946294
 20
152.238786973344
 11
149.9448185549239
 21
148.4553092874067
  0
LINE
  8
0
  6
CONTINUOUS
 62
     7
 10
137.0485985001409
 20
115.5732223615988
 11
137.052768870874
 21
115.3444634548748
  0
LINE
  8
0
  6
CONTINUOUS
 62
     7
 10
154.4224133295773
 20
148.9224893323432
 11
154.4224133295773
 21
146.7309321359198
  0
LINE
  8
0
  6
CONTINUOUS
 62
     7
 10
77.2023845337567
 20
204.4500027005953
 11
75.50310623763161
 21
204.5802654000359
  0
LINE
  8
0
  6
CONTINUOUS
 62
     7
 10
153.25
 20
109.0666515557496
 11
153.25
 21
113.8376933459932
  0
LINE
  8
0
  6
CONTINUOUS
 62
     7
 10
75.50339535667482
 20
235.4196592434746
 11
77.20013225966112
 21
235.5499989132452
  0
LINE
  8
0
  6
CONTINUOUS
 62
     7
 10
82.2743017660256
 20
220.75
 11
91.07991105192747
 21
220.75
  0
LINE
  8
0
  6
CONTINUOUS
 62
     7
 10
153.250100168216
 20
109.060174593021
 11
152.8109756097561
 21
109.0890425520037
  0
LINE
  8
0
  6
CONTINUOUS
 62
     7
 10
80.71287218129909
 20
211.8602881725171
 11
81.29993304020539
 21
211.8602881725171
  0
LINE
  8
0
  6
CONTINUOUS
 62
     7
 10
156.75
 20
115.3687104660484
 11
156.75
 21
109.066651555749
  0
LINE
  8
0
  6
CONTINUOUS
 62
     7
 10
172.5000000000001
 20
74.9981861261476
 11
137.4999999999999
 21
74.9981861261476
  0
LINE
  8
0
  6
CONTINUOUS
 62
     7
 10
157.1890243902439
 20
109.0890425520021
 11
156.7498998317839
 21
109.0601745930209
  0
LINE
  8
0
  6
CONTINUOUS
 62
     7
 10
82.86728013288119
 20
217.0856663952113
 11
82.13981209779571
 21
217.0856663952113
  0
LINE
  8
0
  6
CONTINUOUS
 62
     7
 10
155.75
 20
130.0608291074674
 11
155.75
 21
131.2307749846216
  0
LINE
  8
0
  6
CONTINUOUS
 62
     7
 10
78.49948863089634
 20
207.5990985754547
 11
77.95404198190681
 21
207.5990985754547
  0
LINE
  8
0
  6
CONTINUOUS
 62
     7
 10
81.5154181926958
 20
214.9367250418656
 11
84.85477432735894
 21
214.9367250418656
  0
LINE
  8
0
  6
CONTINUOUS
 62
     7
 10
62.97837965922062
 20
222.5
 11
49.26428630855251
 21
222.5
  0
LINE
  8
0
  6
CONTINUOUS
 62
     7
 10
69.44667515725641
 20
208.9994921048409
 11
68.86775480726223
 21
209.0534481123388
  0
LINE
  8
0
  6
CONTINUOUS
 62
     7
 10
49.17616666754643
 20
219.0
 11
62.83272939113726
 21
219.0
  0
LINE
  8
0
  6
CONTINUOUS
 62
     7
 10
85.55312044305683
 20
230.4914501983631
 11
81.81888754526905
 21
230.1878895117657
  0
LINE
  8
0
  6
CONTINUOUS
 62
     7
 10
78.0831531651407
 20
206.0108612319061
 11
79.64937438065402
 21
206.0108612319061
  0
LINE
  8
0
  6
CONTINUOUS
 62
     7
 10
68.8677548048545
 20
230.9465519134948
 11
69.44667518701155
 21
231.0005075759016
  0
LINE
  8
0
  6
CONTINUOUS
 62
     7
 10
83.05129416552178
 20
219.25
 11
91.07991105192748
 21
219.25
  0
LINE
  8
0
  6
CONTINUOUS
 62
     7
 10
66.60380431269542
 20
220.75
 11
65.43385872413248
 21
220.75
  0
LINE
  8
0
  6
CONTINUOUS
 62
     7
 10
79.04446036091414
 20
230.7157551733687
 11
79.64920166541089
 21
230.7157551733687
  0
LINE
  8
0
  6
CONTINUOUS
 62
     7
 10
81.19886814970971
 20
209.7960512102246
 11
82.8404556469248
 21
209.7960512102246
  0
LINE
  8
0
  6
CONTINUOUS
 62
     7
 10
87.61181659000908
 20
225.2172528053705
 11
83.82833890407183
 21
225.0551814450761
  0
LINE
  8
0
  6
CONTINUOUS
 62
     7
 10
37.29451884633385
 20
221.75
 11
49.21072296265827
 21
221.75
  0
LINE
  8
0
  6
CONTINUOUS
 62
     7
 10
78.64579361775328
 20
113.3621471568972
 11
76.28831580689662
 21
115.7196249677545
  0
ARC
  8
0
  6
CONTINUOUS
 62
     7
 10
40.23548459965772
 20
130.5304311400643
 40
3.000000000000019
 50
134.8996915148259
 51
196.094088793312
  0
LINE
  8
0
  6
CONTINUOUS
 62
     7
 10
65.74031619736395
 20
104.9821531361019
 11
69.7563943118797
 21
108.9982312506176
  0
LINE
  8
0
  6
CONTINUOUS
 62
     7
 10
63.51690569269775
 20
155.8946200451973
 11
62.59967350479074
 21
155.8946200451973
  0
LINE
  8
0
  6
CONTINUOUS
 62
     7
 10
91.11279050307314
 20
128.2601827033554
 11
91.17536049463348
 21
127.3372298518437
  0
LINE
  8
0
  6
CONTINUOUS
 62
     7
 10
64.24116882584893
 20
74.99818612614762
 11
29.2411688258488
 21
74.99818612614757
  0
LINE
  8
0
  6
CONTINUOUS
 62
     7
 10
65.7411688258488
 20
103.9981861261476
 11
65.7411688258488
 21
104.9846904691288
  0
LINE
  8
0
  6
CONTINUOUS
 62
     7
 10
54.75913122088826
 20
107.4823314110823
 11
58.8722673464061
 21
106.3375975728772
  0
LINE
  8
0
  6
CONTINUOUS
 62
     7
 10
37.84573234321884
 20
127.8578361711508
 11
37.91376993988374
 21
127.7897985744858
  0
LINE
  8
0
  6
CONTINUOUS
 62
     7
 10
40.32035028888382
 20
75.05636714286274
 11
29.24116882584878
 21
74.9595697361477
  0
ARC
  8
0
  6
CONTINUOUS
 62
     7
 10
46.74116882584884
 20
220.0
 40
18.99999999999996
 50
70.8629012642159
 51
289.1370987357841
  0
ARC
  8
0
  6
CONTINUOUS
 62
     7
 10
73.03930760419865
 20
111.9983018304619
 40
3.000000000000009
 50
269.5216335808122
 51
315.3964982911994
  0
ARC
  8
0
  6
CONTINUOUS
 62
     7
 10
72.15554887695323
 20
215.5286782117624
 40
10.41094665755643
 50
326.6899610696544
 51
328.2224060886865
  0
LINE
  8
0
  6
CONTINUOUS
 62
     7
 10
33.4989910235732
 20
107.5409899341898
 11
28.11175930329763
 21
106.0974855453026
  0
ARC
  8
0
  6
CONTINUOUS
 62
     7
 10
70.21288930874044
 20
223.7707889869208
 40
13.28891105373789
 50
29.20984254425298
 51
31.08784235885406
  0
LINE
  8
0
  6
CONTINUOUS
 62
     7
 10
50.74174008271348
 20
218.25
 11
37.29458695685898
 21
218.25
  0
LINE
  8
0
  6
CONTINUOUS
 62
     7
 10
64.24116882584893
 20
74.95956973614771
 11
53.16198736281385
 21
75.05636714286274
  0
LINE
  8
0
  6
CONTINUOUS
 62
     7
 10
60.47835316123112
 20
155.015940388757
 11
49.15944084220357
 21
143.6970280697294
  0
LINE
  8
0
  6
CONTINUOUS
 62
     7
 10
84.29551894900827
 20
220.5775866704227
 11
82.10396175258488
 21
220.5775866704227
  0
LINE
  8
0
  6
CONTINUOUS
 62
     7
 10
47.34080280147671
 20
74.69741289265876
 11
46.14165310502467
 21
74.69795961186146
  0
LINE
  8
0
  6
CONTINUOUS
 62
     7
 10
51.09265458441897
 20
140.9152861902309
 11
48.73517677356234
 21
143.2727640010882
  0
ARC
  8
0
  6
CONTINUOUS
 62
     7
 10
46.74116882584885
 20
220.0
 40
30.00000000000001
 50
40.91964995488638
 51
319.0803500451135
  0
ARC
  8
0
  6
CONTINUOUS
 62
     7
 10
65.30240644275514
 20
219.394763176629
 40
18.18261080345381
 50
343.3351432181355
 51
345.9087503107044
  0
ARC
  8
0
  6
CONTINUOUS
 62
     7
 10
80.77992660883304
 20
211.5072737962144
 40
0.425440888670011
 50
99.0682931769925
 51
157.0555381588912
  0
ARC
  8
0
  6
CONTINUOUS
 62
     7
 10
64.78283449356125
 20
219.3516718817505
 40
19.47716561791178
 50
343.9791457936782
 51
345.9087503107668
  0
LINE
  8
0
  6
CONTINUOUS
 62
     7
 10
75.16068648758686
 20
109.8770400267308
 11
78.6457936177533
 21
113.3621471568972
  0
ARC
  8
0
  6
CONTINUOUS
 62
     7
 10
72.15554887695289
 20
224.4713217882381
 40
10.41094665755643
 50
29.07376644898915
 51
33.30085223102628
  0
LINE
  8
0
  6
CONTINUOUS
 62
     7
 10
48.7351767735608
 20
143.2727640010897
 11
38.08981105162284
 21
132.6273982791487
  0
LINE
  8
0
  6
CONTINUOUS
 62
     7
 10
69.65773533175891
 20
108.9982295678256
 11
73.0392930054947
 21
108.998301829465
  0
ARC
  8
0
  6
CONTINUOUS
 62
     7
 10
62.59967350479076
 20
152.8946200451973
 40
3.000000000000003
 50
89.66475090301975
 51
135.0000000000001
  0
LINE
  8
0
  6
CONTINUOUS
 62
     7
 10
65.43385872413248
 20
219.25
 11
66.60380460137655
 21
219.25
  0
ARC
  8
0
  6
CONTINUOUS
 62
     7
 10
92.75565446903566
 20
218.9025980325725
 40
27.55578439525054
 50
162.4794887612112
 51
163.0291881635212
  0
ARC
  8
0
  6
CONTINUOUS
 62
     7
 10
86.82982205016442
 20
220.7110063653153
 40
21.36015443902504
 50
163.0291881635213
 51
166.2135672372084
  0
ARC
  8
0
  6
CONTINUOUS
 62
     7
 10
92.210770483016
 20
220.0000000000001
 40
26.78787367352187
 50
178.3956102574176
 51
180.0000000000002
  0
ARC
  8
0
  6
CONTINUOUS
 62
     7
 10
92.21077048301456
 20
219.9999999999999
 40
26.78787367352041
 50
179.9999999999999
 51
181.6043897425828
  0
ARC
  8
0
  6
CONTINUOUS
 62
     7
 10
83.03174132128977
 20
220.5812981510989
 40
0.0262176626658423
 50
51.94273219248561
 51
181.4095713579463
  0
ARC
  8
0
  6
CONTINUOUS
 62
     7
 10
83.08863864724673
 20
220.6539735628809
 40
0.0660808810860451
 50
231.9427321924281
 51
273.995998552745
  0
ARC
  8
0
  6
CONTINUOUS
 62
     7
 10
80.87480725283652
 20
224.1353365626815
 40
14.57363961485489
 50
144.0360494927518
 51
149.2376277460353
  0
ARC
  8
0
  6
CONTINUOUS
 62
     7
 10
86.82982205016341
 20
219.2889936346844
 40
21.360154439024
 50
193.7864327627915
 51
196.9708118364787
  0
ARC
  8
0
  6
CONTINUOUS
 62
     7
 10
92.75565446903327
 20
221.0974019674267
 40
27.55578439524805
 50
196.9708118364787
 51
197.5205112387887
  0
ARC
  8
0
  6
CONTINUOUS
 62
     7
 10
80.87480725283642
 20
215.8646634373184
 40
14.57363961485478
 50
210.762372253965
 51
215.9639505072483
  0
ARC
  8
0
  6
CONTINUOUS
 62
     7
 10
78.0332679930244
 20
211.783639551297
 40
9.752563587268117
 50
231.3882044088595
 51
238.2486192692556
  0
ARC
  8
0
  6
CONTINUOUS
 62
     7
 10
62.91389419004157
 20
218.3828593104553
 40
0.6224551030177206
 50
14.3584973013547
 51
97.49239669539297
  0
ARC
  8
0
  6
CONTINUOUS
 62
     7
 10
78.48050178303558
 20
211.783639551297
 40
9.75256358726805
 50
301.7513807307444
 51
308.6117955911408
  0
ARC
  8
0
  6
CONTINUOUS
 62
     7
 10
63.75811530702832
 20
221.0974019674261
 40
27.55578439524631
 50
342.4794887612115
 51
343.0291881635215
  0
ARC
  8
0
  6
CONTINUOUS
 62
     7
 10
69.68394772589629
 20
219.2889936346845
 40
21.36015443902429
 50
343.0291881635212
 51
346.2135672372085
  0
ARC
  8
0
  6
CONTINUOUS
 62
     7
 10
64.30299929304395
 20
219.9999999999999
 40
26.78787367352187
 50
358.3956102574176
 51
0.0000000000001705
  0
ARC
  8
0
  6
CONTINUOUS
 62
     7
 10
64.3029992930454
 20
220.0
 40
26.78787367352041
 50
359.9999999999998
 51
1.604389742582611
  0
ARC
  8
0
  6
CONTINUOUS
 62
     7
 10
83.092156224588
 20
220.5115194961735
 40
0.0660808811870365
 50
88.88904073127415
 51
130.8862693004127
  0
ARC
  8
0
  6
CONTINUOUS
 62
     7
 10
83.03174132130688
 20
220.5812981509423
 40
0.0262176626790833
 50
181.4145008269147
 51
310.8862693003117
  0
ARC
  8
0
  6
CONTINUOUS
 62
     7
 10
78.48050178303542
 20
228.2163604487027
 40
9.752563587268371
 50
51.38820440885982
 51
58.24861926925598
  0
ARC
  8
0
  6
CONTINUOUS
 62
     7
 10
69.68394772589654
 20
220.7110063653156
 40
21.360154439024
 50
13.78643276279156
 51
16.97081183647869
  0
ARC
  8
0
  6
CONTINUOUS
 62
     7
 10
63.75811530702669
 20
218.9025980325733
 40
27.55578439524805
 50
16.97081183647868
 51
17.52051123878873
  0
ARC
  8
0
  6
CONTINUOUS
 62
     7
 10
60.72192967760108
 20
220.0000000000003
 40
22.80290073033938
 50
0.0000000000001137
 51
1.354958462201694
  0
ARC
  8
0
  6
CONTINUOUS
 62
     7
 10
60.72192967760407
 20
220.0000000000003
 40
22.80290073033638
 50
358.2139246821272
 51
0.0000000000000568
  0
ARC
  8
0
  6
CONTINUOUS
 62
     7
 10
64.7828344935637
 20
220.6483281182439
 40
19.47716561791084
 50
13.08145762675753
 51
16.02003511651789
  0
ARC
  8
0
  6
CONTINUOUS
 62
     7
 10
78.25688488802997
 20
210.5179191936035
 40
8.667919193603574
 50
279.8385954901465
 51
286.9280062979274
  0
ARC
  8
0
  6
CONTINUOUS
 62
     7
 10
65.30240644275433
 20
220.6052368233714
 40
18.18261080345448
 50
12.89095101472276
 51
16.66858936289441
  0
ARC
  8
0
  6
CONTINUOUS
 62
     7
 10
78.25688488802999
 20
229.4820808063965
 40
8.667919193603518
 50
73.07199370207243
 51
80.16140450985357
  0
ARC
  8
0
  6
CONTINUOUS
 62
     7
 10
75.63896252322344
 20
224.1353365626815
 40
14.57363961485489
 50
30.76237225396498
 51
35.96395050724821
  0
ARC
  8
0
  6
CONTINUOUS
 62
     7
 10
78.25688488802997
 20
229.4820808063965
 40
8.667919193603435
 50
99.838595489914
 51
106.928006297928
  0
ARC
  8
0
  6
CONTINUOUS
 62
     7
 10
92.48010069206896
 20
220.0
 40
29.00174753083783
 50
174.2090468219168
 51
180.0
  0
ARC
  8
0
  6
CONTINUOUS
 62
     7
 10
92.48010069206896
 20
220.0
 40
29.00174753083783
 50
180.0
 51
182.8912528834577
  0
ARC
  8
0
  6
CONTINUOUS
 62
     7
 10
75.63896252322344
 20
215.8646634373185
 40
14.57363961485489
 50
324.0360494927519
 51
329.2376277460351
  0
ARC
  8
0
  6
CONTINUOUS
 62
     7
 10
78.03326799302438
 20
228.2163604487029
 40
9.752563587268117
 50
121.7513807307443
 51
128.6117955911406
  0
ARC
  8
0
  6
CONTINUOUS
 62
     7
 10
59.87623964157963
 20
219.9999999999969
 40
24.42640822566591
 50
358.2399634089505
 51
0.0
  0
ARC
  8
0
  6
CONTINUOUS
 62
     7
 10
59.87623964158095
 20
219.999999999997
 40
24.42640822566459
 50
359.9999999999998
 51
1.354958462252796
  0
ARC
  8
0
  6
CONTINUOUS
 62
     7
 10
82.19810139096612
 20
222.587144348133
 40
0.2432308012782055
 50
113.1682338216673
 51
196.0169804850995
  0
ARC
  8
0
  6
CONTINUOUS
 62
     7
 10
82.20579450012366
 20
216.8720494576267
 40
0.3193035094586461
 50
101.925799666808
 51
176.7744736949292
  0
ARC
  8
0
  6
CONTINUOUS
 62
     7
 10
63.05123890222125
 20
223.1044817500969
 40
0.6088568431830438
 50
263.127193962792
 51
342.9103402598328
  0
ARC
  8
0
  6
CONTINUOUS
 62
     7
 10
66.50461096849287
 20
224.7692632162039
 40
0.7134742127212695
 50
22.16875231271058
 51
67.56765702492261
  0
ARC
  8
0
  6
CONTINUOUS
 62
     7
 10
67.01029931473754
 20
213.7006129854282
 40
0.5496639569815107
 50
285.4765459438259
 51
346.0100552952661
  0
ARC
  8
0
  6
CONTINUOUS
 62
     7
 10
66.62006518983912
 20
215.1156577716755
 40
0.5665386287683686
 50
286.0676367925562
 51
344.2347614076996
  0
ARC
  8
0
  6
CONTINUOUS
 62
     7
 10
80.37506223035658
 20
220.0
 40
31.21562138815301
 50
175.4056973818839
 51
180.0000000000002
  0
ARC
  8
0
  6
CONTINUOUS
 62
     7
 10
80.37506223035658
 20
219.9999999999999
 40
31.21562138815301
 50
179.9999999999999
 51
181.8358396822839
  0
ARC
  8
0
  6
CONTINUOUS
 62
     7
 10
78.25688488802996
 20
210.5179191936035
 40
8.667919193603518
 50
253.0719937020722
 51
260.1614045100862
  0
ARC
  8
0
  6
CONTINUOUS
 62
     7
 10
146.783639551297
 20
143.1074721663705
 40
9.752563587268117
 50
141.3882044088596
 51
148.2486192692559
  0
ARC
  8
0
  6
CONTINUOUS
 62
     7
 10
145.5179191936035
 20
142.8838552713649
 40
8.667919193603518
 50
163.0719937020722
 51
170.161404510086
  0
ARC
  8
0
  6
CONTINUOUS
 62
     7
 10
161.2991219224307
 20
131.6369970291995
 40
0.5499922303711314
 50
15.49655220643641
 51
75.99019875412505
  0
ARC
  8
0
  6
CONTINUOUS
 62
     7
 10
166.4458163512116
 20
133.743556878381
 40
0.7526859759505524
 50
42.46495623276994
 51
110.5437815479686
  0
ARC
  8
0
  6
CONTINUOUS
 62
     7
 10
145.5179191936035
 20
142.8838552713649
 40
8.667919193603574
 50
189.8385954901466
 51
196.9280062979276
  0
ARC
  8
0
  6
CONTINUOUS
 62
     7
 10
156.0974019674275
 20
157.3826248523706
 40
27.55578439525054
 50
252.4794887612112
 51
253.0291881635212
  0
ARC
  8
0
  6
CONTINUOUS
 62
     7
 10
154.2889936346841
 20
151.4567924334973
 40
21.36015443902292
 50
253.0291881635214
 51
256.2135672372088
  0
ARC
  8
0
  6
CONTINUOUS
 62
     7
 10
155.0
 20
128.9299696763804
 40
26.78787367352039
 50
88.39561025741733
 51
90.00000000000011
  0
ARC
  8
0
  6
CONTINUOUS
 62
     7
 10
155.0000000000001
 20
128.929969676381
 40
26.78787367351973
 50
90.00000000000024
 51
91.60438974258322
  0
ARC
  8
0
  6
CONTINUOUS
 62
     7
 10
154.2889936346841
 20
134.3109181092322
 40
21.3601544390232
 50
103.7864327627913
 51
106.9708118364786
  0
ARC
  8
0
  6
CONTINUOUS
 62
     7
 10
156.0974019674272
 20
128.38508569036
 40
27.55578439524972
 50
106.9708118364787
 51
107.5205112387887
  0
ARC
  8
0
  6
CONTINUOUS
 62
     7
 10
150.8646634373186
 20
140.2659329065581
 40
14.57363961485515
 50
120.762372253965
 51
125.9639505072482
  0
ARC
  8
0
  6
CONTINUOUS
 62
     7
 10
155.0
 20
156.8377408663482
 40
26.78787367351909
 50
268.395610257417
 51
269.9999999999999
  0
ARC
  8
0
  6
CONTINUOUS
 62
     7
 10
154.9999999999999
 20
156.8377408663482
 40
26.78787367351909
 50
270.0000000000001
 51
271.6043897425829
  0
ARC
  8
0
  6
CONTINUOUS
 62
     7
 10
150.1450639399734
 20
131.2176506476007
 40
0.6032638732938296
 50
107.7135649359398
 51
162.0231549785096
  0
ARC
  8
0
  6
CONTINUOUS
 62
     7
 10
155.7110063653158
 20
151.4567924334976
 40
21.3601544390232
 50
283.7864327627914
 51
286.9708118364786
  0
ARC
  8
0
  6
CONTINUOUS
 62
     7
 10
153.9025980325727
 20
157.3826248523698
 40
27.55578439524972
 50
286.9708118364787
 51
287.5205112387886
  0
ARC
  8
0
  6
CONTINUOUS
 62
     7
 10
159.1353365626813
 20
145.5017776361717
 40
14.57363961485515
 50
300.762372253965
 51
305.9639505072483
  0
ARC
  8
0
  6
CONTINUOUS
 62
     7
 10
150.8646634373185
 20
145.5017776361716
 40
14.57363961485505
 50
234.0360494927519
 51
239.2376277460352
  0
ARC
  8
0
  6
CONTINUOUS
 62
     7
 10
146.7836395512966
 20
142.6602383763591
 40
9.752563587267645
 50
211.7513807307446
 51
218.6117955911413
  0
ARC
  8
0
  6
CONTINUOUS
 62
     7
 10
163.2163604487026
 20
143.1074721663703
 40
9.75256358726849
 50
31.75138073074445
 51
38.61179559114025
  0
ARC
  8
0
  6
CONTINUOUS
 62
     7
 10
153.9025980325725
 20
128.3850856903592
 40
27.55578439525054
 50
72.47948876121121
 51
73.0291881635212
  0
ARC
  8
0
  6
CONTINUOUS
 62
     7
 10
155.7110063653159
 20
134.3109181092325
 40
21.36015443902292
 50
73.02918816352131
 51
76.21356723720874
  0
ARC
  8
0
  6
CONTINUOUS
 62
     7
 10
165.3257218238766
 20
133.0371446525724
 40
0.7544438429375154
 50
42.00391811559791
 51
108.0968294370991
  0
ARC
  8
0
  6
CONTINUOUS
 62
     7
 10
148.7002757309359
 20
131.6374489944408
 40
0.5492910935158978
 50
103.940158033707
 51
164.5320908845897
  0
ARC
  8
0
  6
CONTINUOUS
 62
     7
 10
164.4820808063964
 20
142.8838552713649
 40
8.667919193603574
 50
343.0719937020726
 51
350.1614045098538
  0
ARC
  8
0
  6
CONTINUOUS
 62
     7
 10
144.6810794295844
 20
133.0120095360544
 40
0.7764463209932668
 50
72.9858387653045
 51
136.9535890282579
  0
ARC
  8
0
  6
CONTINUOUS
 62
     7
 10
156.6222666671714
 20
127.5373973448331
 40
0.6270986505428037
 50
104.7336530027258
 51
187.1172409940172
  0
ARC
  8
0
  6
CONTINUOUS
 62
     7
 10
164.4820808063964
 20
142.8838552713649
 40
8.667919193603574
 50
9.838595489914326
 51
16.92800629792816
  0
ARC
  8
0
  6
CONTINUOUS
 62
     7
 10
159.1353365626814
 20
140.2659329065582
 40
14.57363961485505
 50
54.03604949275191
 51
59.23762774603514
  0
ARC
  8
0
  6
CONTINUOUS
 62
     7
 10
159.8843444560061
 20
131.2470378171138
 40
0.5665358670522077
 50
16.06748107502301
 51
74.23491601075506
  0
ARC
  8
0
  6
CONTINUOUS
 62
     7
 10
169.4094672126076
 20
135.9988494086037
 40
1.043596227355764
 50
62.09894014712108
 51
132.9142111681211
  0
ARC
  8
0
  6
CONTINUOUS
 62
     7
 10
154.9999999999999
 20
145.0020326136923
 40
31.21562138815383
 50
265.4056973818841
 51
270.0000000000001
  0
ARC
  8
0
  6
CONTINUOUS
 62
     7
 10
155.0
 20
145.0020326136923
 40
31.21562138815383
 50
269.9999999999999
 51
271.8358396822838
  0
ARC
  8
0
  6
CONTINUOUS
 62
     7
 10
143.5603759813712
 20
133.7178743177728
 40
0.7747340135795755
 50
70.55968266765684
 51
136.4430190294055
  0
ARC
  8
0
  6
CONTINUOUS
 62
     7
 10
163.2163604487029
 20
142.6602383763593
 40
9.752563587268117
 50
321.3882044088596
 51
328.2486192692558
  0
ARC
  8
0
  6
CONTINUOUS
 62
     7
 10
168.4200383499147
 20
143.0094201809539
 40
1.158633008231623
 50
216.0720702343024
 51
222.3735501464847
  0
ARC
  8
0
  6
CONTINUOUS
 62
     7
 10
167.831942626856
 20
142.5810123652417
 40
0.4310412023108279
 50
180.0
 51
216.0720702343036
  0
ARC
  8
0
  6
CONTINUOUS
 62
     7
 10
138.6092305233412
 20
139.2625113484355
 40
1.253763324795368
 50
24.85750757742267
 51
104.583716044603
  0
ARC
  8
0
  6
CONTINUOUS
 62
     7
 10
156.1712225986805
 20
131.6430335346218
 40
15.44958535398639
 50
39.40025029137369
 51
42.89657321548582
  0
ARC
  8
0
  6
CONTINUOUS
 62
     7
 10
150.6010296970127
 20
135.729051349947
 40
10.24248473753847
 50
128.0863849950275
 51
128.3069537368043
  0
ARC
  8
0
  6
CONTINUOUS
 62
     7
 10
153.8287774013195
 20
131.6430335346216
 40
15.44958535398657
 50
128.3069537368043
 51
131.9107722246493
  0
ARC
  8
0
  6
CONTINUOUS
 62
     7
 10
142.675732222301
 20
144.0191941291883
 40
1.158633008231562
 50
310.6993668493189
 51
313.5363526398537
  0
ARC
  8
0
  6
CONTINUOUS
 62
     7
 10
142.9835172103566
 20
143.6613530701069
 40
0.6866353149777633
 50
282.3002164491257
 51
310.6993668493168
  0
ARC
  8
0
  6
CONTINUOUS
 62
     7
 10
142.7948691476704
 20
144.5265555075875
 40
1.572165297179157
 50
273.4624480401744
 51
282.3002164491277
  0
ARC
  8
0
  6
CONTINUOUS
 62
     7
 10
155.5601868332788
 20
130.826119072532
 40
16.82921258832237
 50
76.74251725392392
 51
82.47288234663101
  0
ARC
  8
0
  6
CONTINUOUS
 62
     7
 10
155.0
 20
126.5865839436169
 40
21.10559743974577
 50
82.47288234663182
 51
87.9634749208498
  0
ARC
  8
0
  6
CONTINUOUS
 62
     7
 10
158.8143336047887
 20
148.1624187910559
 40
1.572165297179157
 50
257.6997835508724
 51
262.1874927017716
  0
ARC
  8
0
  6
CONTINUOUS
 62
     7
 10
158.6256855421024
 20
147.2972163535754
 40
0.6866353149777633
 50
229.3006331506832
 51
257.6997835508743
  0
ARC
  8
0
  6
CONTINUOUS
 62
     7
 10
158.9334705301586
 20
147.6550574126573
 40
1.158633008232351
 50
216.0720702343101
 51
229.3006331506822
  0
ARC
  8
0
  6
CONTINUOUS
 62
     7
 10
158.3453748070997
 20
147.2266495969446
 40
0.4310412023109667
 50
180.0
 51
216.0720702342906
  0
ARC
  8
0
  6
CONTINUOUS
 62
     7
 10
153.8981261078198
 20
133.3250745037618
 40
14.53480727381537
 50
128.3124013294523
 51
140.4621340978933
  0
ARC
  8
0
  6
CONTINUOUS
 62
     7
 10
171.7043868825136
 20
143.7844474402704
 40
1.507385141553879
 50
89.92120233967347
 51
169.2708959072638
  0
ARC
  8
0
  6
CONTINUOUS
 62
     7
 10
155.5954433472618
 20
128.9868011881417
 40
17.88839380017334
 50
76.59474424227813
 51
80.32035732874365
  0
ARC
  8
0
  6
CONTINUOUS
 62
     7
 10
155.0
 20
126.5865839436191
 40
21.1055974397436
 50
92.03652507915056
 51
97.5271176533691
  0
ARC
  8
0
  6
CONTINUOUS
 62
     7
 10
154.4398131667212
 20
130.826119072532
 40
16.82921258832237
 50
97.52711765336902
 51
103.257482746076
  0
ARC
  8
0
  6
CONTINUOUS
 62
     7
 10
155.0
 20
124.4804421699958
 40
22.43392175413249
 50
91.91588881124525
 51
94.9366014224338
  0
ARC
  8
0
  6
CONTINUOUS
 62
     7
 10
170.5425740343363
 20
146.9149814029192
 40
2.036362421510178
 50
108.4588441953517
 51
166.1423202975651
  0
ARC
  8
0
  6
CONTINUOUS
 62
     7
 10
171.5998652861165
 20
140.3854482469642
 40
1.188094185271344
 50
73.3083070667513
 51
162.514433337557
  0
ARC
  8
0
  6
CONTINUOUS
 62
     7
 10
140.5933187296914
 20
136.0201244721546
 40
1.026173048257046
 50
46.38224760675256
 51
118.5944107816808
  0
ARC
  8
0
  6
CONTINUOUS
 62
     7
 10
171.97264698481
 20
142.6962144684682
 40
1.548336179920897
 50
91.16703744947361
 51
168.0250607979161
  0
ARC
  8
0
  6
CONTINUOUS
 62
     7
 10
156.198191540113
 20
132.953091994347
 40
15.80533238514475
 50
34.87586367804533
 51
35.15182395973136
  0
ARC
  8
0
  6
CONTINUOUS
 62
     7
 10
162.8374619003875
 20
137.580554412471
 40
7.712538099610866
 50
16.88487458363818
 51
34.87586367804555
  0
ARC
  8
0
  6
CONTINUOUS
 62
     7
 10
159.3989703029875
 20
135.7290513499474
 40
10.242484737538
 50
59.32432118018622
 51
65.3517307740271
  0
ARC
  8
0
  6
CONTINUOUS
 62
     7
 10
156.8598491842786
 20
120.9412443203807
 40
26.30025725174076
 50
107.7080822059129
 51
110.1615349070096
  0
ARC
  8
0
  6
CONTINUOUS
 62
     7
 10
138.9133488481666
 20
146.034248139526
 40
1.93096804126642
 50
9.011930372861457
 51
72.85593113123184
  0
ARC
  8
0
  6
CONTINUOUS
 62
     7
 10
68.44357283890389
 20
230.3345714149605
 40
0.7257640596634772
 50
340.4514180936802
 51
49.48804057587733
  0
ARC
  8
0
  6
CONTINUOUS
 62
     7
 10
138.2813822482786
 20
143.7672428590737
 40
1.524636772486101
 50
11.26479598174318
 51
89.54310577131808
  0
ARC
  8
0
  6
CONTINUOUS
 62
     7
 10
163.9778010956098
 20
145.5960264174975
 40
0.6866353149777633
 50
229.3006331506832
 51
241.3969803246145
  0
ARC
  8
0
  6
CONTINUOUS
 62
     7
 10
164.285586083666
 20
145.9538674765795
 40
1.158633008232351
 50
216.0720702343101
 51
229.3006331506822
  0
ARC
  8
0
  6
CONTINUOUS
 62
     7
 10
163.6974903606071
 20
145.5254596608668
 40
0.4310412023109667
 50
180.0
 51
216.0720702342906
  0
ARC
  8
0
  6
CONTINUOUS
 62
     7
 10
138.042100607548
 20
142.714043748358
 40
1.530277809689349
 50
11.43647118680468
 51
89.37143056580527
  0
ARC
  8
0
  6
CONTINUOUS
 62
     7
 10
171.4113064100469
 20
139.2190301188252
 40
1.291040548309167
 50
76.78434991211408
 51
153.7753330818716
  0
ARC
  8
0
  6
CONTINUOUS
 62
     7
 10
69.17806796656184
 20
208.5394282280713
 40
0.7011862780968153
 50
309.5717262369143
 51
23.43700180044567
  0
ARC
  8
0
  6
CONTINUOUS
 62
     7
 10
153.8018084598874
 20
132.9530919943466
 40
15.80533238514534
 50
144.848176040268
 51
145.1241363219541
  0
ARC
  8
0
  6
CONTINUOUS
 62
     7
 10
147.1625380996124
 20
137.580554412471
 40
7.712538099610866
 50
145.1241363219544
 51
163.1151254163618
  0
ARC
  8
0
  6
CONTINUOUS
 62
     7
 10
170.0276369424947
 20
137.0288653247661
 40
0.9892085796012157
 50
60.31997557211742
 51
139.1209557836299
  0
ARC
  8
0
  6
CONTINUOUS
 62
     7
 10
138.3512224017243
 20
140.293139668052
 40
1.264594468167997
 50
20.80709407969905
 51
103.365859653522
  0
ARC
  8
0
  6
CONTINUOUS
 62
     7
 10
167.1645932321487
 20
144.5407140954165
 40
1.077950118929067
 50
305.2124776751666
 51
350.7370913927521
  0
ARC
  8
0
  6
CONTINUOUS
 62
     7
 10
156.7497265352105
 20
123.2569438614129
 40
24.74300517762777
 50
107.8067129608261
 51
112.940117188498
  0
ARC
  8
0
  6
CONTINUOUS
 62
     7
 10
150.8614950439
 20
137.1691570537056
 40
9.636021825447095
 50
112.940117188498
 51
120.4379570378293
  0
ARC
  8
0
  6
CONTINUOUS
 62
     7
 10
139.9740614791825
 20
137.0388192458236
 40
0.981422450730096
 50
40.50107026297547
 51
120.053914509712
  0
ARC
  8
0
  6
CONTINUOUS
 62
     7
 10
142.8461139458008
 20
144.5474112366338
 40
1.08960663790691
 50
189.519851878038
 51
234.530579054043
  0
ARC
  8
0
  6
CONTINUOUS
 62
     7
 10
159.1385049560997
 20
137.1691570537052
 40
9.63602182544757
 50
59.56204296217039
 51
67.05988281150132
  0
ARC
  8
0
  6
CONTINUOUS
 62
     7
 10
153.2502734647901
 20
123.2569438614146
 40
24.74300517762598
 50
67.05988281150177
 51
72.19328703917405
  0
ARC
  8
0
  6
CONTINUOUS
 62
     7
 10
156.10187389218
 20
133.3250745037617
 40
14.53480727381558
 50
39.53786590210679
 51
51.68759867054749
  0
ARC
  8
0
  6
CONTINUOUS
 62
     7
 10
143.5765508232013
 20
150.0340674494697
 40
0.9433689216911169
 50
8.904574209822895
 51
50.62262942186504
  0
ARC
  8
0
  6
CONTINUOUS
 62
     7
 10
147.5569512002275
 20
146.2610585183852
 40
0.6866353149778205
 50
282.300216449127
 51
290.6652327662134
  0
ARC
  8
0
  6
CONTINUOUS
 62
     7
 10
147.3683031375412
 20
147.1262609558657
 40
1.572165297179212
 50
270.0
 51
282.3002164491272
  0
ARC
  8
0
  6
CONTINUOUS
 62
     7
 10
147.3683031375412
 20
147.1262609558657
 40
1.572165297179212
 50
257.6997835508728
 51
270.0
  0
ARC
  8
0
  6
CONTINUOUS
 62
     7
 10
147.179655074855
 20
146.2610585183852
 40
0.6866353149778988
 50
248.0319782363372
 51
257.6997835508694
  0
ARC
  8
0
  6
CONTINUOUS
 62
     7
 10
152.9555252288264
 20
148.3943667475834
 40
1.572165297179212
 50
270.0
 51
274.1713828393379
  0
ARC
  8
0
  6
CONTINUOUS
 62
     7
 10
152.9555252288264
 20
148.3943667475834
 40
1.572165297179212
 50
257.6997835508728
 51
270.0
  0
ARC
  8
0
  6
CONTINUOUS
 62
     7
 10
152.7668771661401
 20
147.5291643101028
 40
0.6866353149777814
 50
229.3006331506815
 51
257.6997835508719
  0
ARC
  8
0
  6
CONTINUOUS
 62
     7
 10
153.0746621541962
 20
147.8870053691846
 40
1.158633008232134
 50
220.3630251442444
 51
229.300633150682
  0
ARC
  8
0
  6
CONTINUOUS
 62
     7
 10
166.4174071074552
 20
150.0375226797875
 40
0.9368681198127894
 50
129.2258033368286
 51
171.2469930314762
  0
ENDSEC
  0
EOF
