  0
SECTION
  2
HEADER
  9
$ACADVER
  1
AC1004
  9
$INSBASE
 10
0.0
 20
0.0
  9
$EXTMIN
 10
-395.0
 20
-65.0
  9
$EXTMAX
 10
3.286363636363636
 20
109.2975972195
  9
$LIMMIN
 10
0.0
 20
0.0
  9
$LIMMAX
 10
12.0
 20
9.0
  9
$ORTHOMODE
 70
     0
  9
$REGENMODE
 70
     1
  9
$FILLMODE
 70
     1
  9
$QTEXTMODE
 70
     0
  9
$DRAGMODE
 70
     2
  9
$LTSCALE
 40
1.0
  9
$OSMODE
 70
    37
  9
$ATTMODE
 70
     1
  9
$TEXTSIZE
 40
0.2
  9
$TRACEWID
 40
0.05
  9
$TEXTSTYLE
  7
STANDARD
  9
$CLAYER
  8
0
  9
$CELTYPE
  6
BYLAYER
  9
$CECOLOR
 62
   256
  9
$DIMSCALE
 40
1.0
  9
$DIMASZ
 40
2.5
  9
$DIMEXO
 40
0.0625
  9
$DIMDLI
 40
0.38
  9
$DIMRND
 40
0.0
  9
$DIMDLE
 40
0.0
  9
$DIMEXE
 40
1.25
  9
$DIMTP
 40
0.0
  9
$DIMTM
 40
0.0
  9
$DIMTXT
 40
4.0
  9
$DIMCEN
 40
0.09
  9
$DIMTSZ
 40
0.0
  9
$DIMTOL
 70
     0
  9
$DIMLIM
 70
     0
  9
$DIMTIH
 70
     1
  9
$DIMTOH
 70
     1
  9
$DIMSE1
 70
     0
  9
$DIMSE2
 70
     0
  9
$DIMTAD
 70
     1
  9
$DIMZIN
 70
     0
  9
$DIMBLK
  1

  9
$DIMASO
 70
     1
  9
$DIMSHO
 70
     1
  9
$DIMPOST
  1

  9
$DIMAPOST
  1

  9
$DIMALT
 70
     0
  9
$DIMALTD
 70
     2
  9
$DIMALTF
 40
25.4
  9
$DIMLFAC
 40
1.0
  9
$DIMTOFL
 70
     0
  9
$DIMTVP
 40
0.0
  9
$DIMTIX
 70
     0
  9
$DIMSOXD
 70
     0
  9
$DIMSAH
 70
     0
  9
$DIMBLK1
  1

  9
$DIMBLK2
  1

  9
$LUNITS
 70
     2
  9
$LUPREC
 70
     4
  9
$SKETCHINC
 40
0.1
  9
$FILLETRAD
 40
0.5
  9
$AUNITS
 70
     0
  9
$AUPREC
 70
     0
  9
$MENU
  1
.
  9
$ELEVATION
 40
0.0
  9
$THICKNESS
 40
0.0
  9
$LIMCHECK
 70
     0
  9
$CHAMFERA
 40
0.0
  9
$CHAMFERB
 40
0.0
  9
$SKPOLY
 70
     0
  9
$TDCREATE
 40
2459048.484072407
  9
$TDUPDATE
 40
2459048.484072766
  9
$TDINDWG
 40
0.0000000116
  9
$TDUSRTIMER
 40
0.0000000116
  9
$USRTIMER
 70
     1
  9
$ANGBASE
 50
0.0
  9
$ANGDIR
 70
     0
  9
$PDMODE
 70
     0
  9
$PDSIZE
 40
0.0
  9
$PLINEWID
 40
0.0
  9
$COORDS
 70
     1
  9
$SPLFRAME
 70
     0
  9
$SPLINETYPE
 70
     6
  9
$SPLINESEGS
 70
     8
  9
$ATTDIA
 70
     0
  9
$ATTREQ
 70
     1
  9
$SURFTAB1
 70
     6
  9
$SURFTAB2
 70
     6
  9
$SURFTYPE
 70
     6
  9
$SURFU
 70
     6
  9
$SURFV
 70
     6
  9
$UCSNAME
  2

  9
$UCSORG
 10
0.0
 20
0.0
 30
0.0
  9
$UCSXDIR
 10
1.0
 20
0.0
 30
0.0
  9
$UCSYDIR
 10
0.0
 20
1.0
 30
0.0
  9
$USERI1
 70
     0
  9
$USERI2
 70
     0
  9
$USERI3
 70
     0
  9
$USERI4
 70
     0
  9
$USERI5
 70
     0
  9
$USERR1
 40
0.0
  9
$USERR2
 40
0.0
  9
$USERR3
 40
0.0
  9
$USERR4
 40
0.0
  9
$USERR5
 40
0.0
  9
$WORLDVIEW
 70
     1
  0
ENDSEC
  0
SECTION
  2
TABLES
  0
TABLE
  2
LTYPE
 70
     2
  0
LTYPE
  2
CONTINUOUS
 70
     0
  3
Solid line
 72
    65
 73
     0
 40
0.0
  0
LTYPE
  2
CENTER
 70
     0
  3

 72
    65
 73
     0
 40
0.0
  0
ENDTAB
  0
TABLE
  2
LAYER
 70
     2
  0
LAYER
  2
0
 70
     0
 62
     7
  6
CONTINUOUS
  0
LAYER
  2
1
 70
     0
 62
     7
  6
CONTINUOUS
  0
ENDTAB
  0
TABLE
  2
STYLE
 70
     2
  0
STYLE
  2
STANDARD
 70
     0
 40
0.0
 41
1.0
 50
0.0
 71
     0
 42
0.2
  3
txt
  4

  0
STYLE
  2
ＭＳ_ゴシック
 70
     0
 40
0.0
 41
1.0
 50
0.0
 71
     0
 42
0.2
  3
ＭＳ ゴシック.shx
  4

  0
ENDTAB
  0
TABLE
  2
VIEW
 70
     0
  0
ENDTAB
  0
ENDSEC
  0
SECTION
  2
BLOCKS
  0
ENDSEC
  0
SECTION
  2
ENTITIES
  0
LINE
  8
1
  6
CONTINUOUS
 62
     7
 10
-276.1321745114
 20
64.6187221791
 11
-274.255600943
 21
63.28360733460001
  0
LINE
  8
1
  6
CONTINUOUS
 62
     7
 10
-155.8101820197
 20
73.8803906825
 11
-155.8054564712
 21
73.8809903052
  0
LINE
  8
1
  6
CONTINUOUS
 62
     7
 10
-169.276230565
 20
99.933032643
 11
-169.8272588761
 21
103.058069486
  0
LINE
  8
1
  6
CONTINUOUS
 62
     7
 10
-139.87068659
 20
79.7882079092
 11
-140.2949458955
 21
80.2124672147
  0
LINE
  8
1
  6
CONTINUOUS
 62
     7
 10
-158.7907438418
 20
61.71668101
 11
-158.3664786655
 21
61.2924158337
  0
LINE
  8
1
  6
CONTINUOUS
 62
     7
 10
-262.702339048
 20
61.4361071415
 11
-262.7058435427
 21
61.3973666524
  0
LINE
  8
1
  6
CONTINUOUS
 62
     7
 10
-266.8346248093
 20
60.8186686823
 11
-265.0
 21
60.7377157774
  0
LINE
  8
1
  6
CONTINUOUS
 62
     7
 10
-259.2670134163
 20
61.5565499099
 11
-259.2458058536
 21
61.5628724433
  0
LINE
  8
1
  6
CONTINUOUS
 62
     7
 10
-144.8906882512
 20
86.8369351898
 11
-144.6826819171
 21
86.7258107569
  0
LINE
  8
1
  6
CONTINUOUS
 62
     7
 10
-139.2781311074
 20
77.5523362671
 11
-139.9852378886
 21
78.2594430482
  0
LINE
  8
1
  6
CONTINUOUS
 62
     7
 10
-151.8485560633
 20
70.0249252232
 11
-151.852382811
 21
70.0247036279
  0
LINE
  8
1
  6
CONTINUOUS
 62
     7
 10
-253.1135138564
 20
64.9475527967
 11
-253.0911503947
 21
64.9689193178
  0
LINE
  8
1
  6
CONTINUOUS
 62
     7
 10
-255.7435801281
 20
63.28409176620001
 11
-253.8654029195
 21
64.6207943448
  0
LINE
  8
1
  6
CONTINUOUS
 62
     7
 10
-139.9852378885
 20
78.2594430482
 11
-139.87068659
 21
79.7882079092
  0
LINE
  8
1
  6
CONTINUOUS
 62
     7
 10
-274.3014816608
 20
63.93808299260001
 11
-274.2736288063
 21
63.4059178511
  0
LINE
  8
1
  6
CONTINUOUS
 62
     7
 10
-144.6823165132
 20
86.7261335849
 11
-144.8865651119
 21
86.8227765082
  0
LINE
  8
1
  6
CONTINUOUS
 62
     7
 10
-156.8377138046
 20
61.4069671322
 11
-156.1306070234
 21
60.699860351
  0
LINE
  8
1
  6
CONTINUOUS
 62
     7
 10
-255.7254788984
 20
63.4229113937
 11
-255.6985161886
 21
63.9380836965
  0
LINE
  8
1
  6
CONTINUOUS
 62
     7
 10
-165.3043145544
 20
66.1047252042
 11
-165.415610113
 21
66.3125408859
  0
LINE
  8
1
  6
CONTINUOUS
 62
     7
 10
-267.3195805954
 20
62.5660033872
 11
-267.297150874
 21
61.411554419
  0
LINE
  8
1
  6
CONTINUOUS
 62
     7
 10
-276.9085357493
 20
64.9687190544
 11
-276.8863304306
 21
64.9475094361
  0
LINE
  8
1
  6
CONTINUOUS
 62
     7
 10
-265.0
 20
60.7377157774
 11
-263.1653751907
 21
60.8186686823
  0
LINE
  8
1
  6
CONTINUOUS
 62
     7
 10
-259.8024772428
 20
62.0438305733
 11
-259.7483464095
 21
61.7261081402
  0
LINE
  8
1
  6
CONTINUOUS
 62
     7
 10
-171.3044705056
 20
104.2975972195
 11
-174.5458210588
 21
104.2975972195
  0
TEXT
  8
1
  6
CONTINUOUS
 62
     7
 10
-232.4908678905527
 20
50.18391391671877
 40
3.5
  1
FNVK-22F
 41
1.209598
  0
ARC
  8
1
  6
CONTINUOUS
 62
     7
 10
-262.8538347963
 20
87.6958419978
 40
23.4572155408
 50
289.1437238919
 51
304.8679458047001
  0
ARC
  8
1
  6
CONTINUOUS
 62
     7
 10
-273.9415250084
 20
67.1910182936
 40
1.8826978178
 50
241.5405660814
 51
260.871594318
  0
ARC
  8
1
  6
CONTINUOUS
 62
     7
 10
-267.1461652037
 20
86.2816284354
 40
23.4572155408
 50
235.1320541953
 51
250.8562761081
  0
CIRCLE
  8
1
  6
CONTINUOUS
 62
     7
 10
-265.0
 20
85.2975972195
 40
15.75
  0
LINE
  8
1
  6
CENTER
 62
     5
 10
-265.0
 20
57.699860351
 11
-265.0
 21
109.2975972195
  0
ARC
  8
1
  6
CONTINUOUS
 62
     7
 10
-266.7668259021
 20
61.5052284278
 40
0.7091661319
 50
260.449196483
 51
266.9051586724
  0
ARC
  8
1
  6
CONTINUOUS
 62
     7
 10
-265.0194753868
 20
77.1489161228
 40
16.4490274411
 50
263.7679285301
 51
269.9480383188
  0
ARC
  8
1
  6
CONTINUOUS
 62
     7
 10
-265.1422304985
 20
79.9577717015
 40
21.8765505913
 50
172.7977109909
 51
177.6256776647
  0
CIRCLE
  8
1
  6
CONTINUOUS
 62
     7
 10
-265.0
 20
85.2975972195
 40
18.8261143472
  0
ARC
  8
1
  6
CONTINUOUS
 62
     7
 10
-140.3159865337
 20
81.6056496653
 40
1.0
 50
315.0
 51
42.13756952739999
  0
ARC
  8
1
  6
CONTINUOUS
 62
     7
 10
-171.3044705056
 20
102.7975972195
 40
1.5
 50
10.0
 51
90.0
  0
LINE
  8
1
  6
CENTER
 62
     5
 10
-163.8758679758
 20
85.2975972195
 11
-212.0458210588
 21
85.2975972195
  0
ARC
  8
1
  6
CONTINUOUS
 62
     7
 10
-259.2041462101
 20
82.5206057106
 40
17.1246381231
 50
304.747992923
 51
324.156381454
  0
ARC
  8
1
  6
CONTINUOUS
 62
     7
 10
-259.2041462101
 20
81.1063921482
 40
17.1246381231
 50
304.747992923
 51
324.156381454
  0
ARC
  8
1
  6
CONTINUOUS
 62
     7
 10
-156.8149142476
 20
72.9250738976
 40
1.5137514421
 50
173.4706051872
 51
226.1879667368
  0
ARC
  8
1
  6
CONTINUOUS
 62
     7
 10
-147.3662161605
 20
82.5176523688
 40
1.7879851672
 50
40.7301428722
 51
82.0758484123
  0
ARC
  8
1
  6
CONTINUOUS
 62
     7
 10
-167.3066150589
 20
100.2803289983
 40
2.0
 50
190.0
 51
267.8933594359
  0
ARC
  8
1
  6
CONTINUOUS
 62
     7
 10
-156.9828414067
 20
72.9352911155
 40
1.3456354724
 50
134.7472943746
 51
173.0889720482
  0
ARC
  8
1
  6
CONTINUOUS
 62
     7
 10
-156.9979327335
 20
72.9417904805
 40
1.3295503769
 50
134.2584242849
 51
173.2904161924
  0
ARC
  8
1
  6
CONTINUOUS
 62
     7
 10
-264.3828821378
 20
66.0482414706
 40
5.3838661813
 50
263.4180874434
 51
282.74911568
  0
CIRCLE
  8
1
  6
CONTINUOUS
 62
     7
 10
-265.0
 20
85.2975972195
 40
10.55
  0
ARC
  8
1
  6
CONTINUOUS
 62
     7
 10
-264.1032132986
 20
90.8305045083
 40
26.8286800291
 50
288.1188409475001
 51
289.4689986531
  0
ARC
  8
1
  6
CONTINUOUS
 62
     7
 10
-274.9837562571
 20
78.1810668045
 40
12.0171236805
 50
180.6933714549
 51
216.2298581909
  0
ARC
  8
1
  6
CONTINUOUS
 62
     7
 10
-174.5458210588
 20
104.7975972195
 40
0.5
 50
180.0
 51
270.0
  0
ARC
  8
1
  6
CONTINUOUS
 62
     7
 10
-264.902127905
 20
92.1845063811
 40
29.7053730485
 50
269.8112237771
 51
289.1422520137
  0
ARC
  8
1
  6
CONTINUOUS
 62
     7
 10
-245.9422710127
 20
81.5422625929
 40
3.019420924
 50
347.0200623042
 51
22.55654904020003
  0
ARC
  8
1
  6
CONTINUOUS
 62
     7
 10
-168.2458210588
 20
74.7475972195
 40
23.55
 50
54.4558471048
 51
87.89330135640002
  0
ARC
  8
1
  6
CONTINUOUS
 62
     7
 10
-264.1076579159
 20
78.0234620131
 40
17.1635839631
 50
286.4552000615
 51
297.9466419515999
  0
ARC
  8
1
  6
CONTINUOUS
 62
     7
 10
-151.3626405902
 20
78.2967973834
 40
1.5289535107
 50
136.3200859089
 51
224.225383481
  0
ARC
  8
1
  6
CONTINUOUS
 62
     7
 10
-161.09334418
 20
68.7897353309
 40
1.7910244755
 50
187.9512977566
 51
229.2446916553
  0
ARC
  8
1
  6
CONTINUOUS
 62
     7
 10
-156.875060111
 20
72.7858868627
 40
1.5278611678
 50
45.7351527884
 51
133.7215992151
  0
ARC
  8
1
  6
CONTINUOUS
 62
     7
 10
-162.0800397234
 20
67.5720680588
 40
1.792021104
 50
45.50935332669999
 51
93.89253278770003
  0
ARC
  8
1
  6
CONTINUOUS
 62
     7
 10
-150.7040953
 20
71.1960430102
 40
1.6374758745
 50
225.6595750704
 51
241.7232779427
  0
ARC
  8
1
  6
CONTINUOUS
 62
     7
 10
-255.0162437429
 20
79.5952803669
 40
12.0171236805
 50
323.7701418091
 51
359.3066285451
  0
ARC
  8
1
  6
CONTINUOUS
 62
     7
 10
-270.7958537899
 20
82.5206057106
 40
17.1246381231
 50
215.843618546
 51
235.252007077
  0
ARC
  8
1
  6
CONTINUOUS
 62
     7
 10
-262.8538347963
 20
86.2816284354
 40
23.4572155408
 50
289.1437238919
 51
304.8679458047001
  0
ARC
  8
1
  6
CONTINUOUS
 62
     7
 10
-263.250477625
 20
69.277732339
 40
8.4808047867
 50
270.3764427976
 51
294.9668732933
  0
ARC
  8
1
  6
CONTINUOUS
 62
     7
 10
-270.7958537899
 20
81.1063921482
 40
17.1246381231
 50
215.843618546
 51
235.252007077
  0
ARC
  8
1
  6
CONTINUOUS
 62
     7
 10
-255.0162437429
 20
78.1810668045
 40
12.0171236805
 50
323.7701418091
 51
359.3066285451
  0
ARC
  8
1
  6
CONTINUOUS
 62
     7
 10
-259.7549905219
 20
61.9913721692
 40
0.4106573278
 50
281.8332881398999
 51
297.5575100528
  0
ARC
  8
1
  6
CONTINUOUS
 62
     7
 10
-176.5458210588
 20
105.7975972195
 40
1.5
 50
0.0
 51
90.0
  0
ARC
  8
1
  6
CONTINUOUS
 62
     7
 10
-265.097872095
 20
92.1845063811
 40
29.7053730485
 50
250.8577479863
 51
270.1887762229
  0
ARC
  8
1
  6
CONTINUOUS
 62
     7
 10
-153.973876715
 20
94.7229346296
 40
1.0
 50
234.4550178092
 51
310.0
  0
ARC
  8
1
  6
CONTINUOUS
 62
     7
 10
-265.8407606476
 20
78.14891368
 40
17.298477421
 50
241.9946960162
 51
253.4455759313
  0
LINE
  8
1
  6
CENTER
 62
     5
 10
-289.0
 20
85.2975972195
 11
-241.0
 21
85.2975972195
  0
CIRCLE
  8
1
  6
CONTINUOUS
 62
     7
 10
-265.0
 20
85.2975972195
 40
22.0
  0
CIRCLE
  8
1
  6
CONTINUOUS
 62
     7
 10
-265.0
 20
85.2975972195
 40
14.75
  0
ARC
  8
1
  6
CONTINUOUS
 62
     7
 10
-274.9837562571
 20
79.5952803669
 40
12.0171236805
 50
180.6933714549
 51
216.2298581909
  0
ARC
  8
1
  6
CONTINUOUS
 62
     7
 10
-151.5037904951
 20
78.2360471551
 40
1.5144860145
 50
43.81662607059999
 51
96.1850356789
  0
ARC
  8
1
  6
CONTINUOUS
 62
     7
 10
-176.5458210588
 20
64.7975972195
 40
1.5
 50
270.0
 51
0.0
  0
ARC
  8
1
  6
CONTINUOUS
 62
     7
 10
-266.3065431854
 20
71.3105595561
 40
10.5205542904
 50
247.5198298501
 51
266.8508580867
  0
ARC
  8
1
  6
CONTINUOUS
 62
     7
 10
-151.5121214454
 20
78.4015818856
 40
1.3487648242
 50
96.59692852940002
 51
135.2220296962
  0
ARC
  8
1
  6
CONTINUOUS
 62
     7
 10
-151.5182876998
 20
78.4221770349
 40
1.3276866795
 50
96.42804394389997
 51
135.8742109446
  0
ARC
  8
1
  6
CONTINUOUS
 62
     7
 10
-146.2094610077
 20
83.4692441199
 40
1.7271484446
 50
170.4646767638
 51
225.0954239168
  0
LINE
  8
1
  6
CENTER
 62
     5
 10
-163.8758679758
 20
85.2975972195
 11
-145.5830487218
 21
67.0047779655
  0
ARC
  8
1
  6
CONTINUOUS
 62
     7
 10
-267.1461652037
 20
87.6958419978
 40
23.4572155408
 50
235.1320541953
 51
250.8562761081
  0
ARC
  8
1
  6
CONTINUOUS
 62
     7
 10
-141.6972640286
 20
87.9091522479
 40
3.3594480164
 50
196.5658436931
 51
224.2884934762
  0
LINE
  8
1
  6
CONTINUOUS
 62
     7
 10
-157.8065099248
 20
63.19218418900001
 11
-157.8189293422
 21
63.20819348330001
  0
LINE
  8
1
  6
CONTINUOUS
 62
     7
 10
-141.8036836446
 20
79.2534546343
 11
-141.7871771195
 21
79.2412134141
  0
LINE
  8
1
  6
CONTINUOUS
 62
     7
 10
-141.6867568508
 20
79.1514166695
 11
-141.6773754568
 21
79.1410140741
  0
LINE
  8
1
  6
CONTINUOUS
 62
     7
 10
-157.7782023457
 20
63.15832771929999
 11
-157.7927438992
 21
63.1752658708
  0
LINE
  8
1
  6
CONTINUOUS
 62
     7
 10
-157.5928307445
 20
63.02020741060001
 11
-157.6061951411
 21
63.0254357383
  0
LINE
  8
1
  6
CONTINUOUS
 62
     7
 10
-141.6358459305
 20
79.0871145703
 11
-141.6260004495
 21
79.0715332272
  0
LINE
  8
1
  6
CONTINUOUS
 62
     7
 10
-157.7250427216
 20
63.1042767353
 11
-157.7380719266
 21
63.11640932980001
  0
LINE
  8
1
  6
CONTINUOUS
 62
     7
 10
-141.6773754568
 20
79.1410140741
 11
-141.6682498354
 21
79.1303820814
  0
LINE
  8
1
  6
CONTINUOUS
 62
     7
 10
-141.6260004495
 20
79.0715332272
 11
-141.6173869681
 21
79.0564432247
  0
LINE
  8
1
  6
CONTINUOUS
 62
     7
 10
-141.834739941
 20
79.2752611212
 11
-141.8198052747
 21
79.264953973
  0
LINE
  8
1
  6
CONTINUOUS
 62
     7
 10
-141.5942193755
 20
79.0018529495
 11
-141.5909747159
 21
78.9898155475
  0
LINE
  8
1
  6
CONTINUOUS
 62
     7
 10
-157.852090956
 20
63.2543627713
 11
-157.8622976427
 21
63.26950453969999
  0
LINE
  8
1
  6
CONTINUOUS
 62
     7
 10
-141.706137256
 20
79.1714855286
 11
-141.6963563521
 21
79.1615773242
  0
LINE
  8
1
  6
CONTINUOUS
 62
     7
 10
-141.7380621649
 20
79.201244589
 11
-141.7219840442
 21
79.1867077701
  0
LINE
  8
1
  6
CONTINUOUS
 62
     7
 10
-141.6963563521
 20
79.1615773242
 11
-141.6867568508
 21
79.1514166695
  0
LINE
  8
1
  6
CONTINUOUS
 62
     7
 10
-141.6594185297
 20
79.1195353787
 11
-141.6469706493
 21
79.1031347172
  0
LINE
  8
1
  6
CONTINUOUS
 62
     7
 10
-157.6201754196
 20
63.0317401703
 11
-157.6322702381
 21
63.03785515609999
  0
LINE
  8
1
  6
CONTINUOUS
 62
     7
 10
-157.5314756134
 20
63.00815114160001
 11
-157.5435298733
 21
63.0086776708
  0
LINE
  8
1
  6
CONTINUOUS
 62
     7
 10
-157.7506943964
 20
63.1288454808
 11
-157.7628922863
 21
63.1415114786
  0
LINE
  8
1
  6
CONTINUOUS
 62
     7
 10
-141.7542412087
 20
79.2150811003
 11
-141.7380621649
 21
79.201244589
  0
LINE
  8
1
  6
CONTINUOUS
 62
     7
 10
-157.4999744928
 20
63.01356294630001
 11
-157.5022043668
 21
63.012726573
  0
LINE
  8
1
  6
CONTINUOUS
 62
     7
 10
-157.7116297264
 20
63.09252409210001
 11
-157.7250427216
 21
63.1042767353
  0
LINE
  8
1
  6
CONTINUOUS
 62
     7
 10
-141.7219840442
 20
79.1867077701
 11
-141.706137256
 21
79.1714855286
  0
LINE
  8
1
  6
CONTINUOUS
 62
     7
 10
-157.5680683353
 20
63.01275468850001
 11
-157.5801131556
 21
63.0159993601
  0
LINE
  8
1
  6
CONTINUOUS
 62
     7
 10
-141.6469706493
 20
79.1031347172
 11
-141.6358459305
 21
79.0871145703
  0
LINE
  8
1
  6
CONTINUOUS
 62
     7
 10
-141.6099554287
 20
79.0418914575
 11
-141.6036534279
 21
79.0279193162
  0
LINE
  8
1
  6
CONTINUOUS
 62
     7
 10
-141.8629529198
 20
79.2940202411
 11
-141.84914744
 21
79.2849402876
  0
LINE
  8
1
  6
CONTINUOUS
 62
     7
 10
-141.6036534279
 20
79.0279193162
 11
-141.5984266665
 21
79.01456285
  0
LINE
  8
1
  6
CONTINUOUS
 62
     7
 10
-141.8760885285
 20
79.3025321399
 11
-141.8629529198
 21
79.2940202411
  0
LINE
  8
1
  6
CONTINUOUS
 62
     7
 10
-141.588635153
 20
78.9784718347
 11
-141.5868953037
 21
78.9652926874
  0
LINE
  8
1
  6
CONTINUOUS
 62
     7
 10
-141.5868953037
 20
78.9652926874
 11
-141.5863661927
 21
78.9532464059
  0
LINE
  8
1
  6
CONTINUOUS
 62
     7
 10
-141.5863661927
 20
78.9532464059
 11
-141.5869356033
 21
78.9423465229
  0
LINE
  8
1
  6
CONTINUOUS
 62
     7
 10
-141.5869356033
 20
78.9423465229
 11
-141.588492922
 21
78.9325976264
  0
LINE
  8
1
  6
CONTINUOUS
 62
     7
 10
-141.588492922
 20
78.9325976264
 11
-141.5909298293
 21
78.9239961226
  0
LINE
  8
1
  6
CONTINUOUS
 62
     7
 10
-157.5567174959
 20
63.0104158011
 11
-157.5680683353
 21
63.01275468850001
  0
LINE
  8
1
  6
CONTINUOUS
 62
     7
 10
-157.6978613604
 20
63.08123022920001
 11
-157.7116297264
 21
63.09252409210001
  0
LINE
  8
1
  6
CONTINUOUS
 62
     7
 10
-157.8622976427
 20
63.26950453969999
 11
-157.871843291
 21
63.2839907341
  0
LINE
  8
1
  6
CONTINUOUS
 62
     7
 10
-157.5435298733
 20
63.0086776708
 11
-157.5567174959
 21
63.0104158011
  0
LINE
  8
1
  6
CONTINUOUS
 62
     7
 10
-157.8417014174
 20
63.2393775757
 11
-157.852090956
 21
63.2543627713
  0
LINE
  8
1
  6
CONTINUOUS
 62
     7
 10
-141.7871771195
 20
79.2412134141
 11
-141.7703985381
 21
79.2282117174
  0
LINE
  8
1
  6
CONTINUOUS
 62
     7
 10
-157.6322702381
 20
63.03785515609999
 11
-157.6447440666
 21
63.0447856843
  0
LINE
  8
1
  6
CONTINUOUS
 62
     7
 10
-157.5108123746
 20
63.010285168
 11
-157.5205682533
 21
63.00872388219999
  0
LINE
  8
1
  6
CONTINUOUS
 62
     7
 10
-157.6061951411
 20
63.0254357383
 11
-157.6201754196
 21
63.0317401703
  0
LINE
  8
1
  6
CONTINUOUS
 62
     7
 10
-157.5801131556
 20
63.0159993601
 11
-157.5928307445
 21
63.02020741060001
  0
LINE
  8
1
  6
CONTINUOUS
 62
     7
 10
-157.6447440666
 20
63.0447856843
 11
-157.6575705419
 21
63.0525611274
  0
LINE
  8
1
  6
CONTINUOUS
 62
     7
 10
-157.6575705419
 20
63.0525611274
 11
-157.6707205962
 21
63.0612095738
  0
ARC
  8
1
  6
CONTINUOUS
 62
     7
 10
-166.4864059743
 20
63.1206957028
 40
3.3575192291
 50
45.7036441167
 51
73.4419213903
  0
LINE
  8
1
  6
CONTINUOUS
 62
     7
 10
-157.8189293422
 20
63.20819348330001
 11
-157.8306545411
 21
63.223957521
  0
LINE
  8
1
  6
CONTINUOUS
 62
     7
 10
-157.7628922863
 20
63.1415114786
 11
-157.7782023457
 21
63.15832771929999
  0
LINE
  8
1
  6
CONTINUOUS
 62
     7
 10
-157.6841624075
 20
63.07075763230001
 11
-157.6978613604
 21
63.08123022920001
  0
LINE
  8
1
  6
CONTINUOUS
 62
     7
 10
-157.8306545411
 20
63.223957521
 11
-157.8417014174
 21
63.2393775757
  0
LINE
  8
1
  6
CONTINUOUS
 62
     7
 10
-157.871843291
 20
63.2839907341
 11
-157.8807636178
 21
63.2977428061
  0
LINE
  8
1
  6
CONTINUOUS
 62
     7
 10
-141.8198052747
 20
79.264953973
 11
-141.8036836446
 21
79.2534546343
  0
LINE
  8
1
  6
CONTINUOUS
 62
     7
 10
-157.5022043668
 20
63.012726573
 11
-157.5108123746
 21
63.010285168
  0
LINE
  8
1
  6
CONTINUOUS
 62
     7
 10
-141.7703985381
 20
79.2282117174
 11
-141.7542412087
 21
79.2150811003
  0
LINE
  8
1
  6
CONTINUOUS
 62
     7
 10
-141.6682498354
 20
79.1303820814
 11
-141.6594185297
 21
79.1195353787
  0
LINE
  8
1
  6
CONTINUOUS
 62
     7
 10
-141.6173869681
 20
79.0564432247
 11
-141.6099554287
 21
79.0418914575
  0
LINE
  8
1
  6
CONTINUOUS
 62
     7
 10
-157.7927438992
 20
63.1752658708
 11
-157.8065099248
 21
63.19218418900001
  0
LINE
  8
1
  6
CONTINUOUS
 62
     7
 10
-157.5205682533
 20
63.00872388219999
 11
-157.5314756134
 21
63.00815114160001
  0
LINE
  8
1
  6
CONTINUOUS
 62
     7
 10
-157.7380719266
 20
63.11640932980001
 11
-157.7506943964
 21
63.1288454808
  0
LINE
  8
1
  6
CONTINUOUS
 62
     7
 10
-141.5984266665
 20
79.01456285
 11
-141.5942193755
 21
79.0018529495
  0
LINE
  8
1
  6
CONTINUOUS
 62
     7
 10
-141.5909747159
 20
78.9898155475
 11
-141.588635153
 21
78.9784718347
  0
LINE
  8
1
  6
CONTINUOUS
 62
     7
 10
-141.84914744
 20
79.2849402876
 11
-141.834739941
 21
79.2752611212
  0
LINE
  8
1
  6
CONTINUOUS
 62
     7
 10
-159.4996881251
 20
61.0399859063
 11
-159.5223379268
 21
61.0299370953
  0
LINE
  8
1
  6
CONTINUOUS
 62
     7
 10
-159.8116019731
 20
61.0183333234
 11
-159.8305827818
 21
61.0245317214
  0
LINE
  8
1
  6
CONTINUOUS
 62
     7
 10
-139.7081010397
 20
81.4256193336
 11
-139.6966879219
 21
81.4127939835
  0
LINE
  8
1
  6
CONTINUOUS
 62
     7
 10
-139.7302115513
 20
81.448395332
 11
-139.7193024213
 21
81.437472021
  0
LINE
  8
1
  6
CONTINUOUS
 62
     7
 10
-139.6277489905
 20
81.3105035189
 11
-139.6178338644
 21
81.2897840587
  0
LINE
  8
1
  6
CONTINUOUS
 62
     7
 10
-139.608644287
 20
81.2679037347
 11
-139.6033055821
 21
81.2535621707
  0
LINE
  8
1
  6
CONTINUOUS
 62
     7
 10
-139.5897444272
 20
81.207889317
 11
-139.5861741391
 21
81.191816989
  0
LINE
  8
1
  6
CONTINUOUS
 62
     7
 10
-139.598350023
 20
81.2387734473
 11
-139.5938164495
 21
81.2235457082
  0
LINE
  8
1
  6
CONTINUOUS
 62
     7
 10
-139.5790425538
 20
81.143170837
 11
-139.5775330898
 21
81.1193504136
  0
LINE
  8
1
  6
CONTINUOUS
 62
     7
 10
-159.5461628018
 20
61.0210638325
 11
-159.5660421155
 21
61.0148994256
  0
LINE
  8
1
  6
CONTINUOUS
 62
     7
 10
-159.5660421155
 20
61.0148994256
 11
-159.5866217833
 21
61.0096387427
  0
LINE
  8
1
  6
CONTINUOUS
 62
     7
 10
-139.577314664
 20
81.0959548073
 11
-139.5783244576
 21
81.0730436242
  0
LINE
  8
1
  6
CONTINUOUS
 62
     7
 10
-139.6382478869
 20
81.330058876
 11
-139.6277489905
 21
81.3105035189
  0
LINE
  8
1
  6
CONTINUOUS
 62
     7
 10
-159.8488289468
 20
61.0313551366
 11
-159.8663284634
 21
61.0387237693
  0
LINE
  8
1
  6
CONTINUOUS
 62
     7
 10
-159.4782422462
 20
61.0510819638
 11
-159.4996881251
 21
61.0399859063
  0
LINE
  8
1
  6
CONTINUOUS
 62
     7
 10
-139.6610079194
 20
81.3665058396
 11
-139.6491957881
 21
81.3484567384
  0
LINE
  8
1
  6
CONTINUOUS
 62
     7
 10
-159.690848436
 20
60.9990308878
 11
-159.7106450439
 21
60.9998840605
  0
LINE
  8
1
  6
CONTINUOUS
 62
     7
 10
-159.7715130038
 20
61.0081416405
 11
-159.7919041447
 21
61.0128419817
  0
LINE
  8
1
  6
CONTINUOUS
 62
     7
 10
-159.944920266
 20
61.082761265
 11
-159.9609294532
 21
61.0941913966
  0
LINE
  8
1
  6
CONTINUOUS
 62
     7
 10
-139.6730356601
 20
81.3833273653
 11
-139.6610079194
 21
81.3665058396
  0
LINE
  8
1
  6
CONTINUOUS
 62
     7
 10
-139.6491957881
 20
81.3484567384
 11
-139.6382478869
 21
81.330058876
  0
LINE
  8
1
  6
CONTINUOUS
 62
     7
 10
-159.7919041447
 20
61.0128419817
 11
-159.8116019731
 21
61.0183333234
  0
LINE
  8
1
  6
CONTINUOUS
 62
     7
 10
-159.8663284634
 20
61.0387237693
 11
-159.8881046138
 21
61.0490690758
  0
LINE
  8
1
  6
CONTINUOUS
 62
     7
 10
-160.0154104827
 20
61.1406187719
 11
-160.0267089536
 21
61.1518858502
  0
LINE
  8
1
  6
CONTINUOUS
 62
     7
 10
-159.9896819657
 20
61.1171487794
 11
-160.0030850709
 21
61.1290086685
  0
LINE
  8
1
  6
CONTINUOUS
 62
     7
 10
-139.5938164495
 20
81.2235457082
 11
-139.5897444272
 21
81.207889317
  0
LINE
  8
1
  6
CONTINUOUS
 62
     7
 10
-139.5775330898
 20
81.1193504136
 11
-139.577314664
 21
81.0959548073
  0
LINE
  8
1
  6
CONTINUOUS
 62
     7
 10
-159.5866217833
 20
61.0096387427
 11
-159.6078704121
 21
61.0053498267
  0
LINE
  8
1
  6
CONTINUOUS
 62
     7
 10
-139.5783244576
 20
81.0730436242
 11
-139.5812154047
 21
81.0451669251
  0
LINE
  8
1
  6
CONTINUOUS
 62
     7
 10
-139.5812154047
 20
81.0451669251
 11
-139.5857957234
 21
81.0182221569
  0
LINE
  8
1
  6
CONTINUOUS
 62
     7
 10
-139.5819036343
 20
81.1673503407
 11
-139.5790425538
 21
81.143170837
  0
LINE
  8
1
  6
CONTINUOUS
 62
     7
 10
-159.4580185438
 20
61.0631001869
 11
-159.4782422462
 21
61.0510819638
  0
LINE
  8
1
  6
CONTINUOUS
 62
     7
 10
-139.5919348888
 20
80.9922871656
 11
-139.5995018231
 21
80.9674264896
  0
LINE
  8
1
  6
CONTINUOUS
 62
     7
 10
-139.5861741391
 20
81.191816989
 11
-139.5819036343
 21
81.1673503407
  0
LINE
  8
1
  6
CONTINUOUS
 62
     7
 10
-139.5857957234
 20
81.0182221569
 11
-139.5919348888
 21
80.9922871656
  0
LINE
  8
1
  6
CONTINUOUS
 62
     7
 10
-159.9758382869
 20
61.1056888514
 11
-159.9896819657
 21
61.1171487794
  0
LINE
  8
1
  6
CONTINUOUS
 62
     7
 10
-139.6851509099
 20
81.3989547443
 11
-139.6730356601
 21
81.3833273653
  0
LINE
  8
1
  6
CONTINUOUS
 62
     7
 10
-139.6083659919
 20
80.9436920111
 11
-139.6183983834
 21
80.9211236624
  0
LINE
  8
1
  6
CONTINUOUS
 62
     7
 10
-159.9609294532
 20
61.0941913966
 11
-159.9758382869
 21
61.1056888514
  0
LINE
  8
1
  6
CONTINUOUS
 62
     7
 10
-159.7106450439
 20
60.9998840605
 11
-159.7307152792
 21
61.0016638821
  0
LINE
  8
1
  6
CONTINUOUS
 62
     7
 10
-139.6966879219
 20
81.4127939835
 11
-139.6851509099
 21
81.3989547443
  0
LINE
  8
1
  6
CONTINUOUS
 62
     7
 10
-139.6183983834
 20
80.9211236624
 11
-139.6294723714
 21
80.8997501736
  0
LINE
  8
1
  6
CONTINUOUS
 62
     7
 10
-159.4212625947
 20
61.0894227332
 11
-159.4390254899
 21
61.0759193703
  0
LINE
  8
1
  6
CONTINUOUS
 62
     7
 10
-159.5223379268
 20
61.0299370953
 11
-159.5461628018
 21
61.0210638325
  0
LINE
  8
1
  6
CONTINUOUS
 62
     7
 10
-159.7307152792
 20
61.0016638821
 11
-159.7510189988
 21
61.0044052583
  0
LINE
  8
1
  6
CONTINUOUS
 62
     7
 10
-159.9085857249
 20
61.0600507829
 11
-159.9277804949
 21
61.0715113289
  0
LINE
  8
1
  6
CONTINUOUS
 62
     7
 10
-160.0030850709
 20
61.1290086685
 11
-160.0154104827
 21
61.1406187719
  0
LINE
  8
1
  6
CONTINUOUS
 62
     7
 10
-159.6713625643
 20
60.9990682274
 11
-159.690848436
 21
60.9990308878
  0
LINE
  8
1
  6
CONTINUOUS
 62
     7
 10
-139.6178338644
 20
81.2897840587
 11
-139.608644287
 21
81.2679037347
  0
LINE
  8
1
  6
CONTINUOUS
 62
     7
 10
-139.6033055821
 20
81.2535621707
 11
-139.598350023
 21
81.2387734473
  0
LINE
  8
1
  6
CONTINUOUS
 62
     7
 10
-139.5995018231
 20
80.9674264896
 11
-139.6083659919
 21
80.9436920111
  0
LINE
  8
1
  6
CONTINUOUS
 62
     7
 10
-141.5909298293
 20
78.9239961226
 11
-141.5917781465
 21
78.9217344856
  0
LINE
  8
1
  6
CONTINUOUS
 62
     7
 10
-139.6294723714
 20
80.8997501736
 11
-139.6414644669
 21
80.8795898483
  0
LINE
  8
1
  6
CONTINUOUS
 62
     7
 10
-159.3893854058
 20
61.1180396003
 11
-159.4047212239
 21
61.1034983687
  0
LINE
  8
1
  6
CONTINUOUS
 62
     7
 10
-159.4047212239
 20
61.1034983687
 11
-159.4212625947
 21
61.0894227332
  0
LINE
  8
1
  6
CONTINUOUS
 62
     7
 10
-159.7510189988
 20
61.0044052583
 11
-159.7715130038
 21
61.0081416405
  0
LINE
  8
1
  6
CONTINUOUS
 62
     7
 10
-159.8881046138
 20
61.0490690758
 11
-159.9085857249
 21
61.0600507829
  0
LINE
  8
1
  6
CONTINUOUS
 62
     7
 10
-139.7193024213
 20
81.437472021
 11
-139.7081010397
 21
81.4256193336
  0
LINE
  8
1
  6
CONTINUOUS
 62
     7
 10
-159.629751162
 20
61.0021006896
 11
-159.6522215375
 21
60.9999589252
  0
LINE
  8
1
  6
CONTINUOUS
 62
     7
 10
-159.8305827818
 20
61.0245317214
 11
-159.8488289468
 21
61.0313551366
  0
LINE
  8
1
  6
CONTINUOUS
 62
     7
 10
-159.9277804949
 20
61.0715113289
 11
-159.944920266
 21
61.082761265
  0
LINE
  8
1
  6
CONTINUOUS
 62
     7
 10
-159.4390254899
 20
61.0759193703
 11
-159.4580185438
 21
61.0631001869
  0
LINE
  8
1
  6
CONTINUOUS
 62
     7
 10
-159.6522215375
 20
60.9999589252
 11
-159.6713625643
 21
60.9990682274
  0
LINE
  8
1
  6
CONTINUOUS
 62
     7
 10
-159.6078704121
 20
61.0053498267
 11
-159.629751162
 21
61.0021006896
  0
LINE
  8
1
  6
CONTINUOUS
 62
     7
 10
-139.6414644669
 20
80.8795898483
 11
-139.6542549609
 21
80.8606513572
  0
LINE
  8
1
  6
CONTINUOUS
 62
     7
 10
-160.0171456152
 20
60.7517207652
 11
-160.0641768728
 21
60.7449109212
  0
LINE
  8
1
  6
CONTINUOUS
 62
     7
 10
-160.2539362624
 20
60.7401698977
 11
-160.3012489083
 21
60.7446226165
  0
LINE
  8
1
  6
CONTINUOUS
 62
     7
 10
-146.8938626554
 20
99.1957277313
 11
-146.8764961265
 21
99.1962835869
  0
LINE
  8
1
  6
CONTINUOUS
 62
     7
 10
-146.8163928245
 20
99.1939485856
 11
-146.8021824312
 21
99.1924001782
  0
LINE
  8
1
  6
CONTINUOUS
 62
     7
 10
-159.7897282514
 20
60.8186877403
 11
-159.833834812
 21
60.8009980686
  0
LINE
  8
1
  6
CONTINUOUS
 62
     7
 10
-160.4867917929
 20
60.7846843338
 11
-160.5317267034
 21
60.8001493582
  0
LINE
  8
1
  6
CONTINUOUS
 62
     7
 10
-160.5758761585
 20
60.8177317013
 11
-160.6191404547
 21
60.8373916564
  0
LINE
  8
1
  6
CONTINUOUS
 62
     7
 10
-159.833834812
 20
60.8009980686
 11
-159.8787319754
 21
60.7854237989
  0
LINE
  8
1
  6
CONTINUOUS
 62
     7
 10
-160.1114785488
 20
60.7403431414
 11
-160.1589438213
 21
60.7380277413
  0
LINE
  8
1
  6
CONTINUOUS
 62
     7
 10
-160.1589438213
 20
60.7380277413
 11
-160.2064654988
 21
60.7379699499
  0
LINE
  8
1
  6
CONTINUOUS
 62
     7
 10
-160.3012489083
 20
60.7446226165
 11
-160.3482965897
 21
60.7513180506
  0
LINE
  8
1
  6
CONTINUOUS
 62
     7
 10
-160.6614218878
 20
60.8590848254
 11
-160.7026249731
 21
60.8827622183
  0
LINE
  8
1
  6
CONTINUOUS
 62
     7
 10
-147.1584432486
 20
99.1196104389
 11
-147.1426049522
 21
99.1280001877
  0
LINE
  8
1
  6
CONTINUOUS
 62
     7
 10
-159.9704909874
 20
60.7607572948
 11
-160.0171456152
 21
60.7517207652
  0
LINE
  8
1
  6
CONTINUOUS
 62
     7
 10
-160.6191404547
 20
60.8373916564
 11
-160.6614218878
 21
60.8590848254
  0
LINE
  8
1
  6
CONTINUOUS
 62
     7
 10
-159.4768136404
 20
61.0306089962
 11
-159.5112055128
 21
60.9978139923
  0
LINE
  8
1
  6
CONTINUOUS
 62
     7
 10
-147.1426049522
 20
99.1280001877
 11
-147.1152731573
 21
99.1412035405
  0
LINE
  8
1
  6
CONTINUOUS
 62
     7
 10
-147.0872870708
 20
99.1531296108
 11
-147.0572015593
 21
99.1642374672
  0
LINE
  8
1
  6
CONTINUOUS
 62
     7
 10
-147.0572015593
 20
99.1642374672
 11
-147.0265057703
 21
99.1738130586
  0
LINE
  8
1
  6
CONTINUOUS
 62
     7
 10
-159.7042833545
 20
60.8602488072
 11
-159.7465119002
 21
60.8384528651
  0
LINE
  8
1
  6
CONTINUOUS
 62
     7
 10
-159.5112055128
 20
60.9978139923
 11
-159.5471165862
 21
60.9666899184
  0
LINE
  8
1
  6
CONTINUOUS
 62
     7
 10
-146.9662236467
 20
99.1876414077
 11
-146.9473520858
 21
99.1906422972
  0
LINE
  8
1
  6
CONTINUOUS
 62
     7
 10
-146.8764961265
 20
99.1962835869
 11
-146.8591207852
 21
99.196294431
  0
LINE
  8
1
  6
CONTINUOUS
 62
     7
 10
-160.3949730583
 20
60.7602410797
 11
-160.4411729039
 21
60.7713715528
  0
LINE
  8
1
  6
CONTINUOUS
 62
     7
 10
-160.8188470782
 20
60.9651433596
 11
-160.8548337455
 21
60.9961799983
  0
LINE
  8
1
  6
CONTINUOUS
 62
     7
 10
-159.584465762
 20
60.9373070623
 11
-159.6231686942
 21
60.9097317798
  0
LINE
  8
1
  6
CONTINUOUS
 62
     7
 10
-160.2064654988
 20
60.7379699499
 11
-160.2539362624
 21
60.7401698977
  0
LINE
  8
1
  6
CONTINUOUS
 62
     7
 10
-146.8448725592
 20
99.1958909284
 11
-146.8306399812
 21
99.1951115701
  0
LINE
  8
1
  6
CONTINUOUS
 62
     7
 10
-146.8306399812
 20
99.1951115701
 11
-146.8163928245
 21
99.1939485856
  0
LINE
  8
1
  6
CONTINUOUS
 62
     7
 10
-160.7426566611
 20
60.908370364
 11
-160.7814265476
 21
60.9358514314
  0
LINE
  8
1
  6
CONTINUOUS
 62
     7
 10
-159.92431835
 20
60.7720001026
 11
-159.9704909874
 21
60.7607572948
  0
LINE
  8
1
  6
CONTINUOUS
 62
     7
 10
-146.8021824312
 20
99.1924001782
 11
-146.7774081379
 21
99.1887480646
  0
LINE
  8
1
  6
CONTINUOUS
 62
     7
 10
-160.7026249731
 20
60.8827622183
 11
-160.7426566611
 21
60.908370364
  0
LINE
  8
1
  6
CONTINUOUS
 62
     7
 10
-146.7527839552
 20
99.1838735497
 11
-146.7311641136
 21
99.1785209145
  0
LINE
  8
1
  6
CONTINUOUS
 62
     7
 10
-146.7311641136
 20
99.1785209145
 11
-146.7097652939
 21
99.1721814132
  0
LINE
  8
1
  6
CONTINUOUS
 62
     7
 10
-146.9473520858
 20
99.1906422972
 11
-146.9283721577
 21
99.1930263683
  0
LINE
  8
1
  6
CONTINUOUS
 62
     7
 10
-159.6631379794
 20
60.8840263444
 11
-159.7042833545
 21
60.8602488072
  0
LINE
  8
1
  6
CONTINUOUS
 62
     7
 10
-146.7774081379
 20
99.1887480646
 11
-146.7527839552
 21
99.1838735497
  0
LINE
  8
1
  6
CONTINUOUS
 62
     7
 10
-146.6907857363
 20
99.165641768
 11
-146.6720656512
 21
99.1582947751
  0
LINE
  8
1
  6
CONTINUOUS
 62
     7
 10
-146.6720656512
 20
99.1582947751
 11
-146.6541475627
 21
99.1503734353
  0
LINE
  8
1
  6
CONTINUOUS
 62
     7
 10
-146.6207494165
 20
99.13306198
 11
-146.6099271399
 21
99.1266724963
  0
LINE
  8
1
  6
CONTINUOUS
 62
     7
 10
-146.6428696854
 20
99.1449137573
 11
-146.6317447314
 21
99.1391489161
  0
LINE
  8
1
  6
CONTINUOUS
 62
     7
 10
-160.0641768728
 20
60.7449109212
 11
-160.1114785488
 21
60.7403431414
  0
LINE
  8
1
  6
CONTINUOUS
 62
     7
 10
-160.4411729039
 20
60.7713715528
 11
-160.4867917929
 21
60.7846843338
  0
LINE
  8
1
  6
CONTINUOUS
 62
     7
 10
-160.5317267034
 20
60.8001493582
 11
-160.5758761585
 21
60.8177317013
  0
LINE
  8
1
  6
CONTINUOUS
 62
     7
 10
-159.8787319754
 20
60.7854237989
 11
-159.92431835
 21
60.7720001026
  0
LINE
  8
1
  6
CONTINUOUS
 62
     7
 10
-147.1152731573
 20
99.1412035405
 11
-147.0872870708
 21
99.1531296108
  0
LINE
  8
1
  6
CONTINUOUS
 62
     7
 10
-146.9283721577
 20
99.1930263683
 11
-146.9111379261
 21
99.1946396283
  0
LINE
  8
1
  6
CONTINUOUS
 62
     7
 10
-146.8591207852
 20
99.196294431
 11
-146.8448725592
 21
99.1958909284
  0
LINE
  8
1
  6
CONTINUOUS
 62
     7
 10
-146.6099271399
 20
99.1266724963
 11
-146.5911469467
 21
99.1145769776
  0
LINE
  8
1
  6
CONTINUOUS
 62
     7
 10
-146.5911469467
 20
99.1145769776
 11
-146.5729522657
 21
99.1015205843
  0
LINE
  8
1
  6
CONTINUOUS
 62
     7
 10
-160.3482965897
 20
60.7513180506
 11
-160.3949730583
 21
60.7602410797
  0
LINE
  8
1
  6
CONTINUOUS
 62
     7
 10
-159.6231686942
 20
60.9097317798
 11
-159.6631379794
 21
60.8840263444
  0
LINE
  8
1
  6
CONTINUOUS
 62
     7
 10
-147.0265057703
 20
99.1738130586
 11
-146.996581243
 21
99.1814905683
  0
LINE
  8
1
  6
CONTINUOUS
 62
     7
 10
-146.996581243
 20
99.1814905683
 11
-146.9662236467
 21
99.1876414077
  0
LINE
  8
1
  6
CONTINUOUS
 62
     7
 10
-146.6541475627
 20
99.1503734353
 11
-146.6428696854
 21
99.1449137573
  0
LINE
  8
1
  6
CONTINUOUS
 62
     7
 10
-160.7814265476
 20
60.9358514314
 11
-160.8188470782
 21
60.9651433596
  0
LINE
  8
1
  6
CONTINUOUS
 62
     7
 10
-146.9111379261
 20
99.1946396283
 11
-146.8938626554
 21
99.1957277313
  0
LINE
  8
1
  6
CONTINUOUS
 62
     7
 10
-139.6542549609
 20
80.8606513572
 11
-139.6576609141
 21
80.8559763326
  0
LINE
  8
1
  6
CONTINUOUS
 62
     7
 10
-146.7097652939
 20
99.1721814132
 11
-146.6907857363
 21
99.165641768
  0
LINE
  8
1
  6
CONTINUOUS
 62
     7
 10
-159.7465119002
 20
60.8384528651
 11
-159.7897282514
 21
60.8186877403
  0
LINE
  8
1
  6
CONTINUOUS
 62
     7
 10
-146.6317447314
 20
99.1391489161
 11
-146.6207494165
 21
99.13306198
  0
LINE
  8
1
  6
CONTINUOUS
 62
     7
 10
-159.5471165862
 20
60.9666899184
 11
-159.584465762
 21
60.9373070623
  0
LINE
  8
1
  6
CONTINUOUS
 62
     7
 10
-143.3949196053
 20
77.7053648062
 11
-143.4048612529
 21
77.7442396308
  0
LINE
  8
1
  6
CONTINUOUS
 62
     7
 10
-143.4605072891
 20
77.8974090825
 11
-143.4772883879
 21
77.9328628083
  0
LINE
  8
1
  6
CONTINUOUS
 62
     7
 10
-143.4772883879
 20
77.9328628083
 11
-143.4955020685
 21
77.9680753316
  0
LINE
  8
1
  6
CONTINUOUS
 62
     7
 10
-143.4955020685
 20
77.9680753316
 11
-143.5151333778
 21
78.0029556701
  0
LINE
  8
1
  6
CONTINUOUS
 62
     7
 10
-147.8183083925
 20
83.9812062975
 11
-147.7375468009
 21
84.0835842775
  0
LINE
  8
1
  6
CONTINUOUS
 62
     7
 10
-143.5585701633
 20
78.071339748
 11
-143.5823270381
 21
78.1046456332
  0
LINE
  8
1
  6
CONTINUOUS
 62
     7
 10
-146.5418939978
 20
99.0756884136
 11
-146.5276352078
 21
99.0620628237
  0
LINE
  8
1
  6
CONTINUOUS
 62
     7
 10
-143.6074045052
 20
78.1372237662
 11
-143.6337694135
 21
78.1689676946
  0
LINE
  8
1
  6
CONTINUOUS
 62
     7
 10
-143.4022055182
 20
77.248405166
 11
-143.3939898627
 21
77.2786716895
  0
LINE
  8
1
  6
CONTINUOUS
 62
     7
 10
-143.5241400405
 20
77.0043159671
 11
-143.5061876971
 21
77.0291441186
  0
LINE
  8
1
  6
CONTINUOUS
 62
     7
 10
-162.8667546174
 20
68.5422016209
 11
-162.8708711698
 21
68.5959431794
  0
LINE
  8
1
  6
CONTINUOUS
 62
     7
 10
-143.3714095345
 20
77.5510903975
 11
-143.374833946
 21
77.5888854812
  0
LINE
  8
1
  6
CONTINUOUS
 62
     7
 10
-143.5151333778
 20
78.0029556701
 11
-143.536163568
 21
78.0374096032
  0
LINE
  8
1
  6
CONTINUOUS
 62
     7
 10
-147.9127465841
 20
83.755355977
 11
-147.8814915827
 21
83.8533859455
  0
LINE
  8
1
  6
CONTINUOUS
 62
     7
 10
-162.8717532597
 20
68.6485072885
 11
-162.8694769506
 21
68.6997938951
  0
LINE
  8
1
  6
CONTINUOUS
 62
     7
 10
-162.8557794078
 20
68.7981756204
 11
-162.8445347774
 21
68.8451116529
  0
LINE
  8
1
  6
CONTINUOUS
 62
     7
 10
-162.5755214092
 20
69.2298287361
 11
-162.4600647656
 21
69.292208051
  0
LINE
  8
1
  6
CONTINUOUS
 62
     7
 10
-143.4048612529
 20
77.7442396308
 11
-143.4165391233
 21
77.7833355466
  0
LINE
  8
1
  6
CONTINUOUS
 62
     7
 10
-143.6337694135
 20
78.1689676946
 11
-143.6613852527
 21
78.1997680581
  0
LINE
  8
1
  6
CONTINUOUS
 62
     7
 10
-143.374833946
 20
77.5888854812
 11
-143.3798582071
 21
77.6272481538
  0
LINE
  8
1
  6
CONTINUOUS
 62
     7
 10
-143.3724028718
 20
77.4087627653
 11
-143.3701063868
 21
77.4430506757
  0
LINE
  8
1
  6
CONTINUOUS
 62
     7
 10
-146.5729522657
 20
99.1015205843
 11
-146.5571416358
 21
99.0889765175
  0
LINE
  8
1
  6
CONTINUOUS
 62
     7
 10
-143.4451698769
 20
77.8618018199
 11
-143.4605072891
 21
77.8974090825
  0
LINE
  8
1
  6
CONTINUOUS
 62
     7
 10
-143.4299746776
 20
77.8225569706
 11
-143.4451698769
 21
77.8618018199
  0
LINE
  8
1
  6
CONTINUOUS
 62
     7
 10
-143.536163568
 20
78.0374096032
 11
-143.5585701633
 21
78.071339748
  0
LINE
  8
1
  6
CONTINUOUS
 62
     7
 10
-162.8708711698
 20
68.5959431794
 11
-162.8717532597
 21
68.6485072885
  0
LINE
  8
1
  6
CONTINUOUS
 62
     7
 10
-143.4886722722
 20
77.0557183474
 11
-143.471753783
 21
77.0840179393
  0
LINE
  8
1
  6
CONTINUOUS
 62
     7
 10
-162.8641236142
 20
68.7497112036
 11
-162.8557794078
 21
68.7981756204
  0
LINE
  8
1
  6
CONTINUOUS
 62
     7
 10
-143.3868439449
 20
77.3099184607
 11
-143.3808124098
 21
77.3421408924
  0
LINE
  8
1
  6
CONTINUOUS
 62
     7
 10
-143.4248340798
 20
77.1823125977
 11
-143.4114148021
 21
77.2191277525
  0
LINE
  8
1
  6
CONTINUOUS
 62
     7
 10
-162.4600647656
 20
69.292208051
 11
-162.3360876837
 21
69.3343416399
  0
LINE
  8
1
  6
CONTINUOUS
 62
     7
 10
-143.3939898627
 20
77.2786716895
 11
-143.3868439449
 21
77.3099184607
  0
LINE
  8
1
  6
CONTINUOUS
 62
     7
 10
-162.8694769506
 20
68.6997938951
 11
-162.8641236142
 21
68.7497112036
  0
LINE
  8
1
  6
CONTINUOUS
 62
     7
 10
-143.4165391233
 20
77.7833355466
 11
-143.4299746776
 21
77.8225569706
  0
LINE
  8
1
  6
CONTINUOUS
 62
     7
 10
-162.8445347774
 20
68.8451116529
 11
-162.8304839563
 21
68.8904517983
  0
LINE
  8
1
  6
CONTINUOUS
 62
     7
 10
-162.8304839563
 20
68.8904517983
 11
-162.8137244845
 21
68.9341363976
  0
LINE
  8
1
  6
CONTINUOUS
 62
     7
 10
-162.7943567322
 20
68.9761134783
 11
-162.7724834507
 21
69.0163385629
  0
LINE
  8
1
  6
CONTINUOUS
 62
     7
 10
-143.386536184
 20
77.6661019794
 11
-143.3949196053
 21
77.7053648062
  0
LINE
  8
1
  6
CONTINUOUS
 62
     7
 10
-143.5823270381
 20
78.1046456332
 11
-143.6074045052
 21
78.1372237662
  0
LINE
  8
1
  6
CONTINUOUS
 62
     7
 10
-146.5571416358
 20
99.0889765175
 11
-146.5418939978
 21
99.0756884136
  0
LINE
  8
1
  6
CONTINUOUS
 62
     7
 10
-162.7724834507
 20
69.0163385629
 11
-162.7482093281
 21
69.0547744704
  0
LINE
  8
1
  6
CONTINUOUS
 62
     7
 10
-143.3759593198
 20
77.3753071362
 11
-143.3724028718
 21
77.4087627653
  0
LINE
  8
1
  6
CONTINUOUS
 62
     7
 10
-162.8137244845
 20
68.9341363976
 11
-162.7943567322
 21
68.9761134783
  0
LINE
  8
1
  6
CONTINUOUS
 62
     7
 10
-162.7482093281
 20
69.0547744704
 11
-162.7216405579
 21
69.0913911046
  0
LINE
  8
1
  6
CONTINUOUS
 62
     7
 10
-140.2930295338
 20
80.2424401729
 11
-140.284714006
 21
80.2551769901
  0
LINE
  8
1
  6
CONTINUOUS
 62
     7
 10
-162.6928844435
 20
69.1261652103
 11
-162.6620489943
 21
69.1590801418
  0
LINE
  8
1
  6
CONTINUOUS
 62
     7
 10
-143.3701063868
 20
77.4430506757
 11
-143.3691291517
 21
77.4781247093
  0
LINE
  8
1
  6
CONTINUOUS
 62
     7
 10
-162.3360876837
 20
69.3343416399
 11
-162.2016915499
 21
69.3599552113
  0
LINE
  8
1
  6
CONTINUOUS
 62
     7
 10
-147.8814915827
 20
83.8533859455
 11
-147.8183083925
 21
83.9812062975
  0
LINE
  8
1
  6
CONTINUOUS
 62
     7
 10
-143.4114148021
 20
77.2191277525
 11
-143.4022055182
 21
77.248405166
  0
LINE
  8
1
  6
CONTINUOUS
 62
     7
 10
-143.4555845384
 20
77.1140251868
 11
-143.4396198718
 21
77.147264606
  0
LINE
  8
1
  6
CONTINUOUS
 62
     7
 10
-143.3808124098
 20
77.3421408924
 11
-143.3759593198
 21
77.3753071362
  0
LINE
  8
1
  6
CONTINUOUS
 62
     7
 10
-143.3691291517
 20
77.4781247093
 11
-143.3695290824
 21
77.5139336389
  0
LINE
  8
1
  6
CONTINUOUS
 62
     7
 10
-143.3695290824
 20
77.5139336389
 11
-143.3714095345
 21
77.5510903975
  0
LINE
  8
1
  6
CONTINUOUS
 62
     7
 10
-143.5061876971
 20
77.0291441186
 11
-143.4886722722
 21
77.0557183474
  0
LINE
  8
1
  6
CONTINUOUS
 62
     7
 10
-162.6619054514
 20
69.1592256261
 11
-162.5755214092
 21
69.2298287361
  0
LINE
  8
1
  6
CONTINUOUS
 62
     7
 10
-143.471753783
 20
77.0840179393
 11
-143.4555845384
 21
77.1140251868
  0
LINE
  8
1
  6
CONTINUOUS
 62
     7
 10
-143.3798582071
 20
77.6272481538
 11
-143.386536184
 21
77.6661019794
  0
LINE
  8
1
  6
CONTINUOUS
 62
     7
 10
-143.4396198718
 20
77.147264606
 11
-143.4248340798
 21
77.1823125977
  0
LINE
  8
1
  6
CONTINUOUS
 62
     7
 10
-140.1813643927
 20
80.4691081018
 11
-140.1670281267
 21
80.5147277048
  0
LINE
  8
1
  6
CONTINUOUS
 62
     7
 10
-140.1877126602
 20
81.1343529147
 11
-140.2053787428
 21
81.1798768296
  0
LINE
  8
1
  6
CONTINUOUS
 62
     7
 10
-160.0077859165
 20
61.776048962
 11
-159.9695841961
 21
61.7463961106
  0
LINE
  8
1
  6
CONTINUOUS
 62
     7
 10
-140.2165524768
 20
80.3804216862
 11
-140.1978905573
 21
80.4243124961
  0
LINE
  8
1
  6
CONTINUOUS
 62
     7
 10
-140.2470845784
 20
81.2680602133
 11
-140.2710088202
 21
81.3104733259
  0
LINE
  8
1
  6
CONTINUOUS
 62
     7
 10
-159.9695841961
 20
61.7463961106
 11
-159.9298534442
 21
61.7185768209
  0
LINE
  8
1
  6
CONTINUOUS
 62
     7
 10
-159.9298534442
 20
61.7185768209
 11
-159.888715365
 21
61.6926596117
  0
LINE
  8
1
  6
CONTINUOUS
 62
     7
 10
-140.284714006
 20
80.2551769901
 11
-140.2600306228
 21
80.2957483475
  0
LINE
  8
1
  6
CONTINUOUS
 62
     7
 10
-140.1280122076
 20
80.8003455882
 11
-140.129516458
 21
80.84885176
  0
LINE
  8
1
  6
CONTINUOUS
 62
     7
 10
-140.172244871
 20
81.0880379013
 11
-140.1877126602
 21
81.1343529147
  0
LINE
  8
1
  6
CONTINUOUS
 62
     7
 10
-140.2710088202
 20
81.3104733259
 11
-140.2969001615
 21
81.3516031152
  0
LINE
  8
1
  6
CONTINUOUS
 62
     7
 10
-159.8462923177
 20
61.6687108039
 11
-159.8027070237
 21
61.6467945627
  0
LINE
  8
1
  6
CONTINUOUS
 62
     7
 10
-159.7580822915
 20
61.626972955
 11
-159.7125407619
 21
61.6093060225
  0
LINE
  8
1
  6
CONTINUOUS
 62
     7
 10
-140.1590283749
 20
81.0410538591
 11
-140.172244871
 21
81.0880379013
  0
LINE
  8
1
  6
CONTINUOUS
 62
     7
 10
-140.129516458
 20
80.84885176
 11
-140.1333572309
 21
80.8972982778
  0
LINE
  8
1
  6
CONTINUOUS
 62
     7
 10
-140.1449968674
 20
80.6081210173
 11
-140.1373377456
 21
80.6556709749
  0
LINE
  8
1
  6
CONTINUOUS
 62
     7
 10
-140.1548998944
 20
80.561101902
 11
-140.1449968674
 21
80.6081210173
  0
LINE
  8
1
  6
CONTINUOUS
 62
     7
 10
-140.2251882977
 20
81.2244869598
 11
-140.2470845784
 21
81.2680602133
  0
LINE
  8
1
  6
CONTINUOUS
 62
     7
 10
-140.2969001615
 20
81.3516031152
 11
-140.3246955796
 21
81.3913267535
  0
LINE
  8
1
  6
CONTINUOUS
 62
     7
 10
-140.3246955796
 20
81.3913267535
 11
-140.354329841
 21
81.4295220605
  0
LINE
  8
1
  6
CONTINUOUS
 62
     7
 10
-140.354329841
 20
81.4295220605
 11
-140.3857354695
 21
81.4660678132
  0
LINE
  8
1
  6
CONTINUOUS
 62
     7
 10
-159.8027070237
 20
61.6467945627
 11
-159.7580822915
 21
61.626972955
  0
LINE
  8
1
  6
CONTINUOUS
 62
     7
 10
-159.6662046728
 20
61.5938518694
 11
-159.6191956455
 21
61.5806667614
  0
LINE
  8
1
  6
CONTINUOUS
 62
     7
 10
-159.6191956455
 20
61.5806667614
 11
-159.5716345017
 21
61.5698051495
  0
LINE
  8
1
  6
CONTINUOUS
 62
     7
 10
-159.5716345017
 20
61.5698051495
 11
-159.5236430362
 21
61.5613018093
  0
LINE
  8
1
  6
CONTINUOUS
 62
     7
 10
-160.044337866
 20
61.8074646334
 11
-160.0077859165
 21
61.776048962
  0
LINE
  8
1
  6
CONTINUOUS
 62
     7
 10
-140.1395516481
 20
80.9455628699
 11
-140.1481144659
 21
80.99352205
  0
LINE
  8
1
  6
CONTINUOUS
 62
     7
 10
-140.2600306228
 20
80.2957483475
 11
-140.237287562
 21
80.3375324578
  0
LINE
  8
1
  6
CONTINUOUS
 62
     7
 10
-159.7125407619
 20
61.6093060225
 11
-159.6662046728
 21
61.5938518694
  0
LINE
  8
1
  6
CONTINUOUS
 62
     7
 10
-140.237287562
 20
80.3375324578
 11
-140.2165524768
 21
80.3804216862
  0
LINE
  8
1
  6
CONTINUOUS
 62
     7
 10
-140.1670281267
 20
80.5147277048
 11
-140.1548998944
 21
80.561101902
  0
LINE
  8
1
  6
CONTINUOUS
 62
     7
 10
-140.1373377456
 20
80.6556709749
 11
-140.131941383
 21
80.7036364172
  0
LINE
  8
1
  6
CONTINUOUS
 62
     7
 10
-140.131941383
 20
80.7036364172
 11
-140.1288266375
 21
80.7519006473
  0
LINE
  8
1
  6
CONTINUOUS
 62
     7
 10
-140.1333572309
 20
80.8972982778
 11
-140.1395516481
 21
80.9455628699
  0
LINE
  8
1
  6
CONTINUOUS
 62
     7
 10
-140.2053787428
 20
81.1798768296
 11
-140.2251882977
 21
81.2244869598
  0
LINE
  8
1
  6
CONTINUOUS
 62
     7
 10
-159.888715365
 20
61.6926596117
 11
-159.8462923177
 21
61.6687108039
  0
LINE
  8
1
  6
CONTINUOUS
 62
     7
 10
-140.1978905573
 20
80.4243124961
 11
-140.1813643927
 21
80.4691081018
  0
LINE
  8
1
  6
CONTINUOUS
 62
     7
 10
-140.1288266375
 20
80.7519006473
 11
-140.1280122076
 21
80.8003455882
  0
LINE
  8
1
  6
CONTINUOUS
 62
     7
 10
-140.1481144659
 20
80.99352205
 11
-140.1590283749
 21
81.0410538591
  0
LINE
  8
1
  6
CONTINUOUS
 62
     7
 10
-159.0469818803
 20
61.6032440258
 11
-159.0021888708
 21
61.619801284
  0
LINE
  8
1
  6
CONTINUOUS
 62
     7
 10
-263.030765487
 20
60.8595631476
 11
-263.011641035
 21
60.8688830363
  0
LINE
  8
1
  6
CONTINUOUS
 62
     7
 10
-262.7694817145
 20
61.1356438226
 11
-262.7568104482
 21
61.1662242199
  0
LINE
  8
1
  6
CONTINUOUS
 62
     7
 10
-159.1389844259
 20
61.5767482793
 11
-159.0926029938
 21
61.5888871395
  0
LINE
  8
1
  6
CONTINUOUS
 62
     7
 10
-262.7354714405
 20
61.2300322648
 11
-262.7268248085
 21
61.2630274
  0
LINE
  8
1
  6
CONTINUOUS
 62
     7
 10
-262.7268248085
 20
61.2630274
 11
-262.7195245709
 21
61.2965906623
  0
LINE
  8
1
  6
CONTINUOUS
 62
     7
 10
-262.7089023522
 20
61.3649408398
 11
-262.7055295643
 21
61.3994911191
  0
LINE
  8
1
  6
CONTINUOUS
 62
     7
 10
-267.2910960892
 20
61.3649310664
 11
-267.2864445548
 21
61.3305969845
  0
LINE
  8
1
  6
CONTINUOUS
 62
     7
 10
-159.3783322427
 20
61.5498488709
 11
-159.3298595613
 21
61.5506705241
  0
LINE
  8
1
  6
CONTINUOUS
 62
     7
 10
-267.2645488391
 20
61.230015966
 11
-267.2545584071
 21
61.1976995849
  0
LINE
  8
1
  6
CONTINUOUS
 62
     7
 10
-267.2432225585
 20
61.1661883021
 11
-267.2305563677
 21
61.1355976336
  0
LINE
  8
1
  6
CONTINUOUS
 62
     7
 10
-158.9154197235
 20
61.6592816634
 11
-158.8736399575
 21
61.6820719594
  0
LINE
  8
1
  6
CONTINUOUS
 62
     7
 10
-267.2013444932
 20
61.0776135515
 11
-267.1848801651
 21
61.0504201795
  0
LINE
  8
1
  6
CONTINUOUS
 62
     7
 10
-262.8871407064
 20
60.9603993173
 11
-262.8712793081
 21
60.9771041913
  0
LINE
  8
1
  6
CONTINUOUS
 62
     7
 10
-263.1648563394
 20
60.8196703597
 11
-263.1456492304
 21
60.8229306533
  0
LINE
  8
1
  6
CONTINUOUS
 62
     7
 10
-263.1263205294
 20
60.8269885465
 11
-263.1069124324
 21
60.8318731058
  0
LINE
  8
1
  6
CONTINUOUS
 62
     7
 10
-262.7195245709
 20
61.2965906623
 11
-262.713557605
 21
61.3306016305
  0
LINE
  8
1
  6
CONTINUOUS
 62
     7
 10
-159.2815703983
 20
61.5537869233
 11
-159.2335834826
 21
61.5591825044
  0
LINE
  8
1
  6
CONTINUOUS
 62
     7
 10
-267.2864445548
 20
61.3305969845
 11
-267.2804828135
 21
61.2965859207
  0
LINE
  8
1
  6
CONTINUOUS
 62
     7
 10
-263.1456492304
 20
60.8229306533
 11
-263.1263205294
 21
60.8269885465
  0
LINE
  8
1
  6
CONTINUOUS
 62
     7
 10
-159.1860161588
 20
61.5668415357
 11
-159.1389844259
 21
61.5767482793
  0
LINE
  8
1
  6
CONTINUOUS
 62
     7
 10
-158.8330694978
 20
61.706802896
 11
-158.8234514441
 21
61.7130671328
  0
LINE
  8
1
  6
CONTINUOUS
 62
     7
 10
-263.2027164433
 20
60.8154229615
 11
-263.1839017896
 21
60.8171773265
  0
LINE
  8
1
  6
CONTINUOUS
 62
     7
 10
-262.9556878708
 20
60.9026242175
 11
-262.9376784558
 21
60.9158264249
  0
LINE
  8
1
  6
CONTINUOUS
 62
     7
 10
-262.713557605
 20
61.3306016305
 11
-262.7089023522
 21
61.3649408398
  0
LINE
  8
1
  6
CONTINUOUS
 62
     7
 10
-267.2545584071
 20
61.1976995849
 11
-267.2432225585
 21
61.1661883021
  0
LINE
  8
1
  6
CONTINUOUS
 62
     7
 10
-267.1848801651
 20
61.0504201795
 11
-267.1672477552
 21
61.0245448506
  0
LINE
  8
1
  6
CONTINUOUS
 62
     7
 10
-267.1672477552
 20
61.0245448506
 11
-267.1485121909
 21
61.0000642004
  0
LINE
  8
1
  6
CONTINUOUS
 62
     7
 10
-267.1485121909
 20
61.0000642004
 11
-267.1287470562
 21
60.9770436769
  0
LINE
  8
1
  6
CONTINUOUS
 62
     7
 10
-267.2165851461
 20
61.1060380599
 11
-267.2013444932
 21
61.0776135515
  0
LINE
  8
1
  6
CONTINUOUS
 62
     7
 10
-262.9740516477
 20
60.8904033536
 11
-262.9556878708
 21
60.9026242175
  0
LINE
  8
1
  6
CONTINUOUS
 62
     7
 10
-263.0878163358
 20
60.837501697
 11
-263.0687297001
 21
60.8439784742
  0
LINE
  8
1
  6
CONTINUOUS
 62
     7
 10
-262.8151629247
 20
61.050488014
 11
-262.7986989947
 21
61.0776765234
  0
LINE
  8
1
  6
CONTINUOUS
 62
     7
 10
-267.2305563677
 20
61.1355976336
 11
-267.2165851461
 21
61.1060380599
  0
LINE
  8
1
  6
CONTINUOUS
 62
     7
 10
-262.9203832454
 20
60.9297476246
 11
-262.9035227106
 21
60.944608793
  0
LINE
  8
1
  6
CONTINUOUS
 62
     7
 10
-263.1069124324
 20
60.8318731058
 11
-263.0878163358
 21
60.837501697
  0
LINE
  8
1
  6
CONTINUOUS
 62
     7
 10
-262.9035227106
 20
60.944608793
 11
-262.8871407064
 21
60.9603993173
  0
LINE
  8
1
  6
CONTINUOUS
 62
     7
 10
-159.4268683076
 20
61.5513371876
 11
-159.3783322427
 21
61.5498488709
  0
LINE
  8
1
  6
CONTINUOUS
 62
     7
 10
-159.2335834826
 20
61.5591825044
 11
-159.1860161588
 21
61.5668415357
  0
LINE
  8
1
  6
CONTINUOUS
 62
     7
 10
-262.832792479
 20
61.0246142541
 11
-262.8151629247
 21
61.050488014
  0
LINE
  8
1
  6
CONTINUOUS
 62
     7
 10
-267.2804828135
 20
61.2965859207
 11
-267.2731887894
 21
61.2630184157
  0
LINE
  8
1
  6
CONTINUOUS
 62
     7
 10
-267.2944671697
 20
61.399469929
 11
-267.2910960892
 21
61.3649310664
  0
LINE
  8
1
  6
CONTINUOUS
 62
     7
 10
-267.2731887894
 20
61.2630184157
 11
-267.2645488391
 21
61.230015966
  0
LINE
  8
1
  6
CONTINUOUS
 62
     7
 10
-263.0687297001
 20
60.8439784742
 11
-263.0496974015
 21
60.8513256572
  0
LINE
  8
1
  6
CONTINUOUS
 62
     7
 10
-262.9927195628
 20
60.8791591135
 11
-262.9740516477
 21
60.8904033536
  0
LINE
  8
1
  6
CONTINUOUS
 62
     7
 10
-262.7986989947
 20
61.0776765234
 11
-262.7834565601
 21
61.1060935563
  0
LINE
  8
1
  6
CONTINUOUS
 62
     7
 10
-158.9583031852
 20
61.6385022052
 11
-158.9154197235
 21
61.6592816634
  0
LINE
  8
1
  6
CONTINUOUS
 62
     7
 10
-263.011641035
 20
60.8688830363
 11
-262.9927195628
 21
60.8791591135
  0
LINE
  8
1
  6
CONTINUOUS
 62
     7
 10
-262.7568104482
 20
61.1662242199
 11
-262.7454685082
 21
61.1977252072
  0
LINE
  8
1
  6
CONTINUOUS
 62
     7
 10
-262.9376784558
 20
60.9158264249
 11
-262.9203832454
 21
60.9297476246
  0
LINE
  8
1
  6
CONTINUOUS
 62
     7
 10
-159.3298595613
 20
61.5506705241
 11
-159.2815703983
 21
61.5537869233
  0
LINE
  8
1
  6
CONTINUOUS
 62
     7
 10
-159.0021888708
 20
61.619801284
 11
-158.9583031852
 21
61.6385022052
  0
LINE
  8
1
  6
CONTINUOUS
 62
     7
 10
-262.8515225166
 20
61.0001313122
 11
-262.832792479
 21
61.0246142541
  0
LINE
  8
1
  6
CONTINUOUS
 62
     7
 10
-262.7454685082
 20
61.1977252072
 11
-262.7354714405
 21
61.2300322648
  0
LINE
  8
1
  6
CONTINUOUS
 62
     7
 10
-159.4753462147
 20
61.5551501738
 11
-159.4268683076
 21
61.5513371876
  0
LINE
  8
1
  6
CONTINUOUS
 62
     7
 10
-159.5236430362
 20
61.5613018093
 11
-159.4753462147
 21
61.5551501738
  0
LINE
  8
1
  6
CONTINUOUS
 62
     7
 10
-158.8736399575
 20
61.6820719594
 11
-158.8330694978
 21
61.706802896
  0
LINE
  8
1
  6
CONTINUOUS
 62
     7
 10
-262.8712793081
 20
60.9771041913
 11
-262.8515225166
 21
61.0001313122
  0
LINE
  8
1
  6
CONTINUOUS
 62
     7
 10
-263.1839017896
 20
60.8171773265
 11
-263.1648563394
 21
60.8196703597
  0
LINE
  8
1
  6
CONTINUOUS
 62
     7
 10
-263.0496974015
 20
60.8513256572
 11
-263.030765487
 21
60.8595631476
  0
LINE
  8
1
  6
CONTINUOUS
 62
     7
 10
-262.7834565601
 20
61.1060935563
 11
-262.7694817145
 21
61.1356438226
  0
LINE
  8
1
  6
CONTINUOUS
 62
     7
 10
-159.0926029938
 20
61.5888871395
 11
-159.0469818803
 21
61.6032440258
  0
LINE
  8
1
  6
CONTINUOUS
 62
     7
 10
-267.1125837628
 20
60.960051882
 11
-267.0958797548
 21
60.9440112351
  0
LINE
  8
1
  6
CONTINUOUS
 62
     7
 10
-267.0958797548
 20
60.9440112351
 11
-267.0786795351
 21
60.9289373878
  0
LINE
  8
1
  6
CONTINUOUS
 62
     7
 10
-267.0786795351
 20
60.9289373878
 11
-267.061029835
 21
60.9148394862
  0
LINE
  8
1
  6
CONTINUOUS
 62
     7
 10
-267.1287470562
 20
60.9770436769
 11
-267.1125837628
 21
60.960051882
  0
LINE
  8
1
  6
CONTINUOUS
 62
     7
 10
-267.061029835
 20
60.9148394862
 11
-267.0429791249
 21
60.9017208858
  0
LINE
  8
1
  6
CONTINUOUS
 62
     7
 10
-267.0429791249
 20
60.9017208858
 11
-267.0249083553
 21
60.8897891219
  0
LINE
  8
1
  6
CONTINUOUS
 62
     7
 10
-191.0458210588
 20
63.29759721950004
 11
-176.5458210588
 21
63.29759721950004
  0
LINE
  8
1
  6
CONTINUOUS
 62
     7
 10
-176.5458210588
 20
107.2975972195
 11
-191.0458210588
 21
107.2975972195
  0
LINE
  8
1
  6
CONTINUOUS
 62
     7
 10
-180.0458210588
 20
107.2975972195
 11
-180.0458210588
 21
63.29759721950004
  0
LINE
  8
1
  6
CONTINUOUS
 62
     7
 10
-191.0458210588
 20
64.8218396437
 11
-180.0458210588
 21
64.8218396437
  0
LINE
  8
1
  6
CONTINUOUS
 62
     7
 10
-191.0458210588
 20
85.75668812860002
 11
-180.0458210588
 21
85.75668812860002
  0
LINE
  8
1
  6
CONTINUOUS
 62
     7
 10
-191.0458210588
 20
66.64911237100004
 11
-180.0458210588
 21
66.64911237100004
  0
LINE
  8
1
  6
CONTINUOUS
 62
     7
 10
-191.0458210588
 20
98.97183964370001
 11
-180.0458210588
 21
98.97183964370001
  0
LINE
  8
1
  6
CONTINUOUS
 62
     7
 10
-191.0458210588
 20
101.4082032801
 11
-180.0458210588
 21
101.4082032801
  0
LINE
  8
1
  6
CONTINUOUS
 62
     7
 10
-180.0458210588
 20
74.8718396437
 11
-191.0458210588
 21
74.8718396437
  0
LINE
  8
1
  6
CONTINUOUS
 62
     7
 10
-191.0458210588
 20
73.2475972195
 11
-180.0458210588
 21
73.2475972195
  0
LINE
  8
1
  6
CONTINUOUS
 62
     7
 10
-191.0458210588
 20
103.3369911589
 11
-180.0458210588
 21
103.3369911589
  0
LINE
  8
1
  6
CONTINUOUS
 62
     7
 10
-191.0458210588
 20
72.4354760074
 11
-180.0458210588
 21
72.4354760074
  0
LINE
  8
1
  6
CONTINUOUS
 62
     7
 10
-191.0458210588
 20
70.81123358310002
 11
-180.0458210588
 21
70.81123358310002
  0
LINE
  8
1
  6
CONTINUOUS
 62
     7
 10
-191.0458210588
 20
102.1188093407
 11
-180.0458210588
 21
102.1188093407
  0
LINE
  8
1
  6
CONTINUOUS
 62
     7
 10
-191.0458210588
 20
106.9915366134
 11
-180.0458210588
 21
106.9915366134
  0
LINE
  8
1
  6
CONTINUOUS
 62
     7
 10
-180.0458210588
 20
88.65668812859997
 11
-191.0458210588
 21
88.65668812859997
  0
LINE
  8
1
  6
CONTINUOUS
 62
     7
 10
-180.0458210588
 20
75.88699115890005
 11
-191.0458210588
 21
75.88699115890005
  0
LINE
  8
1
  6
CONTINUOUS
 62
     7
 10
-191.0458210588
 20
93.693051765
 11
-180.0458210588
 21
93.693051765
  0
LINE
  8
1
  6
CONTINUOUS
 62
     7
 10
-191.0458210588
 20
92.47486994680001
 11
-180.0458210588
 21
92.47486994680001
  0
LINE
  8
1
  6
CONTINUOUS
 62
     7
 10
-191.0458210588
 20
97.34759721949995
 11
-180.0458210588
 21
97.34759721949995
  0
LINE
  8
1
  6
CONTINUOUS
 62
     7
 10
-191.0458210588
 20
68.47638509830003
 11
-180.0458210588
 21
68.47638509830003
  0
LINE
  8
1
  6
CONTINUOUS
 62
     7
 10
-180.0458210588
 20
67.86729418919998
 11
-191.0458210588
 21
67.86729418919998
  0
LINE
  8
1
  6
CONTINUOUS
 62
     7
 10
-191.0458210588
 20
69.99911237100001
 11
-180.0458210588
 21
69.99911237100001
  0
LINE
  8
1
  6
CONTINUOUS
 62
     7
 10
-191.0458210588
 20
65.43093055279999
 11
-180.0458210588
 21
65.43093055279999
  0
LINE
  8
1
  6
CONTINUOUS
 62
     7
 10
-191.0458210588
 20
71.62335479529999
 11
-180.0458210588
 21
71.62335479529999
  0
LINE
  8
1
  6
CONTINUOUS
 62
     7
 10
-191.0458210588
 20
69.1869911589
 11
-180.0458210588
 21
69.1869911589
  0
LINE
  8
1
  6
CONTINUOUS
 62
     7
 10
-191.0458210588
 20
67.25820328009999
 11
-180.0458210588
 21
67.25820328009999
  0
LINE
  8
1
  6
CONTINUOUS
 62
     7
 10
-191.0458210588
 20
100.596082068
 11
-180.0458210588
 21
100.596082068
  0
LINE
  8
1
  6
CONTINUOUS
 62
     7
 10
-180.0458210588
 20
83.33850631039999
 11
-191.0458210588
 21
83.33850631039999
  0
LINE
  8
1
  6
CONTINUOUS
 62
     7
 10
-191.0458210588
 20
103.946082068
 11
-180.0458210588
 21
103.946082068
  0
LINE
  8
1
  6
CONTINUOUS
 62
     7
 10
-191.0458210588
 20
78.1203244922
 11
-180.0458210588
 21
78.1203244922
  0
LINE
  8
1
  6
CONTINUOUS
 62
     7
 10
-191.0458210588
 20
96.5354760074
 11
-180.0458210588
 21
96.5354760074
  0
LINE
  8
1
  6
CONTINUOUS
 62
     7
 10
-191.0458210588
 20
63.60365782560004
 11
-180.0458210588
 21
63.60365782560004
  0
LINE
  8
1
  6
CONTINUOUS
 62
     7
 10
-180.0458210588
 20
87.25668812860002
 11
-191.0458210588
 21
87.25668812860002
  0
LINE
  8
1
  6
CONTINUOUS
 62
     7
 10
-180.0458210588
 20
94.70820328010002
 11
-191.0458210588
 21
94.70820328010002
  0
LINE
  8
1
  6
CONTINUOUS
 62
     7
 10
-191.0458210588
 20
79.33850631039998
 11
-180.0458210588
 21
79.33850631039998
  0
LINE
  8
1
  6
CONTINUOUS
 62
     7
 10
-180.0458210588
 20
102.7279002497999
 11
-191.0458210588
 21
102.7279002497999
  0
LINE
  8
1
  6
CONTINUOUS
 62
     7
 10
-180.0458210588
 20
90.05668812860004
 11
-191.0458210588
 21
90.05668812860004
  0
LINE
  8
1
  6
CONTINUOUS
 62
     7
 10
-191.0458210588
 20
99.78396085589999
 11
-180.0458210588
 21
99.78396085589999
  0
LINE
  8
1
  6
CONTINUOUS
 62
     7
 10
-191.0458210588
 20
64.2127487346
 11
-180.0458210588
 21
64.2127487346
  0
LINE
  8
1
  6
CONTINUOUS
 62
     7
 10
-191.0458210588
 20
76.902142674
 11
-180.0458210588
 21
76.902142674
  0
LINE
  8
1
  6
CONTINUOUS
 62
     7
 10
-191.0458210588
 20
66.0400214619
 11
-180.0458210588
 21
66.0400214619
  0
LINE
  8
1
  6
CONTINUOUS
 62
     7
 10
-191.0458210588
 20
74.0597184316
 11
-180.0458210588
 21
74.0597184316
  0
LINE
  8
1
  6
CONTINUOUS
 62
     7
 10
-191.0458210588
 20
91.25668812860002
 11
-180.0458210588
 21
91.25668812860002
  0
LINE
  8
1
  6
CONTINUOUS
 62
     7
 10
-180.0458210588
 20
80.53850631040002
 11
-191.0458210588
 21
80.53850631040002
  0
LINE
  8
1
  6
CONTINUOUS
 62
     7
 10
-180.0458210588
 20
95.7233547953
 11
-191.0458210588
 21
95.7233547953
  0
LINE
  8
1
  6
CONTINUOUS
 62
     7
 10
-191.0458210588
 20
84.83850631039999
 11
-180.0458210588
 21
84.83850631039999
  0
LINE
  8
1
  6
CONTINUOUS
 62
     7
 10
-191.0458210588
 20
98.15971843160001
 11
-180.0458210588
 21
98.15971843160001
  0
LINE
  8
1
  6
CONTINUOUS
 62
     7
 10
-180.0458210588
 20
81.93850631040003
 11
-191.0458210588
 21
81.93850631040003
  0
LINE
  8
1
  6
CONTINUOUS
 62
     7
 10
-191.0458210588
 20
105.7733547953
 11
-180.0458210588
 21
105.7733547953
  0
LINE
  8
1
  6
CONTINUOUS
 62
     7
 10
-191.0458210588
 20
107.2975972195
 11
-209.2060986655258
 21
104.3487891299131
  0
ARC
  8
1
  6
CONTINUOUS
 62
     7
 10
-209.0458210588
 20
103.3617171524047
 40
1.000000000000001
 50
99.2230098697463
 51
180.0
  0
LINE
  8
1
  6
CONTINUOUS
 62
     7
 10
-210.0458210588
 20
103.3617171524047
 11
-210.0458210588
 21
67.23347728659543
  0
ARC
  8
1
  6
CONTINUOUS
 62
     7
 10
-209.0458210588
 20
67.23347728659543
 40
1.000000000000001
 50
180.0
 51
260.7769901302538
  0
LINE
  8
1
  6
CONTINUOUS
 62
     7
 10
-209.2060986655258
 20
66.24640530908701
 11
-191.0458210588
 21
63.29759721950004
  0
LINE
  8
1
  6
CONTINUOUS
 62
     7
 10
-177.0458210588
 20
107.2975972195
 11
-177.0458210588
 21
63.29759721950001
  0
LINE
  8
1
  6
CONTINUOUS
 62
     7
 10
-191.0458210588
 20
106.3824457044
 11
-180.0458210588
 21
106.3824457044
  0
LINE
  8
1
  6
CONTINUOUS
 62
     7
 10
-191.0458210588
 20
105.1642638862
 11
-180.0458210588
 21
105.1642638862
  0
LINE
  8
1
  6
CONTINUOUS
 62
     7
 10
-191.0458210588
 20
107.2975972195
 11
-191.0458210588
 21
63.29759721950004
  0
LINE
  8
1
  6
CONTINUOUS
 62
     7
 10
-191.0458210588
 20
104.5551729771
 11
-180.0458210588
 21
104.5551729771
  0
LINE
  8
1
  6
CONTINUOUS
 62
     7
 10
-266.834233692
 20
60.8196346568
 11
-266.815513526
 21
60.8172117233
  0
LINE
  8
1
  6
CONTINUOUS
 62
     7
 10
-255.8323235958
 20
63.0808954132
 11
-255.8171460596
 21
63.10631107220001
  0
LINE
  8
1
  6
CONTINUOUS
 62
     7
 10
-266.8721077101
 20
60.8267282288
 11
-266.8531110721
 21
60.8227972678
  0
LINE
  8
1
  6
CONTINUOUS
 62
     7
 10
-255.8029861611
 20
63.13254986399999
 11
-255.7898906791
 21
63.1595466044
  0
LINE
  8
1
  6
CONTINUOUS
 62
     7
 10
-255.8655297412
 20
63.0327655461
 11
-255.848468931
 21
63.05636237339999
  0
LINE
  8
1
  6
CONTINUOUS
 62
     7
 10
-255.7898906791
 20
63.1595466044
 11
-255.7779027662
 21
63.1872306946
  0
LINE
  8
1
  6
CONTINUOUS
 62
     7
 10
-267.0249083553
 20
60.8897891219
 11
-267.0065461689
 21
60.8787970485
  0
LINE
  8
1
  6
CONTINUOUS
 62
     7
 10
-255.7779027662
 20
63.1872306946
 11
-255.7670614015
 21
63.2155264927
  0
LINE
  8
1
  6
CONTINUOUS
 62
     7
 10
-255.7670614015
 20
63.2155264927
 11
-255.7574008736
 21
63.2443537722
  0
LINE
  8
1
  6
CONTINUOUS
 62
     7
 10
-256.0465163736
 20
62.87108493430001
 11
-256.0193032883
 21
62.887980225
  0
LINE
  8
1
  6
CONTINUOUS
 62
     7
 10
-266.9879404979
 20
60.8687369055
 11
-266.9691392749
 21
60.859597641
  0
LINE
  8
1
  6
CONTINUOUS
 62
     7
 10
-256.0193032883
 20
62.887980225
 11
-255.9927209703
 21
62.90653776889999
  0
LINE
  8
1
  6
CONTINUOUS
 62
     7
 10
-266.9304459954
 20
60.843771829
 11
-266.9109923565
 21
60.8372211823
  0
LINE
  8
1
  6
CONTINUOUS
 62
     7
 10
-266.8915309753
 20
60.8315484861
 11
-266.8721077101
 21
60.8267282288
  0
LINE
  8
1
  6
CONTINUOUS
 62
     7
 10
-256.0742394555
 20
62.85585287040001
 11
-256.0465163736
 21
62.87108493430001
  0
LINE
  8
1
  6
CONTINUOUS
 62
     7
 10
-255.9668637288
 20
62.92675189709999
 11
-255.9418258468
 21
62.94860207390001
  0
LINE
  8
1
  6
CONTINUOUS
 62
     7
 10
-255.9021794782
 20
62.9885648608
 11
-255.8834517879
 21
63.0101525218
  0
LINE
  8
1
  6
CONTINUOUS
 62
     7
 10
-255.848468931
 20
63.05636237339999
 11
-255.8323235958
 21
63.0808954132
  0
LINE
  8
1
  6
CONTINUOUS
 62
     7
 10
-266.9109923565
 20
60.8372211823
 11
-266.8915309753
 21
60.8315484861
  0
LINE
  8
1
  6
CONTINUOUS
 62
     7
 10
-266.815513526
 20
60.8172117233
 11
-266.7970199633
 21
60.8155017844
  0
LINE
  8
1
  6
CONTINUOUS
 62
     7
 10
-267.0065461689
 20
60.8787970485
 11
-266.9879404979
 21
60.8687369055
  0
LINE
  8
1
  6
CONTINUOUS
 62
     7
 10
-255.9418258468
 20
62.94860207390001
 11
-255.9216564028
 21
62.9680381407
  0
LINE
  8
1
  6
CONTINUOUS
 62
     7
 10
-255.8171460596
 20
63.10631107220001
 11
-255.8029861611
 21
63.13254986399999
  0
LINE
  8
1
  6
CONTINUOUS
 62
     7
 10
-266.9691392749
 20
60.859597641
 11
-266.9498445135
 21
60.8512237221
  0
LINE
  8
1
  6
CONTINUOUS
 62
     7
 10
-266.9498445135
 20
60.8512237221
 11
-266.9304459954
 21
60.843771829
  0
LINE
  8
1
  6
CONTINUOUS
 62
     7
 10
-255.9216564028
 20
62.9680381407
 11
-255.9021794782
 21
62.9885648608
  0
LINE
  8
1
  6
CONTINUOUS
 62
     7
 10
-255.9927209703
 20
62.90653776889999
 11
-255.9668637288
 21
62.92675189709999
  0
LINE
  8
1
  6
CONTINUOUS
 62
     7
 10
-255.8834517879
 20
63.0101525218
 11
-255.8655297412
 21
63.0327655461
  0
LINE
  8
1
  6
CONTINUOUS
 62
     7
 10
-266.8531110721
 20
60.8227972678
 11
-266.834233692
 21
60.8196346568
  0
LINE
  8
1
  6
CONTINUOUS
 62
     7
 10
-274.0782181552
 20
62.96778127289999
 11
-274.0580218579
 21
62.9483578435
  0
LINE
  8
1
  6
CONTINUOUS
 62
     7
 10
-147.555439645
 20
84.2156060719
 11
-147.5134285163
 21
84.2350708757
  0
LINE
  8
1
  6
CONTINUOUS
 62
     7
 10
-162.6478858826
 20
69.1703384576
 11
-162.6499246214
 21
69.1682585289
  0
LINE
  8
1
  6
CONTINUOUS
 62
     7
 10
-162.6499246214
 20
69.1682585289
 11
-162.6834275847
 21
69.1318951595
  0
LINE
  8
1
  6
CONTINUOUS
 62
     7
 10
-162.714139963
 20
69.0942665306
 11
-162.7420674708
 21
69.0553669202
  0
LINE
  8
1
  6
CONTINUOUS
 62
     7
 10
-274.2582660952
 20
63.3031877343
 11
-274.2510484533
 21
63.2735308078
  0
LINE
  8
1
  6
CONTINUOUS
 62
     7
 10
-147.7382178704
 20
84.0829119144
 11
-147.7053795845
 21
84.1137998069
  0
LINE
  8
1
  6
CONTINUOUS
 62
     7
 10
-274.2642322656
 20
63.3331126277
 11
-274.2582660952
 21
63.3031877343
  0
LINE
  8
1
  6
CONTINUOUS
 62
     7
 10
-147.7053795845
 20
84.1137998069
 11
-147.6706654854
 21
84.1426240798
  0
LINE
  8
1
  6
CONTINUOUS
 62
     7
 10
-147.3771821792
 20
84.2773869791
 11
-147.3285562915
 21
84.2857941726
  0
LINE
  8
1
  6
CONTINUOUS
 62
     7
 10
-274.2100970043
 20
63.1593573412
 11
-274.1969953407
 21
63.1323404517
  0
LINE
  8
1
  6
CONTINUOUS
 62
     7
 10
-274.2510484533
 20
63.2735308078
 11
-274.2425966815
 21
63.2442328243
  0
LINE
  8
1
  6
CONTINUOUS
 62
     7
 10
-147.3285562915
 20
84.2857941726
 11
-147.2784426219
 21
84.2911911903
  0
LINE
  8
1
  6
CONTINUOUS
 62
     7
 10
-147.4696804822
 20
84.2519251638
 11
-147.4242456676
 21
84.2660644556
  0
LINE
  8
1
  6
CONTINUOUS
 62
     7
 10
-147.2269242659
 20
84.2934874363
 11
-147.1740929217
 21
84.292597096
  0
LINE
  8
1
  6
CONTINUOUS
 62
     7
 10
-147.1740929217
 20
84.292597096
 11
-147.1200489686
 21
84.2884396932
  0
LINE
  8
1
  6
CONTINUOUS
 62
     7
 10
-255.7574008736
 20
63.2443537722
 11
-255.7489503049
 21
63.2736282627
  0
LINE
  8
1
  6
CONTINUOUS
 62
     7
 10
-255.7417332297
 20
63.3032622662
 11
-255.7357672338
 21
63.333165341
  0
LINE
  8
1
  6
CONTINUOUS
 62
     7
 10
-274.1164668125
 20
63.00988728950001
 11
-274.0977186495
 21
62.9883011356
  0
LINE
  8
1
  6
CONTINUOUS
 62
     7
 10
-274.1514821027
 20
63.0561083192
 11
-274.134406428
 21
63.03250369880001
  0
LINE
  8
1
  6
CONTINUOUS
 62
     7
 10
-273.9804219873
 20
62.88782852749999
 11
-273.9531693428
 21
62.8709644576
  0
LINE
  8
1
  6
CONTINUOUS
 62
     7
 10
-274.0977186495
 20
62.9883011356
 11
-274.0782181552
 21
62.96778127289999
  0
LINE
  8
1
  6
CONTINUOUS
 62
     7
 10
-274.2689358565
 20
63.3632125323
 11
-274.2642322656
 21
63.3331126277
  0
LINE
  8
1
  6
CONTINUOUS
 62
     7
 10
-255.7489503049
 20
63.2736282627
 11
-255.7417332297
 21
63.3032622662
  0
LINE
  8
1
  6
CONTINUOUS
 62
     7
 10
-147.6706654854
 20
84.1426240798
 11
-147.6340892984
 21
84.1692735335
  0
LINE
  8
1
  6
CONTINUOUS
 62
     7
 10
-274.0580218579
 20
62.9483578435
 11
-274.0329471626
 21
62.9265310234
  0
LINE
  8
1
  6
CONTINUOUS
 62
     7
 10
-274.232934069
 20
63.21538203439999
 11
-274.2220894942
 21
63.1870632738
  0
LINE
  8
1
  6
CONTINUOUS
 62
     7
 10
-147.6340892984
 20
84.1692735335
 11
-147.5956715102
 21
84.1936374659
  0
LINE
  8
1
  6
CONTINUOUS
 62
     7
 10
-274.1828274236
 20
63.1060837736
 11
-274.1676398048
 21
63.08065305169999
  0
LINE
  8
1
  6
CONTINUOUS
 62
     7
 10
-147.1197578073
 20
84.288687115
 11
-147.1744356528
 21
84.291204341
  0
LINE
  8
1
  6
CONTINUOUS
 62
     7
 10
-147.2276113591
 20
84.2909297929
 11
-147.2792896339
 21
84.2878587577
  0
LINE
  8
1
  6
CONTINUOUS
 62
     7
 10
-274.2723722001
 20
63.3933933016
 11
-274.2689358565
 21
63.3632125323
  0
LINE
  8
1
  6
CONTINUOUS
 62
     7
 10
-274.2220894942
 20
63.1870632738
 11
-274.2100970043
 21
63.1593573412
  0
LINE
  8
1
  6
CONTINUOUS
 62
     7
 10
-274.0070479067
 20
62.90634963940001
 11
-273.9804219873
 21
62.88782852749999
  0
LINE
  8
1
  6
CONTINUOUS
 62
     7
 10
-147.3781728069
 20
84.2733083056
 11
-147.4253871967
 21
84.2618193998
  0
LINE
  8
1
  6
CONTINUOUS
 62
     7
 10
-147.5956715102
 20
84.1936374659
 11
-147.555439645
 21
84.2156060719
  0
LINE
  8
1
  6
CONTINUOUS
 62
     7
 10
-147.1744356528
 20
84.291204341
 11
-147.2276113591
 21
84.2909297929
  0
LINE
  8
1
  6
CONTINUOUS
 62
     7
 10
-255.7357672338
 20
63.333165341
 11
-255.7310636665
 21
63.36324504189999
  0
LINE
  8
1
  6
CONTINUOUS
 62
     7
 10
-255.7276274324
 20
63.3934077044
 11
-255.7254568674
 21
63.4235592579
  0
LINE
  8
1
  6
CONTINUOUS
 62
     7
 10
-147.4253871967
 20
84.2618193998
 11
-147.4711231306
 21
84.2475150312
  0
LINE
  8
1
  6
CONTINUOUS
 62
     7
 10
-255.7310636665
 20
63.36324504189999
 11
-255.7276274324
 21
63.3934077044
  0
LINE
  8
1
  6
CONTINUOUS
 62
     7
 10
-147.5581786945
 20
84.2104408475
 11
-147.5995078571
 21
84.1876614946
  0
LINE
  8
1
  6
CONTINUOUS
 62
     7
 10
-147.2784426219
 20
84.2911911903
 11
-147.2269242659
 21
84.2934874363
  0
LINE
  8
1
  6
CONTINUOUS
 62
     7
 10
-147.4711231306
 20
84.2475150312
 11
-147.5153853745
 21
84.2303904367
  0
LINE
  8
1
  6
CONTINUOUS
 62
     7
 10
-147.6393776298
 20
84.1620476156
 11
-147.6777927722
 21
84.1335944509
  0
LINE
  8
1
  6
CONTINUOUS
 62
     7
 10
-147.7147580329
 20
84.1022972467
 11
-147.748727007
 21
84.0697325699
  0
LINE
  8
1
  6
CONTINUOUS
 62
     7
 10
-274.2745431904
 20
63.42356041789999
 11
-274.2723722001
 21
63.3933933016
  0
LINE
  8
1
  6
CONTINUOUS
 62
     7
 10
-274.1676398048
 20
63.08065305169999
 11
-274.1514821027
 21
63.0561083192
  0
LINE
  8
1
  6
CONTINUOUS
 62
     7
 10
-147.5134285163
 20
84.2350708757
 11
-147.4696804822
 21
84.2519251638
  0
LINE
  8
1
  6
CONTINUOUS
 62
     7
 10
-274.134406428
 20
63.03250369880001
 11
-274.1164668125
 21
63.00988728950001
  0
LINE
  8
1
  6
CONTINUOUS
 62
     7
 10
-274.0329471626
 20
62.9265310234
 11
-274.0070479067
 21
62.90634963940001
  0
LINE
  8
1
  6
CONTINUOUS
 62
     7
 10
-147.2792896339
 20
84.2878587577
 11
-147.3294752025
 21
84.2819865076
  0
LINE
  8
1
  6
CONTINUOUS
 62
     7
 10
-147.3294752025
 20
84.2819865076
 11
-147.3781728069
 21
84.2733083056
  0
LINE
  8
1
  6
CONTINUOUS
 62
     7
 10
-147.5995078571
 20
84.1876614946
 11
-147.6393776298
 21
84.1620476156
  0
LINE
  8
1
  6
CONTINUOUS
 62
     7
 10
-147.5153853745
 20
84.2303904367
 11
-147.5581786945
 21
84.2104408475
  0
LINE
  8
1
  6
CONTINUOUS
 62
     7
 10
-274.2425966815
 20
63.2442328243
 11
-274.232934069
 21
63.21538203439999
  0
LINE
  8
1
  6
CONTINUOUS
 62
     7
 10
-147.6777927722
 20
84.1335944509
 11
-147.7147580329
 21
84.1022972467
  0
LINE
  8
1
  6
CONTINUOUS
 62
     7
 10
-273.9531693428
 20
62.8709644576
 11
-273.9254128034
 21
62.8557590667
  0
LINE
  8
1
  6
CONTINUOUS
 62
     7
 10
-147.4242456676
 20
84.2660644556
 11
-147.3771821792
 21
84.2773869791
  0
LINE
  8
1
  6
CONTINUOUS
 62
     7
 10
-274.1969953407
 20
63.1323404517
 11
-274.1828274236
 21
63.1060837736
  0
LINE
  8
1
  6
CONTINUOUS
 62
     7
 10
-162.8260429354
 20
68.8869445621
 11
-162.8401315765
 21
68.8416045756
  0
LINE
  8
1
  6
CONTINUOUS
 62
     7
 10
-162.8694247154
 20
68.5952169919
 11
-162.8670921499
 21
68.5419631197
  0
LINE
  8
1
  6
CONTINUOUS
 62
     7
 10
-156.74722884
 20
65.055486708
 11
-156.7154736257
 21
65.0291039303
  0
LINE
  8
1
  6
CONTINUOUS
 62
     7
 10
-156.7154736257
 20
65.0291039303
 11
-156.6828826594
 21
65.0040050571
  0
LINE
  8
1
  6
CONTINUOUS
 62
     7
 10
-156.3201629607
 20
64.8259761106
 11
-156.2805751792
 21
64.8159959391
  0
LINE
  8
1
  6
CONTINUOUS
 62
     7
 10
-156.1283553189
 20
64.7931449077
 11
-156.0918481949
 21
64.7913140667
  0
LINE
  8
1
  6
CONTINUOUS
 62
     7
 10
-156.0918481949
 20
64.7913140667
 11
-156.055377154
 21
64.7909214905
  0
LINE
  8
1
  6
CONTINUOUS
 62
     7
 10
-156.6156168773
 20
64.9577970105
 11
-156.5811463325
 21
64.9367477298
  0
LINE
  8
1
  6
CONTINUOUS
 62
     7
 10
-156.2805751792
 20
64.8159959391
 11
-156.2413144523
 21
64.8077577543
  0
LINE
  8
1
  6
CONTINUOUS
 62
     7
 10
-155.8257382105
 20
64.8242122272
 11
-155.7970019474
 21
64.8332851232
  0
LINE
  8
1
  6
CONTINUOUS
 62
     7
 10
-162.7672158229
 20
69.0151906159
 11
-162.7895907267
 21
68.9737319154
  0
LINE
  8
1
  6
CONTINUOUS
 62
     7
 10
-155.9176645105
 20
64.8030103468
 11
-155.8860754019
 21
64.8090160694
  0
LINE
  8
1
  6
CONTINUOUS
 62
     7
 10
-156.6495625297
 20
64.980225485
 11
-156.6156168773
 21
64.9577970105
  0
LINE
  8
1
  6
CONTINUOUS
 62
     7
 10
-156.5462484453
 20
64.917101947
 11
-156.5110176102
 21
64.8988800933
  0
LINE
  8
1
  6
CONTINUOUS
 62
     7
 10
-162.8659151884
 20
68.697731843
 11
-162.8690342178
 21
68.6471380725
  0
LINE
  8
1
  6
CONTINUOUS
 62
     7
 10
-151.1336793297
 20
69.6550742789
 11
-151.1331198434
 21
69.6550492309
  0
LINE
  8
1
  6
CONTINUOUS
 62
     7
 10
-156.4399184205
 20
64.8667701343
 11
-156.3999380451
 21
64.8513373709
  0
LINE
  8
1
  6
CONTINUOUS
 62
     7
 10
-162.8600621086
 20
68.7470038118
 11
-162.8659151884
 21
68.697731843
  0
LINE
  8
1
  6
CONTINUOUS
 62
     7
 10
-162.8690342178
 20
68.6471380725
 11
-162.8694247154
 21
68.5952169919
  0
LINE
  8
1
  6
CONTINUOUS
 62
     7
 10
-151.2401844539
 20
69.6682016405
 11
-151.1336793297
 21
69.6550742789
  0
LINE
  8
1
  6
CONTINUOUS
 62
     7
 10
-156.7780388197
 20
65.083114502
 11
-156.74722884
 21
65.055486708
  0
LINE
  8
1
  6
CONTINUOUS
 62
     7
 10
-156.3999380451
 20
64.8513373709
 11
-156.3599838631
 21
64.8377433755
  0
LINE
  8
1
  6
CONTINUOUS
 62
     7
 10
-156.3599838631
 20
64.8377433755
 11
-156.3201629607
 21
64.8259761106
  0
LINE
  8
1
  6
CONTINUOUS
 62
     7
 10
-156.2031584998
 20
64.8013162376
 11
-156.1654812107
 21
64.7964617873
  0
LINE
  8
1
  6
CONTINUOUS
 62
     7
 10
-156.1654812107
 20
64.7964617873
 11
-156.1283553189
 21
64.7931449077
  0
LINE
  8
1
  6
CONTINUOUS
 62
     7
 10
-156.0196717474
 20
64.7919557338
 11
-155.9847862357
 21
64.7943566877
  0
LINE
  8
1
  6
CONTINUOUS
 62
     7
 10
-155.7618379167
 20
64.8460898294
 11
-155.7282842951
 21
64.8601485608
  0
LINE
  8
1
  6
CONTINUOUS
 62
     7
 10
-177.0458210588
 20
107.2975972195
 11
-177.0458210588
 21
63.2975972195
  0
LINE
  8
1
  6
CONTINUOUS
 62
     7
 10
-139.6962941814
 20
80.8111284552
 11
-141.5891595717
 21
78.9182630649
  0
LINE
  8
1
  6
CONTINUOUS
 62
     7
 10
-160.0444173285
 20
61.8074694147
 11
-164.1416039243
 21
65.5237798065
  0
LINE
  8
1
  6
CONTINUOUS
 62
     7
 10
-151.479817487
 20
69.7539673089
 11
-151.357313784
 21
69.7007725493
  0
LINE
  8
1
  6
CONTINUOUS
 62
     7
 10
-164.485021843
 20
65.2105829555
 11
-165.3047611828
 21
66.1044806633
  0
LINE
  8
1
  6
CONTINUOUS
 62
     7
 10
-144.682303022
 20
86.7261133617
 11
-143.7888535445
 21
85.9067508681
  0
LINE
  8
1
  6
CONTINUOUS
 62
     7
 10
-162.7420674708
 20
69.0553669202
 11
-162.7672158229
 21
69.0151906159
  0
LINE
  8
1
  6
CONTINUOUS
 62
     7
 10
-162.8514694311
 20
68.7949595287
 11
-162.8600621086
 21
68.7470038118
  0
LINE
  8
1
  6
CONTINUOUS
 62
     7
 10
-156.6828826594
 20
65.0040050571
 11
-156.6495625297
 21
64.980225485
  0
LINE
  8
1
  6
CONTINUOUS
 62
     7
 10
-156.055377154
 20
64.7909214905
 11
-156.0196717474
 21
64.7919557338
  0
LINE
  8
1
  6
CONTINUOUS
 62
     7
 10
-155.9507693716
 20
64.7980626215
 11
-155.9176645105
 21
64.8030103468
  0
LINE
  8
1
  6
CONTINUOUS
 62
     7
 10
-162.8401315765
 20
68.8416045756
 11
-162.8514694311
 21
68.7949595287
  0
LINE
  8
1
  6
CONTINUOUS
 62
     7
 10
-156.5811463325
 20
64.9367477298
 11
-156.5462484453
 21
64.917101947
  0
LINE
  8
1
  6
CONTINUOUS
 62
     7
 10
-155.6963752301
 20
64.8752974323
 11
-155.6661417686
 21
64.8913752736
  0
LINE
  8
1
  6
CONTINUOUS
 62
     7
 10
-155.6661417686
 20
64.8913752736
 11
-155.6362934503
 21
64.9090432909
  0
LINE
  8
1
  6
CONTINUOUS
 62
     7
 10
-155.8860754019
 20
64.8090160694
 11
-155.8554322241
 21
64.8160977555
  0
LINE
  8
1
  6
CONTINUOUS
 62
     7
 10
-147.7383419827
 20
84.0827878309
 11
-147.7500635431
 21
84.0710662705
  0
LINE
  8
1
  6
CONTINUOUS
 62
     7
 10
-142.4717788846
 20
95.0062065005
 11
-173.5844772568
 21
63.8935081283
  0
LINE
  8
1
  6
CONTINUOUS
 62
     7
 10
-156.2413144523
 20
64.8077577543
 11
-156.2031584998
 21
64.8013162376
  0
LINE
  8
1
  6
CONTINUOUS
 62
     7
 10
-155.7282842951
 20
64.8601485608
 11
-155.6963752301
 21
64.8752974323
  0
LINE
  8
1
  6
CONTINUOUS
 62
     7
 10
-141.0575653222
 20
93.5919929381
 11
-172.1702636944
 21
62.4792945659
  0
LINE
  8
1
  6
CONTINUOUS
 62
     7
 10
-155.8554322241
 20
64.8160977555
 11
-155.8257382105
 21
64.8242122272
  0
LINE
  8
1
  6
CONTINUOUS
 62
     7
 10
-155.9847862357
 20
64.7943566877
 11
-155.9507693716
 21
64.7980626215
  0
LINE
  8
1
  6
CONTINUOUS
 62
     7
 10
-151.357313784
 20
69.7007725493
 11
-151.2401844539
 21
69.6682016405
  0
LINE
  8
1
  6
CONTINUOUS
 62
     7
 10
-156.5110176102
 20
64.8988800933
 11
-156.475544987
 21
64.8820986583
  0
LINE
  8
1
  6
CONTINUOUS
 62
     7
 10
-156.475544987
 20
64.8820986583
 11
-156.4399184205
 21
64.8667701343
  0
LINE
  8
1
  6
CONTINUOUS
 62
     7
 10
-141.5917781465
 20
78.9217344856
 11
-141.6024812153
 21
78.9049331512
  0
LINE
  8
1
  6
CONTINUOUS
 62
     7
 10
-155.6362934503
 20
64.9090432909
 11
-155.6083323819
 21
64.9273816131
  0
LINE
  8
1
  6
CONTINUOUS
 62
     7
 10
-158.6740010739
 20
61.8334215626
 11
-158.8004519149
 21
61.7282724461
  0
LINE
  8
1
  6
CONTINUOUS
 62
     7
 10
-145.636295052
 20
74.8711275846
 11
-153.449282209
 21
67.0581404276
  0
LINE
  8
1
  6
CONTINUOUS
 62
     7
 10
-155.7970019474
 20
64.8332851232
 11
-155.7618379167
 21
64.8460898294
  0
LINE
  8
1
  6
CONTINUOUS
 62
     7
 10
-155.6083323819
 20
64.9273816131
 11
-155.5822817109
 21
64.946206337
  0
LINE
  8
1
  6
CONTINUOUS
 62
     7
 10
-157.4964702465
 20
63.0109523901
 11
-158.6740010634
 21
61.8334215718
  0
LINE
  8
1
  6
CONTINUOUS
 62
     7
 10
-144.1020316783
 20
85.5633500353
 11
-140.3857594915
 21
81.4661306856
  0
LINE
  8
1
  6
CONTINUOUS
 62
     7
 10
-148.2366790689
 20
72.5427443387
 11
-148.2568688805
 21
72.7043421013
  0
LINE
  8
1
  6
CONTINUOUS
 62
     7
 10
-162.809197871
 20
68.9309851223
 11
-162.8260429354
 21
68.8869445621
  0
LINE
  8
1
  6
CONTINUOUS
 62
     7
 10
-140.071734503
 20
81.8103023008
 11
-139.7303461406
 21
81.4488715828
  0
LINE
  8
1
  6
CONTINUOUS
 62
     7
 10
-155.8232039098
 20
73.8930766048
 11
-151.8260170679
 21
69.9990181273
  0
LINE
  8
1
  6
CONTINUOUS
 62
     7
 10
-167.5740696168
 20
67.0754886461
 11
-160.85483375
 21
60.9961800047
  0
LINE
  8
1
  6
CONTINUOUS
 62
     7
 10
-141.6024876192
 20
78.9049350174
 11
-145.6305943253
 21
74.8768283113
  0
LINE
  8
1
  6
CONTINUOUS
 62
     7
 10
-148.3553682185
 20
72.1736146488
 11
-148.229523506
 21
72.4897503773
  0
LINE
  8
1
  6
CONTINUOUS
 62
     7
 10
-139.6576609141
 20
80.8559763326
 11
-139.6962871315
 21
80.8111258772
  0
LINE
  8
1
  6
CONTINUOUS
 62
     7
 10
-157.862876418
 20
71.8327283753
 11
-153.9053574806
 21
67.9766795394
  0
LINE
  8
1
  6
CONTINUOUS
 62
     7
 10
-153.4550012704
 20
67.0524213662
 11
-157.4831309305
 21
63.02429170610001
  0
LINE
  8
1
  6
CONTINUOUS
 62
     7
 10
-270.2146821352
 20
62.9279969347
 11
-270.1975227638
 21
62.0438306762
  0
LINE
  8
1
  6
CONTINUOUS
 62
     7
 10
-139.574450817
 20
82.2765629815
 11
-145.6537594376
 21
88.9957988253
  0
LINE
  8
1
  6
CONTINUOUS
 62
     7
 10
-259.7501173268
 20
61.7252281523
 11
-259.6475538752
 21
61.640734891
  0
LINE
  8
1
  6
CONTINUOUS
 62
     7
 10
-156.7780170993
 20
65.0830835522
 11
-160.824189584
 21
68.8504026889
  0
LINE
  8
1
  6
CONTINUOUS
 62
     7
 10
-148.2568688805
 20
72.7043421013
 11
-148.3058365251
 21
72.8727867007
  0
LINE
  8
1
  6
CONTINUOUS
 62
     7
 10
-148.6089472147
 20
73.2730895608
 11
-148.307565183
 21
72.8718895883
  0
LINE
  8
1
  6
CONTINUOUS
 62
     7
 10
-147.204953934
 20
99.0915971886
 11
-147.1584432486
 21
99.1196104389
  0
LINE
  8
1
  6
CONTINUOUS
 62
     7
 10
-162.2625785784
 20
67.4330262201
 11
-158.2169997901
 21
63.66503722980001
  0
LINE
  8
1
  6
CONTINUOUS
 62
     7
 10
-175.0458210588
 20
105.7975972195
 11
-175.0458210588
 21
64.7975972195
  0
LINE
  8
1
  6
CONTINUOUS
 62
     7
 10
-270.7695462681
 20
61.5674664153
 11
-270.7329865837
 21
61.5565499099
  0
LINE
  8
1
  6
CONTINUOUS
 62
     7
 10
-259.2459785462
 20
61.5631774755
 11
-259.2228757095
 21
61.5698257212
  0
LINE
  8
1
  6
CONTINUOUS
 62
     7
 10
-146.5276352078
 20
99.0620628237
 11
-141.0575653223
 21
93.591992938
  0
LINE
  8
1
  6
CONTINUOUS
 62
     7
 10
-270.7769857615
 20
61.5696806174
 11
-270.3471422829
 21
61.6313092886
  0
LINE
  8
1
  6
CONTINUOUS
 62
     7
 10
-143.5203107488
 20
77.0093224337
 11
-143.5910757773
 21
76.9163468593
  0
LINE
  8
1
  6
CONTINUOUS
 62
     7
 10
-157.4831244659
 20
63.02429365540001
 11
-157.4999744928
 21
63.01356294630001
  0
LINE
  8
1
  6
CONTINUOUS
 62
     7
 10
-160.3885730742
 20
61.4934637296
 11
-160.0273293389
 21
61.1520698856
  0
LINE
  8
1
  6
CONTINUOUS
 62
     7
 10
-148.6029542222
 20
73.2741400199
 11
-152.4709735162
 21
77.2445009528
  0
LINE
  8
1
  6
CONTINUOUS
 62
     7
 10
-151.1331198434
 20
69.6550492309
 11
-151.1036005066
 21
69.6544091964
  0
LINE
  8
1
  6
CONTINUOUS
 62
     7
 10
-152.4687261615
 20
79.3524050129
 11
-152.4729502959
 21
79.3481808785
  0
LINE
  8
1
  6
CONTINUOUS
 62
     7
 10
-157.9264660924
 20
73.8946648222
 11
-157.9311194575
 21
73.8900114571
  0
LINE
  8
1
  6
CONTINUOUS
 62
     7
 10
-145.6602825573
 20
74.855188503
 11
-145.6362915712
 21
74.8711274959
  0
LINE
  8
1
  6
CONTINUOUS
 62
     7
 10
-142.2433079832
 20
79.6387290213
 11
-146.0112963531
 21
83.6843071437
  0
LINE
  8
1
  6
CONTINUOUS
 62
     7
 10
-153.4492771793
 20
67.0581422997
 11
-153.4332501297
 21
67.0823061725
  0
LINE
  8
1
  6
CONTINUOUS
 62
     7
 10
-141.8756544455
 20
79.3038064224
 11
-142.2433078775
 21
79.6387289006
  0
LINE
  8
1
  6
CONTINUOUS
 62
     7
 10
-140.071734605
 20
81.810302415
 11
-143.78885311
 21
85.9067503893
  0
LINE
  8
1
  6
CONTINUOUS
 62
     7
 10
-153.4332501297
 20
67.0823061725
 11
-153.5904408427
 21
67.5881654021
  0
LINE
  8
1
  6
CONTINUOUS
 62
     7
 10
-153.905357366
 20
67.9766794378
 11
-153.5916766225
 21
67.5875285141
  0
LINE
  8
1
  6
CONTINUOUS
 62
     7
 10
-175.0458210588
 20
65.3548519303
 11
-172.1702636975
 21
62.4792945628
  0
LINE
  8
1
  6
CONTINUOUS
 62
     7
 10
-158.6749535441
 20
61.8324713141
 11
-159.3893891479
 21
61.1180356641
  0
LINE
  8
1
  6
CONTINUOUS
 62
     7
 10
-256.06395985
 20
62.8614194104
 11
-256.0366822466
 21
62.8760165368
  0
LINE
  8
1
  6
CONTINUOUS
 62
     7
 10
-156.1306070234
 20
60.699860351
 11
-139.2781311074
 21
77.5523362671
  0
LINE
  8
1
  6
CONTINUOUS
 62
     7
 10
-158.3664786655
 20
61.2924158337
 11
-139.87068659
 21
79.7882079092
  0
LINE
  8
1
  6
CONTINUOUS
 62
     7
 10
-259.6527940913
 20
61.6312950501
 11
-259.2459785462
 21
61.5631774755
  0
LINE
  8
1
  6
CONTINUOUS
 62
     7
 10
-270.3524856643
 20
61.6407555694
 11
-270.2498590188
 21
61.7252206339
  0
LINE
  8
1
  6
CONTINUOUS
 62
     7
 10
-287.0
 20
80.8640708767
 11
-287.0
 21
78.035643752
  0
LINE
  8
1
  6
CONTINUOUS
 62
     7
 10
-164.4850218439
 20
65.2105829546
 11
-160.3885731884
 21
61.4934638315
  0
LINE
  8
1
  6
CONTINUOUS
 62
     7
 10
-262.7023390482
 20
61.43610713
 11
-262.680406476
 21
62.56600436079999
  0
LINE
  8
1
  6
CONTINUOUS
 62
     7
 10
-158.2169996641
 20
63.6650371192
 11
-157.8818466862
 21
63.29736869380001
  0
LINE
  8
1
  6
CONTINUOUS
 62
     7
 10
-148.229523506
 20
72.4897503773
 11
-148.2567990225
 21
72.7046309335
  0
LINE
  8
1
  6
CONTINUOUS
 62
     7
 10
-243.0
 20
78.035643752
 11
-243.0
 21
80.8640708767
  0
LINE
  8
1
  6
CONTINUOUS
 62
     7
 10
-155.4945318876
 20
65.012890749
 11
-155.5873064644
 21
64.9422382969
  0
LINE
  8
1
  6
CONTINUOUS
 62
     7
 10
-143.885992447
 20
96.4204200628
 11
-174.9986908192
 21
65.3077216906
  0
LINE
  8
1
  6
CONTINUOUS
 62
     7
 10
-139.6274054789
 20
80.8800171577
 11
-139.6789086176
 21
80.828514019
  0
LINE
  8
1
  6
CONTINUOUS
 62
     7
 10
-148.3528100453
 20
72.1763219094
 11
-148.365273503
 21
72.1421491336
  0
LINE
  8
1
  6
CONTINUOUS
 62
     7
 10
-146.554950191
 20
75.3270865948
 11
-146.1652947324
 21
75.0141104705
  0
LINE
  8
1
  6
CONTINUOUS
 62
     7
 10
-159.4067727994
 20
61.1006498372
 11
-159.4768145387
 21
61.0306080979
  0
LINE
  8
1
  6
CONTINUOUS
 62
     7
 10
-170.018757335
 20
75.5962742698
 11
-170.0182469729
 21
75.5957639077
  0
LINE
  8
1
  6
CONTINUOUS
 62
     7
 10
-156.8377138046
 20
61.4069671322
 11
-139.9852378886
 21
78.2594430482
  0
LINE
  8
1
  6
CONTINUOUS
 62
     7
 10
-151.1036048471
 20
69.6544061624
 11
-150.7168591498
 21
69.7905601829
  0
LINE
  8
1
  6
CONTINUOUS
 62
     7
 10
-146.5549502925
 20
75.3270867094
 11
-150.4109984974
 21
79.2846049994
  0
LINE
  8
1
  6
CONTINUOUS
 62
     7
 10
-259.8024772337
 20
62.0438306754
 11
-259.7853178623
 21
62.9279969353
  0
LINE
  8
1
  6
CONTINUOUS
 62
     7
 10
-146.1661165484
 20
75.0124752385
 11
-145.6602825573
 21
74.855188503
  0
LINE
  8
1
  6
CONTINUOUS
 62
     7
 10
-158.8234514441
 20
61.7130671328
 11
-158.793820423
 21
61.7333965498
  0
LINE
  8
1
  6
CONTINUOUS
 62
     7
 10
-147.2125651736
 20
99.0909413609
 11
-153.3332328389
 21
93.9550913804
  0
LINE
  8
1
  6
CONTINUOUS
 62
     7
 10
-158.3664786655
 20
61.2924158337
 11
-156.8377138046
 21
61.4069671322
  0
LINE
  8
1
  6
CONTINUOUS
 62
     7
 10
-140.3112628215
 20
80.2159319362
 11
-140.2930295338
 21
80.2424401729
  0
LINE
  8
1
  6
CONTINUOUS
 62
     7
 10
-270.1975227545
 20
62.043830569
 11
-270.2516241019
 21
61.7260971598
  0
LINE
  8
1
  6
CONTINUOUS
 62
     7
 10
-143.6613536193
 20
78.1997527956
 11
-147.4484839925
 21
82.2671882893
  0
ENDSEC
  0
EOF
