  0
SECTION
  2
HEADER
  9
$ACADVER
  1
AC1006
  9
$DWGCODEPAGE
  3
ansi_932
  9
$INSBASE
 10
0.0
 20
0.0
 30
0.0
  9
$EXTMIN
 10
57.72253461573876
 20
81.10699622208496
  9
$EXTMAX
 10
130.8811591262515
 20
149.0244678300369
  9
$LIMMIN
 10
0.0
 20
0.0
  9
$LIMMAX
 10
12.0
 20
9.0
  9
$ORTHOMODE
 70
     0
  9
$REGENMODE
 70
     1
  9
$FILLMODE
 70
     1
  9
$QTEXTMODE
 70
     0
  9
$MIRRTEXT
 70
     1
  9
$DRAGMODE
 70
     2
  9
$LTSCALE
 40
1.0
  9
$OSMODE
 70
    37
  9
$ATTMODE
 70
     1
  9
$TEXTSIZE
 40
0.2
  9
$TRACEWID
 40
0.05
  9
$TEXTSTYLE
  7
STANDARD
  9
$CLAYER
  8
0
  9
$CELTYPE
  6
BYLAYER
  9
$CECOLOR
 62
   256
  9
$DIMSCALE
 40
1.0
  9
$DIMASZ
 40
3.0
  9
$DIMEXO
 40
0.0625
  9
$DIMDLI
 40
0.38
  9
$DIMRND
 40
0.0
  9
$DIMDLE
 40
0.0
  9
$DIMEXE
 40
1.5
  9
$DIMTP
 40
0.0
  9
$DIMTM
 40
0.0
  9
$DIMTXT
 40
3.0
  9
$DIMCEN
 40
0.09
  9
$DIMTSZ
 40
0.0
  9
$DIMTOL
 70
     0
  9
$DIMLIM
 70
     0
  9
$DIMTIH
 70
     1
  9
$DIMTOH
 70
     1
  9
$DIMSE1
 70
     0
  9
$DIMSE2
 70
     0
  9
$DIMTAD
 70
     1
  9
$DIMZIN
 70
     0
  9
$DIMBLK
  1

  9
$DIMASO
 70
     1
  9
$DIMSHO
 70
     1
  9
$DIMPOST
  1

  9
$DIMAPOST
  1

  9
$DIMALT
 70
     0
  9
$DIMALTD
 70
     2
  9
$DIMALTF
 40
25.4
  9
$DIMLFAC
 40
1.0
  9
$DIMTOFL
 70
     0
  9
$DIMTVP
 40
0.0
  9
$DIMTIX
 70
     0
  9
$DIMSOXD
 70
     0
  9
$DIMSAH
 70
     0
  9
$DIMBLK1
  1

  9
$DIMBLK2
  1

  9
$LUNITS
 70
     2
  9
$LUPREC
 70
     4
  9
$SKETCHINC
 40
0.1
  9
$FILLETRAD
 40
0.5
  9
$AUNITS
 70
     0
  9
$AUPREC
 70
     0
  9
$MENU
  1
.
  9
$ELEVATION
 40
0.0
  9
$THICKNESS
 40
0.0
  9
$LIMCHECK
 70
     0
  9
$CHAMFERA
 40
0.0
  9
$CHAMFERB
 40
0.0
  9
$SKPOLY
 70
     0
  9
$TDCREATE
 40
2460745.661425475
  9
$TDUPDATE
 40
2460745.661425706
  9
$TDINDWG
 40
0.0000000116
  9
$TDUSRTIMER
 40
0.0000000116
  9
$USRTIMER
 70
     1
  9
$ANGBASE
 50
0.0
  9
$ANGDIR
 70
     0
  9
$PDMODE
 70
     0
  9
$PDSIZE
 40
0.0
  9
$PLINEWID
 40
0.0
  9
$COORDS
 70
     1
  9
$SPLFRAME
 70
     0
  9
$SPLINETYPE
 70
     6
  9
$SPLINESEGS
 70
     8
  9
$ATTDIA
 70
     0
  9
$ATTREQ
 70
     1
  9
$HANDLING
 70
     1
  9
$HANDSEED
  5
1DF
  9
$SURFTAB1
 70
     6
  9
$SURFTAB2
 70
     6
  9
$SURFTYPE
 70
     6
  9
$SURFU
 70
     6
  9
$SURFV
 70
     6
  9
$UCSNAME
  2

  9
$UCSORG
 10
0.0
 20
0.0
 30
0.0
  9
$UCSXDIR
 10
1.0
 20
0.0
 30
0.0
  9
$UCSYDIR
 10
0.0
 20
1.0
 30
0.0
  9
$USERI1
 70
     0
  9
$USERI2
 70
     0
  9
$USERI3
 70
     0
  9
$USERI4
 70
     0
  9
$USERI5
 70
     0
  9
$USERR1
 40
0.0
  9
$USERR2
 40
0.0
  9
$USERR3
 40
0.0
  9
$USERR4
 40
0.0
  9
$USERR5
 40
0.0
  9
$WORLDVIEW
 70
     1
  0
ENDSEC
  0
SECTION
  2
TABLES
  0
TABLE
  2
VPORT
 70
     1
  0
VPORT
  2
*ACTIVE
 70
     0
 10
0.0
 20
0.0
 11
1.0
 21
1.0
 12
94.30184687099512
 22
115.0657320260609
 13
0.0
 23
0.0
 14
0.5
 24
0.5
 15
0.5
 25
0.5
 16
0.0
 26
0.0
 36
1.0
 17
0.0
 27
0.0
 37
0.0
 40
67.91747160795198
 41
1.6
 42
50.0
 43
0.0
 44
0.0
 50
0.0
 51
0.0
 71
     0
 72
   100
 73
     1
 74
     3
 75
     0
 76
     0
 77
     0
 78
     0
  0
ENDTAB
  0
TABLE
  2
LTYPE
 70
     2
  0
LTYPE
  2
CONTINUOUS
 70
     0
  3
Solid line
 72
    65
 73
     0
 40
0.0
  0
LTYPE
  2
CENTER
 70
     0
  3

 72
    65
 73
     0
 40
0.0
  0
ENDTAB
  0
TABLE
  2
LAYER
 70
     2
  0
LAYER
  2
0
 70
     0
 62
     7
  6
CONTINUOUS
  0
LAYER
  2
1
 70
     0
 62
     7
  6
CONTINUOUS
  0
ENDTAB
  0
TABLE
  2
STYLE
 70
     2
  0
STYLE
  2
STANDARD
 70
     0
 40
0.0
 41
1.0
 50
0.0
 71
     0
 42
0.2
  3
txt
  4

  0
STYLE
  2
ＭＳ_ゴシック
 70
     0
 40
0.0
 41
1.0
 50
0.0
 71
     0
 42
0.2
  3
ＭＳ ゴシック.shx
  4

  0
ENDTAB
  0
TABLE
  2
VIEW
 70
     0
  0
ENDTAB
  0
TABLE
  2
UCS
 70
     0
  0
ENDTAB
  0
ENDSEC
  0
SECTION
  2
BLOCKS
  0
BLOCK
  8
0
  2
D_FRAME_VIEW_3056
 70
     0
 10
0.0
 20
0.0
 30
0.0
  0
LINE
  5
76
  8
1
  6
CONTINUOUS
 62
     7
 10
83.28154813978658
 20
95.87384675731148
 30
0.0
 11
83.30599209571001
 21
96.00669742395421
 31
0.0
  0
LINE
  5
77
  8
1
  6
CONTINUOUS
 62
     7
 10
83.27191288509287
 20
95.50699622208495
 30
0.0
 11
83.28154813978658
 21
95.87384675731148
 31
0.0
  0
LINE
  5
78
  8
1
  6
CONTINUOUS
 62
     7
 10
83.45670125306475
 20
85.00699622208496
 30
0.0
 11
83.27191288509287
 21
95.50699622208495
 31
0.0
  0
LINE
  5
79
  8
1
  6
CONTINUOUS
 62
     7
 10
78.9391178491792
 20
85.00699622208496
 30
0.0
 11
83.45670125306475
 21
85.00699622208496
 31
0.0
  0
LINE
  5
7A
  8
1
  6
CONTINUOUS
 62
     7
 10
76.8147443028866
 20
96.00669742395417
 30
0.0
 11
78.1137824085627
 21
96.0066974239542
 31
0.0
  0
LINE
  5
7B
  8
1
  6
CONTINUOUS
 62
     7
 10
76.50830214614153
 20
95.87384675731151
 30
0.0
 11
76.8147443028866
 21
96.00669742395417
 31
0.0
  0
LINE
  5
7C
  8
1
  6
CONTINUOUS
 62
     7
 10
76.36469199568526
 20
95.50699622208495
 30
0.0
 11
76.50830214614153
 21
95.87384675731151
 31
0.0
  0
LINE
  5
7D
  8
1
  6
CONTINUOUS
 62
     7
 10
76.4570861796712
 20
85.00699622208496
 30
0.0
 11
76.36469199568526
 21
95.50699622208495
 31
0.0
  0
LINE
  5
7E
  8
1
  6
CONTINUOUS
 62
     7
 10
66.78798305180631
 20
85.00699622208496
 30
0.0
 11
76.45708617967121
 21
85.00699622208496
 31
0.0
  0
LINE
  5
7F
  8
1
  6
CONTINUOUS
 62
     7
 10
66.88037723579225
 20
95.50699622208495
 30
0.0
 11
66.78798305180631
 21
85.00699622208496
 31
0.0
  0
LINE
  5
80
  8
1
  6
CONTINUOUS
 62
     7
 10
66.73676708533598
 20
95.8738467573115
 30
0.0
 11
66.88037723579225
 21
95.50699622208495
 31
0.0
  0
LINE
  5
81
  8
1
  6
CONTINUOUS
 62
     7
 10
66.43032492859146
 20
96.0066974239542
 30
0.0
 11
66.73676708533598
 21
95.8738467573115
 31
0.0
  0
LINE
  5
82
  8
1
  6
CONTINUOUS
 62
     7
 10
65.13128682291482
 20
96.0066974239542
 30
0.0
 11
66.43032492859146
 21
96.0066974239542
 31
0.0
  0
LINE
  5
83
  8
1
  6
CONTINUOUS
 62
     7
 10
59.78836797841275
 20
85.00699622208496
 30
0.0
 11
64.30595138229832
 21
85.00699622208496
 31
0.0
  0
LINE
  5
84
  8
1
  6
CONTINUOUS
 62
     7
 10
59.97315634638463
 20
95.50699622208495
 30
0.0
 11
59.78836797841275
 21
85.00699622208496
 31
0.0
  0
LINE
  5
85
  8
1
  6
CONTINUOUS
 62
     7
 10
59.96352109168959
 20
95.87384675732753
 30
0.0
 11
59.97315634638463
 21
95.50699622208495
 31
0.0
  0
LINE
  5
86
  8
1
  6
CONTINUOUS
 62
     7
 10
59.93907713576749
 20
96.00669742395421
 30
0.0
 11
59.96352109168959
 21
95.87384675732753
 31
0.0
  0
LINE
  5
87
  8
1
  6
CONTINUOUS
 62
     7
 10
66.53802133012584
 20
85.00699622208496
 30
0.0
 11
65.85497034991408
 21
85.00699622208496
 31
0.0
  0
LINE
  5
88
  8
1
  6
CONTINUOUS
 62
     7
 10
77.39009888156342
 20
85.00699622208496
 30
0.0
 11
76.70704790135167
 21
85.00699622208496
 31
0.0
  0
LINE
  5
89
  8
1
  6
CONTINUOUS
 62
     7
 10
62.07284084229509
 20
107.006996222085
 30
0.0
 11
81.17222838918242
 21
107.006996222085
 31
0.0
  0
LINE
  5
8A
  8
1
  6
CONTINUOUS
 62
     7
 10
65.85497034991408
 20
85.00699622208496
 30
0.0
 11
64.55593224423741
 21
85.00699622208496
 31
0.0
  0
LINE
  5
8B
  8
1
  6
CONTINUOUS
 62
     7
 10
78.68913698724009
 20
85.00699622208496
 30
0.0
 11
77.39009888156342
 21
85.00699622208496
 31
0.0
  0
LINE
  5
8C
  8
1
  6
CONTINUOUS
 62
     7
 10
66.78798305180631
 20
85.00699622208496
 30
0.0
 11
66.53802133012584
 21
85.00699622208496
 31
0.0
  0
LINE
  5
8D
  8
1
  6
CONTINUOUS
 62
     7
 10
76.70704790135167
 20
85.00699622208496
 30
0.0
 11
76.4570861796712
 21
85.00699622208496
 31
0.0
  0
LINE
  5
8E
  8
1
  6
CONTINUOUS
 62
     7
 10
64.55593224423741
 20
85.00699622208496
 30
0.0
 11
64.30595138229832
 21
85.00699622208496
 31
0.0
  0
LINE
  5
8F
  8
1
  6
CONTINUOUS
 62
     7
 10
78.9391178491792
 20
85.00699622208496
 30
0.0
 11
78.68913698724009
 21
85.00699622208496
 31
0.0
  0
LINE
  5
90
  8
1
  6
CONTINUOUS
 62
     7
 10
59.78836797841275
 20
85.00699622208496
 30
0.0
 11
59.28844453505183
 21
85.00699622208496
 31
0.0
  0
ARC
  5
91
  8
1
  6
CONTINUOUS
 62
     7
 10
59.96352109169092
 20
95.00699622208495
 30
0.0
 40
1.000000000000006
 50
91.40067501815423
 51
178.9974261962398
  0
LINE
  5
92
  8
1
  6
CONTINUOUS
 62
     7
 10
58.78836797841274
 20
85.00699622208496
 30
0.0
 11
58.96367418152899
 21
95.02449354301278
 31
0.0
  0
LINE
  5
93
  8
1
  6
CONTINUOUS
 62
     7
 10
59.28844453505183
 20
85.00699622208496
 30
0.0
 11
58.78836797841274
 21
85.00699622208496
 31
0.0
  0
ARC
  5
94
  8
1
  6
CONTINUOUS
 62
     7
 10
83.28154813978658
 20
95.00699622208495
 30
0.0
 40
1.000000000000004
 50
1.002573803760129
 51
88.59932498184548
  0
LINE
  5
95
  8
1
  6
CONTINUOUS
 62
     7
 10
84.28139504994851
 20
95.02449354301278
 30
0.0
 11
84.45670125306475
 21
85.00699622208496
 31
0.0
  0
LINE
  5
96
  8
1
  6
CONTINUOUS
 62
     7
 10
84.45670125306475
 20
85.00699622208496
 30
0.0
 11
83.95662469642568
 21
85.00699622208496
 31
0.0
  0
LINE
  5
97
  8
1
  6
CONTINUOUS
 62
     7
 10
83.95662469642568
 20
85.00699622208496
 30
0.0
 11
83.45670125306475
 21
85.00699622208496
 31
0.0
  0
LINE
  5
98
  8
1
  6
CONTINUOUS
 62
     7
 10
83.33005518875844
 20
96.00582062096022
 30
0.0
 11
83.17192220950628
 21
105.0419908639406
 31
0.0
  0
LINE
  5
99
  8
1
  6
CONTINUOUS
 62
     7
 10
60.07314702197122
 20
105.0419908639406
 30
0.0
 11
59.91501404271907
 21
96.00582062096022
 31
0.0
  0
ARC
  5
9A
  8
1
  6
CONTINUOUS
 62
     7
 10
62.07284084229508
 20
105.006996222085
 30
0.0
 40
2.000000000000002
 50
89.99999999999977
 51
178.9974261962402
  0
ARC
  5
9B
  8
1
  6
CONTINUOUS
 62
     7
 10
81.17222838918244
 20
105.006996222085
 30
0.0
 40
1.999999999999997
 50
1.002573803759882
 51
90.00000000000026
  0
LINE
  5
9C
  8
1
  6
CONTINUOUS
 62
     7
 10
64.393566212862
 20
95.02011971507801
 30
0.0
 11
64.30595138229832
 21
85.00699622208496
 31
0.0
  0
LINE
  5
9D
  8
1
  6
CONTINUOUS
 62
     7
 10
78.9391178491792
 20
85.00699622208496
 30
0.0
 11
78.8515030186155
 21
95.02011971507801
 31
0.0
  0
POLYLINE
  5
9E
  8
1
  6
CONTINUOUS
 62
     7
 66
     1
 10
0.0
 20
0.0
 30
0.0
  0
VERTEX
  5
13D
  8
1
  6
CONTINUOUS
 62
     7
 10
65.11458251740392
 20
96.0063265332506
 30
0.0
  0
VERTEX
  5
13E
  8
1
  6
CONTINUOUS
 62
     7
 10
65.01481751011974
 20
95.99362577807473
 30
0.0
  0
VERTEX
  5
13F
  8
1
  6
CONTINUOUS
 62
     7
 10
64.88943024674924
 20
95.95341768699348
 30
0.0
  0
VERTEX
  5
140
  8
1
  6
CONTINUOUS
 62
     7
 10
64.79991484811394
 20
95.90569961590019
 30
0.0
  0
VERTEX
  5
141
  8
1
  6
CONTINUOUS
 62
     7
 10
64.71488061383656
 20
95.84208734959081
 30
0.0
  0
VERTEX
  5
142
  8
1
  6
CONTINUOUS
 62
     7
 10
64.63462629294891
 20
95.76042229010542
 30
0.0
  0
VERTEX
  5
143
  8
1
  6
CONTINUOUS
 62
     7
 10
64.55998727776156
 20
95.6570300886867
 30
0.0
  0
SEQEND
  5
1CE
  8
1
  6
CONTINUOUS
 62
     7
  0
ARC
  5
9F
  8
1
  6
CONTINUOUS
 62
     7
 10
65.55590270311485
 20
95.06857851190297
 30
0.0
 40
1.15677257603899
 50
149.4226452031985
 51
171.6531757452045
  0
POLYLINE
  5
A0
  8
1
  6
CONTINUOUS
 62
     7
 66
     1
 10
0.0
 20
0.0
 30
0.0
  0
VERTEX
  5
144
  8
1
  6
CONTINUOUS
 62
     7
 10
64.41138325753118
 20
95.23650120648804
 30
0.0
  0
VERTEX
  5
145
  8
1
  6
CONTINUOUS
 62
     7
 10
64.39572346095343
 20
95.08841661613107
 30
0.0
  0
VERTEX
  5
146
  8
1
  6
CONTINUOUS
 62
     7
 10
64.393566212862
 20
95.02011971507801
 30
0.0
  0
SEQEND
  5
1CF
  8
1
  6
CONTINUOUS
 62
     7
  0
ARC
  5
A1
  8
1
  6
CONTINUOUS
 62
     7
 10
77.55007285427857
 20
95.02496762902193
 30
0.0
 40
1.301439193706584
 50
359.7865703967184
 51
25.99758542454458
  0
POLYLINE
  5
A2
  8
1
  6
CONTINUOUS
 62
     7
 66
     1
 10
0.0
 20
0.0
 30
0.0
  0
VERTEX
  5
147
  8
1
  6
CONTINUOUS
 62
     7
 10
78.71982269490553
 20
95.59543172541088
 30
0.0
  0
VERTEX
  5
148
  8
1
  6
CONTINUOUS
 62
     7
 10
78.64608451985411
 20
95.7151264254781
 30
0.0
  0
VERTEX
  5
149
  8
1
  6
CONTINUOUS
 62
     7
 10
78.56765800782765
 20
95.80702138860718
 30
0.0
  0
VERTEX
  5
14A
  8
1
  6
CONTINUOUS
 62
     7
 10
78.48491339955828
 20
95.87845452361648
 30
0.0
  0
VERTEX
  5
14B
  8
1
  6
CONTINUOUS
 62
     7
 10
78.39213751557105
 20
95.9360701456898
 30
0.0
  0
VERTEX
  5
14C
  8
1
  6
CONTINUOUS
 62
     7
 10
78.29382434095832
 20
95.97680738709607
 30
0.0
  0
VERTEX
  5
14D
  8
1
  6
CONTINUOUS
 62
     7
 10
78.19444208286059
 20
96.00006196249332
 30
0.0
  0
VERTEX
  5
14E
  8
1
  6
CONTINUOUS
 62
     7
 10
78.11849173888952
 20
96.0067668509505
 30
0.0
  0
SEQEND
  5
1D0
  8
1
  6
CONTINUOUS
 62
     7
  0
ENDBLK
  8
0
  0
BLOCK
  8
0
  2
D_FRAME_VIEW_2935
 70
     0
 10
0.0
 20
0.0
 30
0.0
  0
LINE
  5
A7
  8
1
  6
CONTINUOUS
 62
     7
 10
126.9811591262515
 20
134.374467830037
 30
0.0
 11
126.9811591262515
 21
133.874467830037
 31
0.0
  0
LINE
  5
A8
  8
1
  6
CONTINUOUS
 62
     7
 10
126.9811591262515
 20
133.874467830037
 30
0.0
 11
116.9724104657876
 21
133.874467830037
 31
0.0
  0
LINE
  5
A9
  8
1
  6
CONTINUOUS
 62
     7
 10
116.9724104657876
 20
136.374467830037
 30
0.0
 11
126.9811591262515
 21
136.374467830037
 31
0.0
  0
LINE
  5
AA
  8
1
  6
CONTINUOUS
 62
     7
 10
126.9811591262515
 20
136.374467830037
 30
0.0
 11
126.9811591262515
 21
135.874467830037
 31
0.0
  0
LINE
  5
AB
  8
1
  6
CONTINUOUS
 62
     7
 10
126.9811591262515
 20
135.874467830037
 30
0.0
 11
126.9811591262515
 21
134.374467830037
 31
0.0
  0
LINE
  5
AC
  8
1
  6
CONTINUOUS
 62
     7
 10
115.9814579243822
 20
134.374467830037
 30
0.0
 11
115.9814579243822
 21
135.874467830037
 31
0.0
  0
LINE
  5
AD
  8
1
  6
CONTINUOUS
 62
     7
 10
116.9724104657876
 20
133.874467830037
 30
0.0
 11
116.4811591262515
 21
133.874467830037
 31
0.0
  0
ARC
  5
AE
  8
1
  6
CONTINUOUS
 62
     7
 10
116.4811591262515
 20
134.374467830037
 30
0.0
 40
0.5000000000000036
 50
222.8024280828532
 51
270.0
  0
LINE
  5
AF
  8
1
  6
CONTINUOUS
 62
     7
 10
116.1143085910249
 20
134.0347316311944
 30
0.0
 11
115.9814579243822
 21
134.374467830037
 31
0.0
  0
ARC
  5
B0
  8
1
  6
CONTINUOUS
 62
     7
 10
116.4811591262515
 20
135.874467830037
 30
0.0
 40
0.5000000000000004
 50
90.00000000000001
 51
137.1975719198372
  0
LINE
  5
B1
  8
1
  6
CONTINUOUS
 62
     7
 10
116.4811591262515
 20
136.374467830037
 30
0.0
 11
116.9724104657876
 21
136.374467830037
 31
0.0
  0
LINE
  5
B2
  8
1
  6
CONTINUOUS
 62
     7
 10
115.9814579243822
 20
135.874467830037
 30
0.0
 11
116.114308591009
 21
136.2142040288623
 31
0.0
  0
LINE
  5
B3
  8
1
  6
CONTINUOUS
 62
     7
 10
126.9811591262515
 20
123.224467830037
 30
0.0
 11
126.9811591262515
 21
123.5677750690183
 31
0.0
  0
LINE
  5
B4
  8
1
  6
CONTINUOUS
 62
     7
 10
116.4811591262515
 20
125.6608103104819
 30
0.0
 11
126.9811591262515
 21
125.5007788894944
 31
0.0
  0
LINE
  5
B5
  8
1
  6
CONTINUOUS
 62
     7
 10
116.1143085910249
 20
125.5723340345665
 30
0.0
 11
116.4811591262515
 21
125.6608103104819
 31
0.0
  0
LINE
  5
B6
  8
1
  6
CONTINUOUS
 62
     7
 10
115.9814579243822
 20
125.3812968483465
 30
0.0
 11
116.1143085910249
 21
125.5723340345665
 31
0.0
  0
LINE
  5
B7
  8
1
  6
CONTINUOUS
 62
     7
 10
115.9814579243822
 20
124.6312968483456
 30
0.0
 11
115.9814579243822
 21
125.3812968483465
 31
0.0
  0
LINE
  5
B8
  8
1
  6
CONTINUOUS
 62
     7
 10
115.9814579243822
 20
144.8676388117273
 30
0.0
 11
115.9814579243822
 21
145.6176388117274
 31
0.0
  0
LINE
  5
B9
  8
1
  6
CONTINUOUS
 62
     7
 10
116.1143085910256
 20
144.6766016255071
 30
0.0
 11
115.9814579243822
 21
144.8676388117273
 31
0.0
  0
LINE
  5
BA
  8
1
  6
CONTINUOUS
 62
     7
 10
116.4811591262515
 20
144.588125349592
 30
0.0
 11
116.1143085910256
 21
144.6766016255071
 31
0.0
  0
LINE
  5
BB
  8
1
  6
CONTINUOUS
 62
     7
 10
126.9811591262515
 20
144.7481567705795
 30
0.0
 11
116.4811591262515
 21
144.588125349592
 31
0.0
  0
LINE
  5
BC
  8
1
  6
CONTINUOUS
 62
     7
 10
126.9811591262515
 20
146.6811605910556
 30
0.0
 11
126.9811591262515
 21
147.0244678300369
 31
0.0
  0
LINE
  5
BD
  8
1
  6
CONTINUOUS
 62
     7
 10
126.9811591262515
 20
125.5007788894944
 30
0.0
 11
126.9811591262515
 21
133.874467830037
 31
0.0
  0
LINE
  5
BE
  8
1
  6
CONTINUOUS
 62
     7
 10
126.9811591262515
 20
136.374467830037
 30
0.0
 11
126.9811591262515
 21
144.7481567705795
 31
0.0
  0
LINE
  5
BF
  8
1
  6
CONTINUOUS
 62
     7
 10
104.9811591262515
 20
125.5747740565933
 30
0.0
 11
104.9811591262515
 21
135.124467830037
 31
0.0
  0
LINE
  5
C0
  8
1
  6
CONTINUOUS
 62
     7
 10
104.9811591262515
 20
135.124467830037
 30
0.0
 11
104.9811591262515
 21
144.6741616034806
 31
0.0
  0
LINE
  5
C1
  8
1
  6
CONTINUOUS
 62
     7
 10
126.9811591262515
 20
125.0678324875964
 30
0.0
 11
126.9811591262515
 21
124.3847534857099
 31
0.0
  0
LINE
  5
C2
  8
1
  6
CONTINUOUS
 62
     7
 10
126.9811591262515
 20
145.864182174364
 30
0.0
 11
126.9811591262515
 21
145.1811031724775
 31
0.0
  0
LINE
  5
C3
  8
1
  6
CONTINUOUS
 62
     7
 10
126.9811591262515
 20
125.5007788894944
 30
0.0
 11
126.9811591262515
 21
125.0678324875964
 31
0.0
  0
LINE
  5
C4
  8
1
  6
CONTINUOUS
 62
     7
 10
126.9811591262515
 20
145.1811031724775
 30
0.0
 11
126.9811591262515
 21
144.7481567705795
 31
0.0
  0
LINE
  5
C5
  8
1
  6
CONTINUOUS
 62
     7
 10
126.9811591262515
 20
146.614182174364
 30
0.0
 11
126.9811591262515
 21
145.864182174364
 31
0.0
  0
LINE
  5
C6
  8
1
  6
CONTINUOUS
 62
     7
 10
126.9811591262515
 20
124.3847534857099
 30
0.0
 11
126.9811591262515
 21
123.6347534857099
 31
0.0
  0
LINE
  5
C7
  8
1
  6
CONTINUOUS
 62
     7
 10
126.9811591262515
 20
146.6811605910556
 30
0.0
 11
126.9811591262515
 21
146.614182174364
 31
0.0
  0
LINE
  5
C8
  8
1
  6
CONTINUOUS
 62
     7
 10
126.9811591262515
 20
123.6347534857099
 30
0.0
 11
126.9811591262515
 21
123.5677750690183
 31
0.0
  0
LINE
  5
C9
  8
1
  6
CONTINUOUS
 62
     7
 10
126.9811591262515
 20
147.0244678300369
 30
0.0
 11
106.9461644843958
 21
146.6738554238045
 31
0.0
  0
LINE
  5
CA
  8
1
  6
CONTINUOUS
 62
     7
 10
106.9461644843958
 20
123.5750802362694
 30
0.0
 11
126.9811591262515
 21
123.224467830037
 31
0.0
  0
ARC
  5
CB
  8
1
  6
CONTINUOUS
 62
     7
 10
106.9811591262515
 20
125.5747740565933
 30
0.0
 40
2.000000000000002
 50
179.9999999999997
 51
268.9974261962401
  0
ARC
  5
CC
  8
1
  6
CONTINUOUS
 62
     7
 10
106.9811591262515
 20
144.6741616034806
 30
0.0
 40
2.000000000000011
 50
91.00257380375987
 51
180.0000000000002
  0
LINE
  5
CD
  8
1
  6
CONTINUOUS
 62
     7
 10
126.9811591262515
 20
146.6811605910556
 30
0.0
 11
116.9648336136086
 21
146.5293587249914
 31
0.0
  0
LINE
  5
CE
  8
1
  6
CONTINUOUS
 62
     7
 10
116.9648336136086
 20
123.7195769350825
 30
0.0
 11
126.9811591262515
 21
123.5677750690183
 31
0.0
  0
ARC
  5
CF
  8
1
  6
CONTINUOUS
 62
     7
 10
116.9792485185389
 20
145.4694027561903
 30
0.0
 40
1.060053982248677
 50
90.77914774551849
 51
115.4529886957998
  0
POLYLINE
  5
D0
  8
1
  6
CONTINUOUS
 62
     7
 66
     1
 10
0.0
 20
0.0
 30
0.0
  0
VERTEX
  5
14F
  8
1
  6
CONTINUOUS
 62
     7
 10
116.5236687169274
 20
146.4265660074933
 30
0.0
  0
VERTEX
  5
150
  8
1
  6
CONTINUOUS
 62
     7
 10
116.3933782136113
 20
146.3519684203551
 30
0.0
  0
VERTEX
  5
151
  8
1
  6
CONTINUOUS
 62
     7
 10
116.2775617741853
 20
146.260313997049
 30
0.0
  0
VERTEX
  5
152
  8
1
  6
CONTINUOUS
 62
     7
 10
116.1788542968076
 20
146.1543228635168
 30
0.0
  0
VERTEX
  5
153
  8
1
  6
CONTINUOUS
 62
     7
 10
116.0991331508631
 20
146.0369874697385
 30
0.0
  0
VERTEX
  5
154
  8
1
  6
CONTINUOUS
 62
     7
 10
116.0395405375359
 20
145.9113152487135
 30
0.0
  0
VERTEX
  5
155
  8
1
  6
CONTINUOUS
 62
     7
 10
116.0006333012294
 20
145.7801578427454
 30
0.0
  0
VERTEX
  5
156
  8
1
  6
CONTINUOUS
 62
     7
 10
115.9825706565424
 20
145.6461527110892
 30
0.0
  0
VERTEX
  5
157
  8
1
  6
CONTINUOUS
 62
     7
 10
115.9818454039772
 20
145.6311189025569
 30
0.0
  0
SEQEND
  5
1D1
  8
1
  6
CONTINUOUS
 62
     7
  0
LINE
  5
D1
  8
1
  6
CONTINUOUS
 62
     7
 10
115.9818454039772
 20
145.6311189025569
 30
0.0
 11
115.9811591262515
 21
145.5964697249287
 31
0.0
  0
LINE
  5
D2
  8
1
  6
CONTINUOUS
 62
     7
 10
115.9814572731077
 20
124.6296256717622
 30
0.0
 11
115.9815903005462
 21
124.6249997918976
 31
0.0
  0
POLYLINE
  5
D3
  8
1
  6
CONTINUOUS
 62
     7
 66
     1
 10
0.0
 20
0.0
 30
0.0
  0
VERTEX
  5
158
  8
1
  6
CONTINUOUS
 62
     7
 10
115.9815903005462
 20
124.6249997918976
 30
0.0
  0
VERTEX
  5
159
  8
1
  6
CONTINUOUS
 62
     7
 10
115.9911114237776
 20
124.5208296864786
 30
0.0
  0
VERTEX
  5
15A
  8
1
  6
CONTINUOUS
 62
     7
 10
116.0214822100196
 20
124.389569012569
 30
0.0
  0
VERTEX
  5
15B
  8
1
  6
CONTINUOUS
 62
     7
 10
116.0718822530824
 20
124.2633265512188
 30
0.0
  0
VERTEX
  5
15C
  8
1
  6
CONTINUOUS
 62
     7
 10
116.1417474704553
 20
124.1444560636909
 30
0.0
  0
VERTEX
  5
15D
  8
1
  6
CONTINUOUS
 62
     7
 10
116.2302312006253
 20
124.0354231431296
 30
0.0
  0
VERTEX
  5
15E
  8
1
  6
CONTINUOUS
 62
     7
 10
116.3360519478571
 20
123.9387930823936
 30
0.0
  0
VERTEX
  5
15F
  8
1
  6
CONTINUOUS
 62
     7
 10
116.4573492260715
 20
123.8571304614707
 30
0.0
  0
SEQEND
  5
1D2
  8
1
  6
CONTINUOUS
 62
     7
  0
ARC
  5
D4
  8
1
  6
CONTINUOUS
 62
     7
 10
116.9784378276013
 20
124.7746906651684
 30
0.0
 40
1.055201430085384
 50
240.4074661895023
 51
269.2612920925176
  0
ENDBLK
  8
0
  0
BLOCK
  8
0
  2
D_FRAME_VIEW_2626
 70
     0
 10
0.0
 20
0.0
 30
0.0
  0
LINE
  5
DB
  8
1
  6
CONTINUOUS
 62
     7
 10
83.28154813978792
 20
136.2142040288623
 30
0.0
 11
83.27191288509287
 21
136.374467830037
 31
0.0
  0
LINE
  5
DC
  8
1
  6
CONTINUOUS
 62
     7
 10
83.30599209571001
 20
135.874467830037
 30
0.0
 11
83.28154813978792
 21
136.2142040288623
 31
0.0
  0
LINE
  5
DD
  8
1
  6
CONTINUOUS
 62
     7
 10
83.30599209571001
 20
134.374467830037
 30
0.0
 11
83.30599209571001
 21
135.874467830037
 31
0.0
  0
LINE
  5
DE
  8
1
  6
CONTINUOUS
 62
     7
 10
83.28154813978658
 20
134.0347316311944
 30
0.0
 11
83.30599209571001
 21
134.374467830037
 31
0.0
  0
LINE
  5
DF
  8
1
  6
CONTINUOUS
 62
     7
 10
83.27191288509287
 20
133.874467830037
 30
0.0
 11
83.28154813978658
 21
134.0347316311944
 31
0.0
  0
ARC
  5
E0
  8
1
  6
CONTINUOUS
 62
     7
 10
71.62253461573876
 20
135.124467830037
 30
0.0
 40
11.89999999999999
 50
306.0295873326889
 51
353.970412667311
  0
LINE
  5
E1
  8
1
  6
CONTINUOUS
 62
     7
 10
78.39578060938379
 20
125.5723340345665
 30
0.0
 11
78.52975550514635
 21
125.6608103104819
 31
0.0
  0
LINE
  5
E2
  8
1
  6
CONTINUOUS
 62
     7
 10
78.1137824085627
 20
125.3812968483465
 30
0.0
 11
78.39578060938379
 21
125.5723340345665
 31
0.0
  0
LINE
  5
E3
  8
1
  6
CONTINUOUS
 62
     7
 10
76.8147443028866
 20
124.6312968483456
 30
0.0
 11
78.1137824085627
 21
125.3812968483465
 31
0.0
  0
LINE
  5
E4
  8
1
  6
CONTINUOUS
 62
     7
 10
76.50830214614153
 20
124.4825978357239
 30
0.0
 11
76.8147443028866
 21
124.6312968483456
 31
0.0
  0
LINE
  5
E5
  8
1
  6
CONTINUOUS
 62
     7
 10
76.36469199568526
 20
124.4108103104819
 30
0.0
 11
76.50830214614153
 21
124.4825978357239
 31
0.0
  0
ARC
  5
E6
  8
1
  6
CONTINUOUS
 62
     7
 10
71.62253461573876
 20
135.124467830037
 30
0.0
 40
11.89999999999999
 50
246.029587332689
 51
293.9704126673111
  0
LINE
  5
E7
  8
1
  6
CONTINUOUS
 62
     7
 10
66.73676708533598
 20
124.4825978357239
 30
0.0
 11
66.88037723579225
 21
124.4108103104819
 31
0.0
  0
LINE
  5
E8
  8
1
  6
CONTINUOUS
 62
     7
 10
66.43032492859146
 20
124.6312968483465
 30
0.0
 11
66.73676708533598
 21
124.4825978357239
 31
0.0
  0
LINE
  5
E9
  8
1
  6
CONTINUOUS
 62
     7
 10
65.13128682291482
 20
125.3812968483466
 30
0.0
 11
66.43032492859146
 21
124.6312968483465
 31
0.0
  0
LINE
  5
EA
  8
1
  6
CONTINUOUS
 62
     7
 10
64.8492886220931
 20
125.5723340345668
 30
0.0
 11
65.13128682291482
 21
125.3812968483466
 31
0.0
  0
LINE
  5
EB
  8
1
  6
CONTINUOUS
 62
     7
 10
64.71531372633115
 20
125.6608103104819
 30
0.0
 11
64.8492886220931
 21
125.5723340345668
 31
0.0
  0
ARC
  5
EC
  8
1
  6
CONTINUOUS
 62
     7
 10
71.62253461573876
 20
135.124467830037
 30
0.0
 40
11.89999999999999
 50
186.0295873326889
 51
233.970412667311
  0
LINE
  5
ED
  8
1
  6
CONTINUOUS
 62
     7
 10
59.96352109168959
 20
134.0347316312117
 30
0.0
 11
59.97315634638463
 21
133.874467830037
 31
0.0
  0
LINE
  5
EE
  8
1
  6
CONTINUOUS
 62
     7
 10
59.93907713576749
 20
134.374467830037
 30
0.0
 11
59.96352109168959
 21
134.0347316312117
 31
0.0
  0
LINE
  5
EF
  8
1
  6
CONTINUOUS
 62
     7
 10
59.93907713576749
 20
135.874467830037
 30
0.0
 11
59.93907713576749
 21
134.374467830037
 31
0.0
  0
LINE
  5
F0
  8
1
  6
CONTINUOUS
 62
     7
 10
59.96352109169092
 20
136.2142040288795
 30
0.0
 11
59.93907713576749
 21
135.874467830037
 31
0.0
  0
LINE
  5
F1
  8
1
  6
CONTINUOUS
 62
     7
 10
59.97315634638463
 20
136.374467830037
 30
0.0
 11
59.96352109169092
 21
136.2142040288795
 31
0.0
  0
ARC
  5
F2
  8
1
  6
CONTINUOUS
 62
     7
 10
71.62253461573876
 20
135.124467830037
 30
0.0
 40
11.89999999999999
 50
126.029587332689
 51
173.9704126673111
  0
LINE
  5
F3
  8
1
  6
CONTINUOUS
 62
     7
 10
64.84928862209371
 20
144.6766016255074
 30
0.0
 11
64.71531372633115
 21
144.588125349592
 31
0.0
  0
LINE
  5
F4
  8
1
  6
CONTINUOUS
 62
     7
 10
65.13128682291479
 20
144.8676388117274
 30
0.0
 11
64.84928862209371
 21
144.6766016255074
 31
0.0
  0
LINE
  5
F5
  8
1
  6
CONTINUOUS
 62
     7
 10
66.43032492859089
 20
145.6176388117283
 30
0.0
 11
65.13128682291479
 21
144.8676388117274
 31
0.0
  0
LINE
  5
F6
  8
1
  6
CONTINUOUS
 62
     7
 10
66.73676708533594
 20
145.76633782435
 30
0.0
 11
66.43032492859089
 21
145.6176388117283
 31
0.0
  0
LINE
  5
F7
  8
1
  6
CONTINUOUS
 62
     7
 10
66.88037723579224
 20
145.838125349592
 30
0.0
 11
66.73676708533594
 21
145.76633782435
 31
0.0
  0
ARC
  5
F8
  8
1
  6
CONTINUOUS
 62
     7
 10
71.62253461573876
 20
135.124467830037
 30
0.0
 40
11.89999999999999
 50
66.02958733268896
 51
113.9704126673111
  0
LINE
  5
F9
  8
1
  6
CONTINUOUS
 62
     7
 10
76.50830214614153
 20
145.76633782435
 30
0.0
 11
76.36469199568526
 21
145.838125349592
 31
0.0
  0
LINE
  5
FA
  8
1
  6
CONTINUOUS
 62
     7
 10
76.81474430288606
 20
145.6176388117274
 30
0.0
 11
76.50830214614153
 21
145.76633782435
 31
0.0
  0
LINE
  5
FB
  8
1
  6
CONTINUOUS
 62
     7
 10
78.11378240856268
 20
144.8676388117273
 30
0.0
 11
76.81474430288606
 21
145.6176388117274
 31
0.0
  0
LINE
  5
FC
  8
1
  6
CONTINUOUS
 62
     7
 10
78.39578060938443
 20
144.6766016255071
 30
0.0
 11
78.11378240856268
 21
144.8676388117273
 31
0.0
  0
LINE
  5
FD
  8
1
  6
CONTINUOUS
 62
     7
 10
78.52975550514635
 20
144.588125349592
 30
0.0
 11
78.39578060938443
 21
144.6766016255071
 31
0.0
  0
ARC
  5
FE
  8
1
  6
CONTINUOUS
 62
     7
 10
71.62253461573876
 20
135.124467830037
 30
0.0
 40
11.89999999999999
 50
6.029587332688944
 51
53.970412667311
  0
LINE
  5
FF
  8
1
  6
CONTINUOUS
 62
     7
 10
83.28154813978658
 20
136.374467830037
 30
0.0
 11
83.78147159486754
 21
136.374467830037
 31
0.0
  0
LINE
  5
100
  8
1
  6
CONTINUOUS
 62
     7
 10
59.96352109169092
 20
133.874467830037
 30
0.0
 11
59.46359763660996
 21
133.874467830037
 31
0.0
  0
LINE
  5
101
  8
1
  6
CONTINUOUS
 62
     7
 10
64.71049609898428
 20
144.5964697249287
 30
0.0
 11
64.4605343714438
 21
145.0294161369765
 31
0.0
  0
LINE
  5
102
  8
1
  6
CONTINUOUS
 62
     7
 10
78.53457313249322
 20
125.6524659351452
 30
0.0
 11
78.7845348600337
 21
125.2195195230974
 31
0.0
  0
LINE
  5
103
  8
1
  6
CONTINUOUS
 62
     7
 10
66.87555960844539
 20
124.4024659351452
 30
0.0
 11
66.6255978809049
 21
123.9695195230974
 31
0.0
  0
LINE
  5
104
  8
1
  6
CONTINUOUS
 62
     7
 10
76.36950962303213
 20
145.8464697249287
 30
0.0
 11
76.61947135057261
 21
146.2794161369765
 31
0.0
  0
LINE
  5
105
  8
1
  6
CONTINUOUS
 62
     7
 10
83.78147159486754
 20
133.874467830037
 30
0.0
 11
83.28154813978658
 21
133.874467830037
 31
0.0
  0
LINE
  5
106
  8
1
  6
CONTINUOUS
 62
     7
 10
59.46359763660996
 20
136.374467830037
 30
0.0
 11
59.96352109169092
 21
136.374467830037
 31
0.0
  0
LINE
  5
107
  8
1
  6
CONTINUOUS
 62
     7
 10
66.62559788090489
 20
146.2794161369765
 30
0.0
 11
66.87555960844537
 21
145.8464697249287
 31
0.0
  0
LINE
  5
108
  8
1
  6
CONTINUOUS
 62
     7
 10
76.61947135057261
 20
123.9695195230974
 30
0.0
 11
76.36950962303213
 21
124.4024659351452
 31
0.0
  0
LINE
  5
109
  8
1
  6
CONTINUOUS
 62
     7
 10
78.7845348600337
 20
145.0294161369765
 30
0.0
 11
78.53457313249322
 21
144.5964697249287
 31
0.0
  0
LINE
  5
10A
  8
1
  6
CONTINUOUS
 62
     7
 10
64.4605343714438
 20
125.2195195230974
 30
0.0
 11
64.71049609898428
 21
125.6524659351452
 31
0.0
  0
LINE
  5
10B
  8
1
  6
CONTINUOUS
 62
     7
 10
59.97315634638463
 20
133.874467830037
 30
0.0
 11
59.96352109169092
 21
133.874467830037
 31
0.0
  0
LINE
  5
10C
  8
1
  6
CONTINUOUS
 62
     7
 10
83.27191288509287
 20
136.374467830037
 30
0.0
 11
83.28154813978658
 21
136.374467830037
 31
0.0
  0
LINE
  5
10D
  8
1
  6
CONTINUOUS
 62
     7
 10
64.71531372633115
 20
144.588125349592
 30
0.0
 11
64.71049609898428
 21
144.5964697249287
 31
0.0
  0
LINE
  5
10E
  8
1
  6
CONTINUOUS
 62
     7
 10
66.87555960844537
 20
145.8464697249287
 30
0.0
 11
66.88037723579224
 21
145.838125349592
 31
0.0
  0
LINE
  5
10F
  8
1
  6
CONTINUOUS
 62
     7
 10
78.52975550514635
 20
125.6608103104819
 30
0.0
 11
78.53457313249322
 21
125.6524659351452
 31
0.0
  0
LINE
  5
110
  8
1
  6
CONTINUOUS
 62
     7
 10
59.96352109169092
 20
136.374467830037
 30
0.0
 11
59.97315634638463
 21
136.374467830037
 31
0.0
  0
LINE
  5
111
  8
1
  6
CONTINUOUS
 62
     7
 10
76.36950962303213
 20
124.4024659351452
 30
0.0
 11
76.36469199568526
 21
124.4108103104819
 31
0.0
  0
LINE
  5
112
  8
1
  6
CONTINUOUS
 62
     7
 10
76.36469199568526
 20
145.838125349592
 30
0.0
 11
76.36950962303213
 21
145.8464697249287
 31
0.0
  0
LINE
  5
113
  8
1
  6
CONTINUOUS
 62
     7
 10
66.88037723579225
 20
124.4108103104819
 30
0.0
 11
66.87555960844539
 21
124.4024659351452
 31
0.0
  0
LINE
  5
114
  8
1
  6
CONTINUOUS
 62
     7
 10
83.28154813978658
 20
133.874467830037
 30
0.0
 11
83.27191288509287
 21
133.874467830037
 31
0.0
  0
LINE
  5
115
  8
1
  6
CONTINUOUS
 62
     7
 10
64.71049609898428
 20
125.6524659351452
 30
0.0
 11
64.71531372633115
 21
125.6608103104819
 31
0.0
  0
LINE
  5
116
  8
1
  6
CONTINUOUS
 62
     7
 10
78.53457313249322
 20
144.5964697249287
 30
0.0
 11
78.52975550514635
 21
144.588125349592
 31
0.0
  0
LINE
  5
117
  8
1
  6
CONTINUOUS
 62
     7
 10
64.55593224423741
 20
145.864182174364
 30
0.0
 11
65.85497034991407
 21
146.614182174364
 31
0.0
  0
LINE
  5
118
  8
1
  6
CONTINUOUS
 62
     7
 10
58.78836797841274
 20
134.374467830037
 30
0.0
 11
58.78836797841274
 21
135.874467830037
 31
0.0
  0
LINE
  5
119
  8
1
  6
CONTINUOUS
 62
     7
 10
65.85497034991408
 20
123.6347534857099
 30
0.0
 11
64.55593224423741
 21
124.3847534857099
 31
0.0
  0
POLYLINE
  5
11A
  8
1
  6
CONTINUOUS
 62
     7
 66
     1
 10
0.0
 20
0.0
 30
0.0
  0
VERTEX
  5
162
  8
1
  6
CONTINUOUS
 62
     7
 10
64.37295782066474
 20
125.0678324875964
 30
0.0
  0
VERTEX
  5
163
  8
1
  6
CONTINUOUS
 62
     7
 10
64.33249799007972
 20
124.9785392857608
 30
0.0
  0
VERTEX
  5
164
  8
1
  6
CONTINUOUS
 62
     7
 10
64.31023344339135
 20
124.8830702117971
 30
0.0
  0
VERTEX
  5
165
  8
1
  6
CONTINUOUS
 62
     7
 10
64.30701979464276
 20
124.7850940886781
 30
0.0
  0
VERTEX
  5
166
  8
1
  6
CONTINUOUS
 62
     7
 10
64.32298054255311
 20
124.6883760838696
 30
0.0
  0
VERTEX
  5
167
  8
1
  6
CONTINUOUS
 62
     7
 10
64.35750232453111
 20
124.5966330160564
 30
0.0
  0
VERTEX
  5
168
  8
1
  6
CONTINUOUS
 62
     7
 10
64.40925848785538
 20
124.5133905198843
 30
0.0
  0
VERTEX
  5
169
  8
1
  6
CONTINUOUS
 62
     7
 10
64.47626007219456
 20
124.4418475577985
 30
0.0
  0
VERTEX
  5
16A
  8
1
  6
CONTINUOUS
 62
     7
 10
64.55593224423743
 20
124.3847534857099
 30
0.0
  0
SEQEND
  5
1D3
  8
1
  6
CONTINUOUS
 62
     7
  0
LINE
  5
11B
  8
1
  6
CONTINUOUS
 62
     7
 10
64.37295782066474
 20
125.0678324875964
 30
0.0
 11
64.4605343714438
 21
125.2195195230974
 31
0.0
  0
POLYLINE
  5
11C
  8
1
  6
CONTINUOUS
 62
     7
 66
     1
 10
0.0
 20
0.0
 30
0.0
  0
VERTEX
  5
16B
  8
1
  6
CONTINUOUS
 62
     7
 10
65.85497034991408
 20
123.6347534857099
 30
0.0
  0
VERTEX
  5
16C
  8
1
  6
CONTINUOUS
 62
     7
 10
65.94425135276968
 20
123.5943023967904
 30
0.0
  0
VERTEX
  5
16D
  8
1
  6
CONTINUOUS
 62
     7
 10
66.03971016756763
 20
123.5720488037018
 30
0.0
  0
VERTEX
  5
16E
  8
1
  6
CONTINUOUS
 62
     7
 10
66.13767836558918
 20
123.5688478995466
 30
0.0
  0
VERTEX
  5
16F
  8
1
  6
CONTINUOUS
 62
     7
 10
66.23439108392556
 20
123.5848226932763
 30
0.0
  0
VERTEX
  5
170
  8
1
  6
CONTINUOUS
 62
     7
 10
66.32613170704822
 20
123.6193592825268
 30
0.0
  0
VERTEX
  5
171
  8
1
  6
CONTINUOUS
 62
     7
 10
66.40937469425927
 20
123.6711304455414
 30
0.0
  0
VERTEX
  5
172
  8
1
  6
CONTINUOUS
 62
     7
 10
66.48092106424342
 20
123.7381466455592
 30
0.0
  0
VERTEX
  5
173
  8
1
  6
CONTINUOUS
 62
     7
 10
66.53802133012584
 20
123.8178324875964
 30
0.0
  0
SEQEND
  5
1D4
  8
1
  6
CONTINUOUS
 62
     7
  0
LINE
  5
11D
  8
1
  6
CONTINUOUS
 62
     7
 10
66.6255978809049
 20
123.9695195230974
 30
0.0
 11
66.53802133012584
 21
123.8178324875964
 31
0.0
  0
POLYLINE
  5
11E
  8
1
  6
CONTINUOUS
 62
     7
 66
     1
 10
0.0
 20
0.0
 30
0.0
  0
VERTEX
  5
174
  8
1
  6
CONTINUOUS
 62
     7
 10
64.55593224423743
 20
145.864182174364
 30
0.0
  0
VERTEX
  5
175
  8
1
  6
CONTINUOUS
 62
     7
 10
64.47626007219456
 20
145.8070881022755
 30
0.0
  0
VERTEX
  5
176
  8
1
  6
CONTINUOUS
 62
     7
 10
64.40925848785538
 20
145.7355451401896
 30
0.0
  0
VERTEX
  5
177
  8
1
  6
CONTINUOUS
 62
     7
 10
64.35750232453111
 20
145.6523026440175
 30
0.0
  0
VERTEX
  5
178
  8
1
  6
CONTINUOUS
 62
     7
 10
64.32298054255311
 20
145.5605595762043
 30
0.0
  0
VERTEX
  5
179
  8
1
  6
CONTINUOUS
 62
     7
 10
64.30701979464276
 20
145.4638415713958
 30
0.0
  0
VERTEX
  5
17A
  8
1
  6
CONTINUOUS
 62
     7
 10
64.31023344339135
 20
145.3658654482768
 30
0.0
  0
VERTEX
  5
17B
  8
1
  6
CONTINUOUS
 62
     7
 10
64.33249799007972
 20
145.2703963743132
 30
0.0
  0
VERTEX
  5
17C
  8
1
  6
CONTINUOUS
 62
     7
 10
64.37295782066474
 20
145.1811031724775
 30
0.0
  0
SEQEND
  5
1D5
  8
1
  6
CONTINUOUS
 62
     7
  0
LINE
  5
11F
  8
1
  6
CONTINUOUS
 62
     7
 10
64.4605343714438
 20
145.0294161369765
 30
0.0
 11
64.37295782066474
 21
145.1811031724775
 31
0.0
  0
POLYLINE
  5
120
  8
1
  6
CONTINUOUS
 62
     7
 66
     1
 10
0.0
 20
0.0
 30
0.0
  0
VERTEX
  5
17D
  8
1
  6
CONTINUOUS
 62
     7
 10
66.53802133012583
 20
146.4311031724775
 30
0.0
  0
VERTEX
  5
17E
  8
1
  6
CONTINUOUS
 62
     7
 10
66.4809210642434
 20
146.5107890145148
 30
0.0
  0
VERTEX
  5
17F
  8
1
  6
CONTINUOUS
 62
     7
 10
66.40937469425926
 20
146.5778052145325
 30
0.0
  0
VERTEX
  5
180
  8
1
  6
CONTINUOUS
 62
     7
 10
66.3261317070482
 20
146.6295763775471
 30
0.0
  0
VERTEX
  5
181
  8
1
  6
CONTINUOUS
 62
     7
 10
66.23439108392554
 20
146.6641129667976
 30
0.0
  0
VERTEX
  5
182
  8
1
  6
CONTINUOUS
 62
     7
 10
66.13767836558917
 20
146.6800877605273
 30
0.0
  0
VERTEX
  5
183
  8
1
  6
CONTINUOUS
 62
     7
 10
66.03971016756762
 20
146.6768868563721
 30
0.0
  0
VERTEX
  5
184
  8
1
  6
CONTINUOUS
 62
     7
 10
65.94425135276967
 20
146.6546332632835
 30
0.0
  0
VERTEX
  5
185
  8
1
  6
CONTINUOUS
 62
     7
 10
65.85497034991407
 20
146.614182174364
 30
0.0
  0
SEQEND
  5
1D6
  8
1
  6
CONTINUOUS
 62
     7
  0
LINE
  5
121
  8
1
  6
CONTINUOUS
 62
     7
 10
66.53802133012583
 20
146.4311031724775
 30
0.0
 11
66.62559788090489
 21
146.2794161369765
 31
0.0
  0
LINE
  5
122
  8
1
  6
CONTINUOUS
 62
     7
 10
77.39009888156342
 20
146.614182174364
 30
0.0
 11
78.68913698724009
 21
145.864182174364
 31
0.0
  0
LINE
  5
123
  8
1
  6
CONTINUOUS
 62
     7
 10
84.45670125306475
 20
135.874467830037
 30
0.0
 11
84.45670125306475
 21
134.374467830037
 31
0.0
  0
POLYLINE
  5
124
  8
1
  6
CONTINUOUS
 62
     7
 66
     1
 10
0.0
 20
0.0
 30
0.0
  0
VERTEX
  5
186
  8
1
  6
CONTINUOUS
 62
     7
 10
59.28844453505183
 20
136.374467830037
 30
0.0
  0
VERTEX
  5
187
  8
1
  6
CONTINUOUS
 62
     7
 10
59.1908844385844
 20
136.3648604702386
 30
0.0
  0
VERTEX
  5
188
  8
1
  6
CONTINUOUS
 62
     7
 10
59.09707352191187
 20
136.3364075962926
 30
0.0
  0
VERTEX
  5
189
  8
1
  6
CONTINUOUS
 62
     7
 10
59.01061688595222
 20
136.2902026361882
 30
0.0
  0
VERTEX
  5
18A
  8
1
  6
CONTINUOUS
 62
     7
 10
58.93483701073991
 20
136.2280212206302
 30
0.0
  0
VERTEX
  5
18B
  8
1
  6
CONTINUOUS
 62
     7
 10
58.87264607438154
 20
136.1522529465468
 30
0.0
  0
VERTEX
  5
18C
  8
1
  6
CONTINUOUS
 62
     7
 10
58.82643403968426
 20
136.0658095462195
 30
0.0
  0
VERTEX
  5
18D
  8
1
  6
CONTINUOUS
 62
     7
 10
58.79797680922548
 20
135.972012991045
 30
0.0
  0
VERTEX
  5
18E
  8
1
  6
CONTINUOUS
 62
     7
 10
58.78836797841274
 20
135.874467830037
 30
0.0
  0
SEQEND
  5
1D7
  8
1
  6
CONTINUOUS
 62
     7
  0
LINE
  5
125
  8
1
  6
CONTINUOUS
 62
     7
 10
59.28844453505183
 20
136.374467830037
 30
0.0
 11
59.46359763660996
 21
136.374467830037
 31
0.0
  0
LINE
  5
126
  8
1
  6
CONTINUOUS
 62
     7
 10
78.68913698724009
 20
124.3847534857099
 30
0.0
 11
77.39009888156342
 21
123.6347534857099
 31
0.0
  0
POLYLINE
  5
127
  8
1
  6
CONTINUOUS
 62
     7
 66
     1
 10
0.0
 20
0.0
 30
0.0
  0
VERTEX
  5
18F
  8
1
  6
CONTINUOUS
 62
     7
 10
76.70704790135166
 20
123.8178324875964
 30
0.0
  0
VERTEX
  5
190
  8
1
  6
CONTINUOUS
 62
     7
 10
76.76414816723408
 20
123.7381466455592
 30
0.0
  0
VERTEX
  5
191
  8
1
  6
CONTINUOUS
 62
     7
 10
76.83569453721823
 20
123.6711304455414
 30
0.0
  0
VERTEX
  5
192
  8
1
  6
CONTINUOUS
 62
     7
 10
76.91893752442928
 20
123.6193592825268
 30
0.0
  0
VERTEX
  5
193
  8
1
  6
CONTINUOUS
 62
     7
 10
77.01067814755194
 20
123.5848226932763
 30
0.0
  0
VERTEX
  5
194
  8
1
  6
CONTINUOUS
 62
     7
 10
77.10739086588832
 20
123.5688478995466
 30
0.0
  0
VERTEX
  5
195
  8
1
  6
CONTINUOUS
 62
     7
 10
77.20535906390987
 20
123.5720488037018
 30
0.0
  0
VERTEX
  5
196
  8
1
  6
CONTINUOUS
 62
     7
 10
77.30081787870782
 20
123.5943023967904
 30
0.0
  0
VERTEX
  5
197
  8
1
  6
CONTINUOUS
 62
     7
 10
77.39009888156342
 20
123.6347534857099
 30
0.0
  0
SEQEND
  5
1D8
  8
1
  6
CONTINUOUS
 62
     7
  0
LINE
  5
128
  8
1
  6
CONTINUOUS
 62
     7
 10
76.70704790135167
 20
123.8178324875964
 30
0.0
 11
76.61947135057261
 21
123.9695195230974
 31
0.0
  0
POLYLINE
  5
129
  8
1
  6
CONTINUOUS
 62
     7
 66
     1
 10
0.0
 20
0.0
 30
0.0
  0
VERTEX
  5
198
  8
1
  6
CONTINUOUS
 62
     7
 10
78.68913698724008
 20
124.3847534857099
 30
0.0
  0
VERTEX
  5
199
  8
1
  6
CONTINUOUS
 62
     7
 10
78.76880915928294
 20
124.4418475577985
 30
0.0
  0
VERTEX
  5
19A
  8
1
  6
CONTINUOUS
 62
     7
 10
78.83581074362212
 20
124.5133905198843
 30
0.0
  0
VERTEX
  5
19B
  8
1
  6
CONTINUOUS
 62
     7
 10
78.88756690694639
 20
124.5966330160564
 30
0.0
  0
VERTEX
  5
19C
  8
1
  6
CONTINUOUS
 62
     7
 10
78.92208868892439
 20
124.6883760838696
 30
0.0
  0
VERTEX
  5
19D
  8
1
  6
CONTINUOUS
 62
     7
 10
78.93804943683475
 20
124.7850940886781
 30
0.0
  0
VERTEX
  5
19E
  8
1
  6
CONTINUOUS
 62
     7
 10
78.93483578808615
 20
124.8830702117971
 30
0.0
  0
VERTEX
  5
19F
  8
1
  6
CONTINUOUS
 62
     7
 10
78.91257124139779
 20
124.9785392857608
 30
0.0
  0
VERTEX
  5
1A0
  8
1
  6
CONTINUOUS
 62
     7
 10
78.87211141081276
 20
125.0678324875964
 30
0.0
  0
SEQEND
  5
1D9
  8
1
  6
CONTINUOUS
 62
     7
  0
LINE
  5
12A
  8
1
  6
CONTINUOUS
 62
     7
 10
78.7845348600337
 20
125.2195195230974
 30
0.0
 11
78.87211141081276
 21
125.0678324875964
 31
0.0
  0
POLYLINE
  5
12B
  8
1
  6
CONTINUOUS
 62
     7
 66
     1
 10
0.0
 20
0.0
 30
0.0
  0
VERTEX
  5
1A1
  8
1
  6
CONTINUOUS
 62
     7
 10
77.39009888156342
 20
146.614182174364
 30
0.0
  0
VERTEX
  5
1A2
  8
1
  6
CONTINUOUS
 62
     7
 10
77.30081787870782
 20
146.6546332632835
 30
0.0
  0
VERTEX
  5
1A3
  8
1
  6
CONTINUOUS
 62
     7
 10
77.20535906390987
 20
146.6768868563721
 30
0.0
  0
VERTEX
  5
1A4
  8
1
  6
CONTINUOUS
 62
     7
 10
77.10739086588832
 20
146.6800877605273
 30
0.0
  0
VERTEX
  5
1A5
  8
1
  6
CONTINUOUS
 62
     7
 10
77.01067814755194
 20
146.6641129667976
 30
0.0
  0
VERTEX
  5
1A6
  8
1
  6
CONTINUOUS
 62
     7
 10
76.91893752442928
 20
146.6295763775471
 30
0.0
  0
VERTEX
  5
1A7
  8
1
  6
CONTINUOUS
 62
     7
 10
76.83569453721823
 20
146.5778052145325
 30
0.0
  0
VERTEX
  5
1A8
  8
1
  6
CONTINUOUS
 62
     7
 10
76.76414816723408
 20
146.5107890145148
 30
0.0
  0
VERTEX
  5
1A9
  8
1
  6
CONTINUOUS
 62
     7
 10
76.70704790135166
 20
146.4311031724775
 30
0.0
  0
SEQEND
  5
1DA
  8
1
  6
CONTINUOUS
 62
     7
  0
LINE
  5
12C
  8
1
  6
CONTINUOUS
 62
     7
 10
76.61947135057261
 20
146.2794161369765
 30
0.0
 11
76.70704790135167
 21
146.4311031724775
 31
0.0
  0
POLYLINE
  5
12D
  8
1
  6
CONTINUOUS
 62
     7
 66
     1
 10
0.0
 20
0.0
 30
0.0
  0
VERTEX
  5
1AA
  8
1
  6
CONTINUOUS
 62
     7
 10
58.78836797841274
 20
134.374467830037
 30
0.0
  0
VERTEX
  5
1AB
  8
1
  6
CONTINUOUS
 62
     7
 10
58.79797680922548
 20
134.2769226690289
 30
0.0
  0
VERTEX
  5
1AC
  8
1
  6
CONTINUOUS
 62
     7
 10
58.82643403968426
 20
134.1831261138544
 30
0.0
  0
VERTEX
  5
1AD
  8
1
  6
CONTINUOUS
 62
     7
 10
58.87264607438154
 20
134.0966827135272
 30
0.0
  0
VERTEX
  5
1AE
  8
1
  6
CONTINUOUS
 62
     7
 10
58.93483701073991
 20
134.0209144394437
 30
0.0
  0
VERTEX
  5
1AF
  8
1
  6
CONTINUOUS
 62
     7
 10
59.01061688595222
 20
133.9587330238857
 30
0.0
  0
VERTEX
  5
1B0
  8
1
  6
CONTINUOUS
 62
     7
 10
59.09707352191187
 20
133.9125280637813
 30
0.0
  0
VERTEX
  5
1B1
  8
1
  6
CONTINUOUS
 62
     7
 10
59.1908844385844
 20
133.8840751898354
 30
0.0
  0
VERTEX
  5
1B2
  8
1
  6
CONTINUOUS
 62
     7
 10
59.28844453505183
 20
133.874467830037
 30
0.0
  0
SEQEND
  5
1DB
  8
1
  6
CONTINUOUS
 62
     7
  0
LINE
  5
12E
  8
1
  6
CONTINUOUS
 62
     7
 10
59.46359763660996
 20
133.874467830037
 30
0.0
 11
59.28844453505183
 21
133.874467830037
 31
0.0
  0
POLYLINE
  5
12F
  8
1
  6
CONTINUOUS
 62
     7
 66
     1
 10
0.0
 20
0.0
 30
0.0
  0
VERTEX
  5
1B3
  8
1
  6
CONTINUOUS
 62
     7
 10
84.45670125306476
 20
135.874467830037
 30
0.0
  0
VERTEX
  5
1B4
  8
1
  6
CONTINUOUS
 62
     7
 10
84.44709242225203
 20
135.972012991045
 30
0.0
  0
VERTEX
  5
1B5
  8
1
  6
CONTINUOUS
 62
     7
 10
84.41863519179324
 20
136.0658095462195
 30
0.0
  0
VERTEX
  5
1B6
  8
1
  6
CONTINUOUS
 62
     7
 10
84.37242315709597
 20
136.1522529465468
 30
0.0
  0
VERTEX
  5
1B7
  8
1
  6
CONTINUOUS
 62
     7
 10
84.31023222073759
 20
136.2280212206302
 30
0.0
  0
VERTEX
  5
1B8
  8
1
  6
CONTINUOUS
 62
     7
 10
84.2344523455253
 20
136.2902026361882
 30
0.0
  0
VERTEX
  5
1B9
  8
1
  6
CONTINUOUS
 62
     7
 10
84.14799570956563
 20
136.3364075962926
 30
0.0
  0
VERTEX
  5
1BA
  8
1
  6
CONTINUOUS
 62
     7
 10
84.05418479289311
 20
136.3648604702386
 30
0.0
  0
VERTEX
  5
1BB
  8
1
  6
CONTINUOUS
 62
     7
 10
83.95662469642568
 20
136.374467830037
 30
0.0
  0
SEQEND
  5
1DC
  8
1
  6
CONTINUOUS
 62
     7
  0
LINE
  5
130
  8
1
  6
CONTINUOUS
 62
     7
 10
83.78147159486754
 20
136.374467830037
 30
0.0
 11
83.95662469642568
 21
136.374467830037
 31
0.0
  0
POLYLINE
  5
131
  8
1
  6
CONTINUOUS
 62
     7
 66
     1
 10
0.0
 20
0.0
 30
0.0
  0
VERTEX
  5
1BC
  8
1
  6
CONTINUOUS
 62
     7
 10
78.87211141081276
 20
145.1811031724775
 30
0.0
  0
VERTEX
  5
1BD
  8
1
  6
CONTINUOUS
 62
     7
 10
78.91257124139779
 20
145.2703963743132
 30
0.0
  0
VERTEX
  5
1BE
  8
1
  6
CONTINUOUS
 62
     7
 10
78.93483578808615
 20
145.3658654482768
 30
0.0
  0
VERTEX
  5
1BF
  8
1
  6
CONTINUOUS
 62
     7
 10
78.93804943683475
 20
145.4638415713958
 30
0.0
  0
VERTEX
  5
1C0
  8
1
  6
CONTINUOUS
 62
     7
 10
78.92208868892439
 20
145.5605595762043
 30
0.0
  0
VERTEX
  5
1C1
  8
1
  6
CONTINUOUS
 62
     7
 10
78.88756690694639
 20
145.6523026440175
 30
0.0
  0
VERTEX
  5
1C2
  8
1
  6
CONTINUOUS
 62
     7
 10
78.83581074362212
 20
145.7355451401896
 30
0.0
  0
VERTEX
  5
1C3
  8
1
  6
CONTINUOUS
 62
     7
 10
78.76880915928294
 20
145.8070881022755
 30
0.0
  0
VERTEX
  5
1C4
  8
1
  6
CONTINUOUS
 62
     7
 10
78.68913698724008
 20
145.864182174364
 30
0.0
  0
SEQEND
  5
1DD
  8
1
  6
CONTINUOUS
 62
     7
  0
LINE
  5
132
  8
1
  6
CONTINUOUS
 62
     7
 10
78.87211141081276
 20
145.1811031724775
 30
0.0
 11
78.7845348600337
 21
145.0294161369765
 31
0.0
  0
POLYLINE
  5
133
  8
1
  6
CONTINUOUS
 62
     7
 66
     1
 10
0.0
 20
0.0
 30
0.0
  0
VERTEX
  5
1C5
  8
1
  6
CONTINUOUS
 62
     7
 10
83.95662469642568
 20
133.874467830037
 30
0.0
  0
VERTEX
  5
1C6
  8
1
  6
CONTINUOUS
 62
     7
 10
84.05418479289311
 20
133.8840751898354
 30
0.0
  0
VERTEX
  5
1C7
  8
1
  6
CONTINUOUS
 62
     7
 10
84.14799570956563
 20
133.9125280637813
 30
0.0
  0
VERTEX
  5
1C8
  8
1
  6
CONTINUOUS
 62
     7
 10
84.2344523455253
 20
133.9587330238857
 30
0.0
  0
VERTEX
  5
1C9
  8
1
  6
CONTINUOUS
 62
     7
 10
84.31023222073759
 20
134.0209144394437
 30
0.0
  0
VERTEX
  5
1CA
  8
1
  6
CONTINUOUS
 62
     7
 10
84.37242315709597
 20
134.0966827135272
 30
0.0
  0
VERTEX
  5
1CB
  8
1
  6
CONTINUOUS
 62
     7
 10
84.41863519179324
 20
134.1831261138544
 30
0.0
  0
VERTEX
  5
1CC
  8
1
  6
CONTINUOUS
 62
     7
 10
84.44709242225203
 20
134.2769226690289
 30
0.0
  0
VERTEX
  5
1CD
  8
1
  6
CONTINUOUS
 62
     7
 10
84.45670125306476
 20
134.374467830037
 30
0.0
  0
SEQEND
  5
1DE
  8
1
  6
CONTINUOUS
 62
     7
  0
LINE
  5
134
  8
1
  6
CONTINUOUS
 62
     7
 10
83.95662469642568
 20
133.874467830037
 30
0.0
 11
83.78147159486754
 21
133.874467830037
 31
0.0
  0
ENDBLK
  8
0
  0
ENDSEC
  0
SECTION
  2
ENTITIES
  0
LINE
  5
70
  8
1
  6
CENTER
 62
     1
 10
71.62253461573876
 20
111.1069962220849
 30
0.0
 11
71.62253461573879
 21
81.10699622208496
 31
0.0
  0
LINE
  5
72
  8
1
  6
CENTER
 62
     1
 10
130.8811591262515
 20
135.124467830037
 30
0.0
 11
100.8811591262515
 21
135.124467830037
 31
0.0
  0
LINE
  5
73
  8
1
  6
CENTER
 62
     1
 10
57.72253461573876
 20
135.124467830037
 30
0.0
 11
85.52253461573875
 21
135.124467830037
 31
0.0
  0
LINE
  5
74
  8
1
  6
CENTER
 62
     1
 10
71.62253461573876
 20
121.224467830037
 30
0.0
 11
71.62253461573876
 21
149.0244678300369
 31
0.0
  0
INSERT
  5
A3
  8
1
  6
CONTINUOUS
 62
     7
  2
D_FRAME_VIEW_3056
 10
0.0
 20
0.0
 30
0.0
  0
INSERT
  5
D5
  8
1
  6
CONTINUOUS
 62
     7
  2
D_FRAME_VIEW_2935
 10
0.0
 20
0.0
 30
0.0
  0
TEXT
  5
D6
  8
1
  6
CONTINUOUS
 62
     7
 10
106.5473182645982
 20
95.27973435335501
 30
0.0
 40
3.0
  1
FP14-C-BM
  0
LINE
  5
D7
  8
1
  6
CONTINUOUS
 62
     2
 10
106.7181198151797
 20
94.72176886629737
 30
0.0
 11
122.1135743606342
 21
94.72176886629737
 31
0.0
  0
INSERT
  5
135
  8
1
  6
CONTINUOUS
 62
     7
  2
D_FRAME_VIEW_2626
 10
0.0
 20
0.0
 30
0.0
  0
ENDSEC
  0
EOF
