  0
SECTION
  2
HEADER
  9
$ACADVER
  1
AC1006
  9
$DWGCODEPAGE
  3
ansi_932
  9
$INSBASE
 10
0.0
 20
0.0
 30
0.0
  9
$EXTMIN
 10
-30.0
 20
-30.07022490909091
  9
$EXTMAX
 10
68.54278959120428
 20
12.0
  9
$LIMMIN
 10
0.0
 20
0.0
  9
$LIMMAX
 10
12.0
 20
9.0
  9
$ORTHOMODE
 70
     0
  9
$REGENMODE
 70
     1
  9
$FILLMODE
 70
     1
  9
$QTEXTMODE
 70
     0
  9
$MIRRTEXT
 70
     1
  9
$DRAGMODE
 70
     2
  9
$LTSCALE
 40
1.0
  9
$OSMODE
 70
    37
  9
$ATTMODE
 70
     1
  9
$TEXTSIZE
 40
0.2
  9
$TRACEWID
 40
0.05
  9
$TEXTSTYLE
  7
STANDARD
  9
$CLAYER
  8
0
  9
$CELTYPE
  6
BYLAYER
  9
$CECOLOR
 62
   256
  9
$DIMSCALE
 40
1.0
  9
$DIMASZ
 40
3.0
  9
$DIMEXO
 40
0.0625
  9
$DIMDLI
 40
0.38
  9
$DIMRND
 40
0.0
  9
$DIMDLE
 40
0.0
  9
$DIMEXE
 40
1.5
  9
$DIMTP
 40
0.0
  9
$DIMTM
 40
0.0
  9
$DIMTXT
 40
3.5
  9
$DIMCEN
 40
0.09
  9
$DIMTSZ
 40
0.0
  9
$DIMTOL
 70
     0
  9
$DIMLIM
 70
     0
  9
$DIMTIH
 70
     1
  9
$DIMTOH
 70
     1
  9
$DIMSE1
 70
     0
  9
$DIMSE2
 70
     0
  9
$DIMTAD
 70
     1
  9
$DIMZIN
 70
     0
  9
$DIMBLK
  1

  9
$DIMASO
 70
     1
  9
$DIMSHO
 70
     1
  9
$DIMPOST
  1

  9
$DIMAPOST
  1

  9
$DIMALT
 70
     0
  9
$DIMALTD
 70
     2
  9
$DIMALTF
 40
25.4
  9
$DIMLFAC
 40
1.0
  9
$DIMTOFL
 70
     0
  9
$DIMTVP
 40
0.0
  9
$DIMTIX
 70
     0
  9
$DIMSOXD
 70
     0
  9
$DIMSAH
 70
     0
  9
$DIMBLK1
  1

  9
$DIMBLK2
  1

  9
$LUNITS
 70
     2
  9
$LUPREC
 70
     4
  9
$SKETCHINC
 40
0.1
  9
$FILLETRAD
 40
0.5
  9
$AUNITS
 70
     0
  9
$AUPREC
 70
     0
  9
$MENU
  1
.
  9
$ELEVATION
 40
0.0
  9
$THICKNESS
 40
0.0
  9
$LIMCHECK
 70
     0
  9
$CHAMFERA
 40
0.0
  9
$CHAMFERB
 40
0.0
  9
$SKPOLY
 70
     0
  9
$TDCREATE
 40
2460745.666229039
  9
$TDUPDATE
 40
2460745.666229201
  9
$TDINDWG
 40
0.0000000116
  9
$TDUSRTIMER
 40
0.0000000116
  9
$USRTIMER
 70
     1
  9
$ANGBASE
 50
0.0
  9
$ANGDIR
 70
     0
  9
$PDMODE
 70
     0
  9
$PDSIZE
 40
0.0
  9
$PLINEWID
 40
0.0
  9
$COORDS
 70
     1
  9
$SPLFRAME
 70
     0
  9
$SPLINETYPE
 70
     6
  9
$SPLINESEGS
 70
     8
  9
$ATTDIA
 70
     0
  9
$ATTREQ
 70
     1
  9
$HANDLING
 70
     1
  9
$HANDSEED
  5
A4
  9
$SURFTAB1
 70
     6
  9
$SURFTAB2
 70
     6
  9
$SURFTYPE
 70
     6
  9
$SURFU
 70
     6
  9
$SURFV
 70
     6
  9
$UCSNAME
  2

  9
$UCSORG
 10
0.0
 20
0.0
 30
0.0
  9
$UCSXDIR
 10
1.0
 20
0.0
 30
0.0
  9
$UCSYDIR
 10
0.0
 20
1.0
 30
0.0
  9
$USERI1
 70
     0
  9
$USERI2
 70
     0
  9
$USERI3
 70
     0
  9
$USERI4
 70
     0
  9
$USERI5
 70
     0
  9
$USERR1
 40
0.0
  9
$USERR2
 40
0.0
  9
$USERR3
 40
0.0
  9
$USERR4
 40
0.0
  9
$USERR5
 40
0.0
  9
$WORLDVIEW
 70
     1
  0
ENDSEC
  0
SECTION
  2
TABLES
  0
TABLE
  2
VPORT
 70
     1
  0
VPORT
  2
*ACTIVE
 70
     0
 10
0.0
 20
0.0
 11
1.0
 21
1.0
 12
19.27139479560214
 22
-9.035112454545455
 13
0.0
 23
0.0
 14
0.5
 24
0.5
 15
0.5
 25
0.5
 16
0.0
 26
0.0
 36
1.0
 17
0.0
 27
0.0
 37
0.0
 40
42.07022490909091
 41
1.6
 42
50.0
 43
0.0
 44
0.0
 50
0.0
 51
0.0
 71
     0
 72
   100
 73
     1
 74
     3
 75
     0
 76
     0
 77
     0
 78
     0
  0
ENDTAB
  0
TABLE
  2
LTYPE
 70
     2
  0
LTYPE
  2
CONTINUOUS
 70
     0
  3
Solid line
 72
    65
 73
     0
 40
0.0
  0
LTYPE
  2
CENTER
 70
     0
  3

 72
    65
 73
     0
 40
0.0
  0
ENDTAB
  0
TABLE
  2
LAYER
 70
     2
  0
LAYER
  2
0
 70
     0
 62
     7
  6
CONTINUOUS
  0
LAYER
  2
1
 70
     0
 62
     7
  6
CONTINUOUS
  0
ENDTAB
  0
TABLE
  2
STYLE
 70
     2
  0
STYLE
  2
STANDARD
 70
     0
 40
0.0
 41
1.0
 50
0.0
 71
     0
 42
0.2
  3
txt
  4

  0
STYLE
  2
ＭＳ_ゴシック
 70
     0
 40
0.0
 41
1.0
 50
0.0
 71
     0
 42
0.2
  3
ＭＳ ゴシック.shx
  4

  0
ENDTAB
  0
TABLE
  2
VIEW
 70
     0
  0
ENDTAB
  0
TABLE
  2
UCS
 70
     0
  0
ENDTAB
  0
ENDSEC
  0
SECTION
  2
BLOCKS
  0
ENDSEC
  0
SECTION
  2
ENTITIES
  0
TEXT
  5
70
  8
1
  6
CONTINUOUS
 62
     7
 10
46.40478258067215
 20
-30.45204309090909
 30
0.0
 40
3.5
  1
ＦＰ１６－Ｃ－ＢＭ
 41
0.608968
 51
15.0
  0
LINE
  5
71
  8
1
  6
CONTINUOUS
 62
     7
 10
40.75
 20
-18.09264507
 30
0.0
 11
40.75
 21
-17.0880896088
 31
0.0
  0
LINE
  5
72
  8
1
  6
CONTINUOUS
 62
     7
 10
30.8534240647
 20
3.3788542897
 30
0.0
 11
31.7233946136
 21
2.8765765591
 31
0.0
  0
LINE
  5
73
  8
1
  6
CONTINUOUS
 62
     7
 10
53.1465759353
 20
3.3788542897
 30
0.0
 11
52.2766053864
 21
2.8765765591
 31
0.0
  0
LINE
  5
74
  8
1
  6
CONTINUOUS
 62
     7
 10
-1.0
 20
-17.15
 30
0.0
 11
-23.0333287047
 21
-16.7827778549
 31
0.0
  0
LINE
  5
75
  8
1
  6
CONTINUOUS
 62
     7
 10
-13.0
 20
-16.9665277874
 30
0.0
 11
-13.0
 21
-16.95
 31
0.0
  0
LINE
  5
76
  8
1
  6
CENTER
 62
     7
 10
-30.0
 20
-4.5
 30
0.0
 11
4.000000000000004
 21
-4.5
 31
0.0
  0
ARC
  5
78
  8
1
  6
CONTINUOUS
 62
     7
 10
-12.0
 20
-16.9665277874
 30
0.0
 40
1.0
 50
180.0
 51
269.0451587461
  0
LINE
  5
79
  8
1
  6
CONTINUOUS
 62
     7
 10
-11.66632938
 20
-9.7115130497
 30
0.0
 11
-1.000000000000001
 21
-9.7115130497
 31
0.0
  0
LINE
  5
7A
  8
1
  6
CONTINUOUS
 62
     7
 10
54.3965759353
 20
-10.2137907803
 30
0.0
 11
53.5266053864
 21
-9.7115130497
 31
0.0
  0
CIRCLE
  5
7B
  8
1
  6
CONTINUOUS
 62
     7
 10
42.0
 20
-4.5
 30
0.0
 40
12.65
  0
ARC
  5
7C
  8
1
  6
CONTINUOUS
 62
     7
 10
-12.0
 20
7.9665277874
 30
0.0
 40
1.0
 50
90.9548412539
 51
180.0
  0
LINE
  5
7D
  8
1
  6
CONTINUOUS
 62
     7
 10
-11.66632938
 20
-12.3788542897
 30
0.0
 11
-1.000000000000001
 21
-12.3788542897
 31
0.0
  0
CIRCLE
  5
7E
  8
1
  6
CONTINUOUS
 62
     7
 10
42.0
 20
-4.5
 30
0.0
 40
10.0
  0
LINE
  5
7F
  8
1
  6
CONTINUOUS
 62
     7
 10
-1.0
 20
-18.15
 30
0.0
 11
-1.0
 21
9.149999999999999
 31
0.0
  0
ARC
  5
80
  8
1
  6
CONTINUOUS
 62
     7
 10
42.0
 20
-4.5
 30
0.0
 40
13.65
 50
204.7457725636
 51
215.2542274364
  0
LINE
  5
81
  8
1
  6
CONTINUOUS
 62
     7
 10
-13.0
 20
7.9665277874
 30
0.0
 11
-13.0
 21
7.95
 31
0.0
  0
ARC
  5
82
  8
1
  6
CONTINUOUS
 62
     7
 10
-11.66632938
 20
2.0451836697
 30
0.0
 40
1.33367062
 50
90.0
 51
270.0
  0
LINE
  5
83
  8
1
  6
CONTINUOUS
 62
     7
 10
-1.0
 20
-18.15
 30
0.0
 11
-12.0166643523
 21
-17.9663889275
 31
0.0
  0
LINE
  5
84
  8
1
  6
CONTINUOUS
 62
     7
 10
43.25
 20
9.09264507
 30
0.0
 11
43.25
 21
8.0880896088
 31
0.0
  0
LINE
  5
85
  8
1
  6
CENTER
 62
     7
 10
24.0
 20
-4.5
 30
0.0
 11
60.0
 21
-4.5
 31
0.0
  0
LINE
  5
86
  8
1
  6
CONTINUOUS
 62
     7
 10
53.1465759353
 20
-12.3788542897
 30
0.0
 11
52.2766053864
 21
-11.8765765591
 31
0.0
  0
LINE
  5
87
  8
1
  6
CONTINUOUS
 62
     7
 10
-11.66632938
 20
3.3788542897
 30
0.0
 11
-1.000000000000001
 21
3.3788542897
 31
0.0
  0
ARC
  5
88
  8
1
  6
CONTINUOUS
 62
     7
 10
42.0
 20
-4.5
 30
0.0
 40
13.65
 50
84.74577256360001
 51
95.2542274364
  0
LINE
  5
89
  8
1
  6
CONTINUOUS
 62
     7
 10
30.8534240647
 20
-12.3788542897
 30
0.0
 11
31.7233946136
 21
-11.8765765591
 31
0.0
  0
LINE
  5
8A
  8
1
  6
CENTER
 62
     7
 10
42.0
 20
12.0
 30
0.0
 11
42.0
 21
-22.5
 31
0.0
  0
LINE
  5
8B
  8
1
  6
CONTINUOUS
 62
     7
 10
40.75
 20
9.09264507
 30
0.0
 11
40.75
 21
8.0880896088
 31
0.0
  0
ARC
  5
8C
  8
1
  6
CONTINUOUS
 62
     7
 10
-23.0
 20
5.7830555748
 30
0.0
 40
2.0
 50
90.9548412539
 51
180.0
  0
CIRCLE
  5
8D
  8
1
  6
CONTINUOUS
 62
     7
 10
42.0
 20
-4.5
 30
0.0
 40
11.65
  0
LINE
  5
8E
  8
1
  6
CONTINUOUS
 62
     7
 10
-1.0
 20
9.15
 30
0.0
 11
-12.0166643523
 21
8.9663889275
 31
0.0
  0
LINE
  5
8F
  8
1
  6
CONTINUOUS
 62
     7
 10
29.6034240647
 20
1.2137907803
 30
0.0
 11
30.4733946136
 21
0.7115130497
 31
0.0
  0
ARC
  5
90
  8
1
  6
CONTINUOUS
 62
     7
 10
42.0
 20
-4.5
 30
0.0
 40
13.65
 50
324.7457725636
 51
335.2542274364
  0
LINE
  5
91
  8
1
  6
CONTINUOUS
 62
     7
 10
54.3965759353
 20
1.2137907803
 30
0.0
 11
53.5266053864
 21
0.7115130497
 31
0.0
  0
LINE
  5
92
  8
1
  6
CONTINUOUS
 62
     7
 10
29.6034240647
 20
-10.2137907803
 30
0.0
 11
30.4733946136
 21
-9.7115130497
 31
0.0
  0
LINE
  5
93
  8
1
  6
CONTINUOUS
 62
     7
 10
-11.66632938
 20
0.7115130497
 30
0.0
 11
-1.000000000000001
 21
0.7115130497
 31
0.0
  0
CIRCLE
  5
94
  8
1
  6
CONTINUOUS
 62
     7
 10
42.0
 20
-4.5
 30
0.0
 40
11.2
  0
LINE
  5
95
  8
1
  6
CONTINUOUS
 62
     7
 10
-1.0
 20
8.15
 30
0.0
 11
-23.0333287047
 21
7.7827778549
 31
0.0
  0
LINE
  5
96
  8
1
  6
CONTINUOUS
 62
     7
 10
43.25
 20
-18.09264507
 30
0.0
 11
43.25
 21
-17.0880896088
 31
0.0
  0
ARC
  5
97
  8
1
  6
CONTINUOUS
 62
     7
 10
-11.66632938
 20
-11.0451836697
 30
0.0
 40
1.33367062
 50
90.0
 51
270.0
  0
ARC
  5
98
  8
1
  6
CONTINUOUS
 62
     7
 10
42.0
 20
-4.5
 30
0.0
 40
13.65
 50
144.7457725636
 51
155.2542274364
  0
ARC
  5
99
  8
1
  6
CONTINUOUS
 62
     7
 10
42.0
 20
-4.5
 30
0.0
 40
13.65
 50
264.7457725636
 51
275.2542274364
  0
ARC
  5
9A
  8
1
  6
CONTINUOUS
 62
     7
 10
42.0
 20
-4.5
 30
0.0
 40
13.65
 50
24.7457725636
 51
35.2542274364
  0
ARC
  5
9B
  8
1
  6
CONTINUOUS
 62
     7
 10
-23.0
 20
-14.7830555748
 30
0.0
 40
2.0
 50
180.0
 51
269.0451587461
  0
LINE
  5
9C
  8
1
  6
CONTINUOUS
 62
     7
 10
-25.0
 20
5.7830555748
 30
0.0
 11
-25.0
 21
-14.7830555748
 31
0.0
  0
ENDSEC
  0
EOF
