  0
SECTION
  2
HEADER
  9
$ACADVER
  1
AC1006
  9
$DWGCODEPAGE
  3
ansi_932
  9
$INSBASE
 10
0.0
 20
0.0
 30
0.0
  9
$EXTMIN
 10
198.7382997964
 20
152.306664
  9
$EXTMAX
 10
384.114274090909
 20
214.6885326758
  9
$LIMMIN
 10
0.0
 20
0.0
  9
$LIMMAX
 10
12.0
 20
9.0
  9
$ORTHOMODE
 70
     0
  9
$REGENMODE
 70
     1
  9
$FILLMODE
 70
     1
  9
$QTEXTMODE
 70
     0
  9
$MIRRTEXT
 70
     1
  9
$DRAGMODE
 70
     2
  9
$LTSCALE
 40
1.0
  9
$OSMODE
 70
    37
  9
$ATTMODE
 70
     1
  9
$TEXTSIZE
 40
0.2
  9
$TRACEWID
 40
0.05
  9
$TEXTSTYLE
  7
STANDARD
  9
$CLAYER
  8
0
  9
$CELTYPE
  6
BYLAYER
  9
$CECOLOR
 62
   256
  9
$DIMSCALE
 40
1.0
  9
$DIMASZ
 40
2.0
  9
$DIMEXO
 40
0.0625
  9
$DIMDLI
 40
0.38
  9
$DIMRND
 40
0.0
  9
$DIMDLE
 40
0.0
  9
$DIMEXE
 40
1.0
  9
$DIMTP
 40
0.0
  9
$DIMTM
 40
0.0
  9
$DIMTXT
 40
3.2
  9
$DIMCEN
 40
0.09
  9
$DIMTSZ
 40
0.0
  9
$DIMTOL
 70
     0
  9
$DIMLIM
 70
     0
  9
$DIMTIH
 70
     1
  9
$DIMTOH
 70
     1
  9
$DIMSE1
 70
     0
  9
$DIMSE2
 70
     0
  9
$DIMTAD
 70
     1
  9
$DIMZIN
 70
     0
  9
$DIMBLK
  1

  9
$DIMASO
 70
     1
  9
$DIMSHO
 70
     1
  9
$DIMPOST
  1

  9
$DIMAPOST
  1

  9
$DIMALT
 70
     0
  9
$DIMALTD
 70
     2
  9
$DIMALTF
 40
25.4
  9
$DIMLFAC
 40
1.0
  9
$DIMTOFL
 70
     0
  9
$DIMTVP
 40
0.0
  9
$DIMTIX
 70
     0
  9
$DIMSOXD
 70
     0
  9
$DIMSAH
 70
     0
  9
$DIMBLK1
  1

  9
$DIMBLK2
  1

  9
$LUNITS
 70
     2
  9
$LUPREC
 70
     4
  9
$SKETCHINC
 40
0.1
  9
$FILLETRAD
 40
0.5
  9
$AUNITS
 70
     0
  9
$AUPREC
 70
     0
  9
$MENU
  1
.
  9
$ELEVATION
 40
0.0
  9
$THICKNESS
 40
0.0
  9
$LIMCHECK
 70
     0
  9
$CHAMFERA
 40
0.0
  9
$CHAMFERB
 40
0.0
  9
$SKPOLY
 70
     0
  9
$TDCREATE
 40
2460745.667609225
  9
$TDUPDATE
 40
2460745.667609421
  9
$TDINDWG
 40
0.0000000116
  9
$TDUSRTIMER
 40
0.0000000116
  9
$USRTIMER
 70
     1
  9
$ANGBASE
 50
0.0
  9
$ANGDIR
 70
     0
  9
$PDMODE
 70
     0
  9
$PDSIZE
 40
0.0
  9
$PLINEWID
 40
0.0
  9
$COORDS
 70
     1
  9
$SPLFRAME
 70
     0
  9
$SPLINETYPE
 70
     6
  9
$SPLINESEGS
 70
     8
  9
$ATTDIA
 70
     0
  9
$ATTREQ
 70
     1
  9
$HANDLING
 70
     1
  9
$HANDSEED
  5
D7
  9
$SURFTAB1
 70
     6
  9
$SURFTAB2
 70
     6
  9
$SURFTYPE
 70
     6
  9
$SURFU
 70
     6
  9
$SURFV
 70
     6
  9
$UCSNAME
  2

  9
$UCSORG
 10
0.0
 20
0.0
 30
0.0
  9
$UCSXDIR
 10
1.0
 20
0.0
 30
0.0
  9
$UCSYDIR
 10
0.0
 20
1.0
 30
0.0
  9
$USERI1
 70
     0
  9
$USERI2
 70
     0
  9
$USERI3
 70
     0
  9
$USERI4
 70
     0
  9
$USERI5
 70
     0
  9
$USERR1
 40
0.0
  9
$USERR2
 40
0.0
  9
$USERR3
 40
0.0
  9
$USERR4
 40
0.0
  9
$USERR5
 40
0.0
  9
$WORLDVIEW
 70
     1
  0
ENDSEC
  0
SECTION
  2
TABLES
  0
TABLE
  2
VPORT
 70
     1
  0
VPORT
  2
*ACTIVE
 70
     0
 10
0.0
 20
0.0
 11
1.0
 21
1.0
 12
291.4262869436545
 22
183.4975983379
 13
0.0
 23
0.0
 14
0.5
 24
0.5
 15
0.5
 25
0.5
 16
0.0
 26
0.0
 36
1.0
 17
0.0
 27
0.0
 37
0.0
 40
62.38186867579998
 41
1.6
 42
50.0
 43
0.0
 44
0.0
 50
0.0
 51
0.0
 71
     0
 72
   100
 73
     1
 74
     3
 75
     0
 76
     0
 77
     0
 78
     0
  0
ENDTAB
  0
TABLE
  2
LTYPE
 70
     2
  0
LTYPE
  2
CONTINUOUS
 70
     0
  3
Solid line
 72
    65
 73
     0
 40
0.0
  0
LTYPE
  2
CENTER
 70
     0
  3

 72
    65
 73
     0
 40
0.0
  0
ENDTAB
  0
TABLE
  2
LAYER
 70
     2
  0
LAYER
  2
0
 70
     0
 62
     7
  6
CONTINUOUS
  0
LAYER
  2
1
 70
     0
 62
     7
  6
CONTINUOUS
  0
ENDTAB
  0
TABLE
  2
STYLE
 70
     2
  0
STYLE
  2
STANDARD
 70
     0
 40
0.0
 41
1.0
 50
0.0
 71
     0
 42
0.2
  3
txt
  4

  0
STYLE
  2
ＭＳ_ゴシック
 70
     0
 40
0.0
 41
1.0
 50
0.0
 71
     0
 42
0.2
  3
ＭＳ ゴシック.shx
  4

  0
ENDTAB
  0
TABLE
  2
VIEW
 70
     0
  0
ENDTAB
  0
TABLE
  2
UCS
 70
     0
  0
ENDTAB
  0
ENDSEC
  0
SECTION
  2
BLOCKS
  0
ENDSEC
  0
SECTION
  2
ENTITIES
  0
TEXT
  5
70
  8
1
  6
CONTINUOUS
 62
     7
 10
356.1453568604476
 20
151.9930276363636
 30
0.0
 40
3.0
  1
ＦＰ２８－Ｃ－ＢＭ
 41
0.87752
  0
ARC
  5
71
  8
1
  6
CONTINUOUS
 62
     7
 10
336.6070669544
 20
180.4295580796
 30
0.0
 40
0.5
 50
120.0
 51
210.0
  0
LINE
  5
72
  8
1
  6
CONTINUOUS
 62
     7
 10
299.644081381
 20
168.9385326758
 30
0.0
 11
299.644081381
 21
210.4385326758
 31
0.0
  0
ARC
  5
73
  8
1
  6
CONTINUOUS
 62
     7
 10
372.6810958076
 20
180.4295580796
 30
0.0
 40
0.5
 50
330.0
 51
60.0
  0
LINE
  5
74
  8
1
  6
CONTINUOUS
 62
     7
 10
356.144081381
 20
209.9385326758
 30
0.0
 11
356.144081381
 21
209.3814882691
 31
0.0
  0
ARC
  5
75
  8
1
  6
CONTINUOUS
 62
     7
 10
372.6810958076
 20
198.947507272
 30
0.0
 40
0.5
 50
300.0
 51
30.0
  0
ARC
  5
76
  8
1
  6
CONTINUOUS
 62
     7
 10
336.6070669544
 20
198.947507272
 30
0.0
 40
0.5
 50
150.0
 51
240.0
  0
ARC
  5
77
  8
1
  6
CONTINUOUS
 62
     7
 10
354.644081381
 20
189.6885326758
 30
0.0
 40
19.75
 50
274.3557726270001
 51
325.644227373
  0
ARC
  5
78
  8
1
  6
CONTINUOUS
 62
     7
 10
337.6070669544
 20
178.697507272
 30
0.0
 40
0.5
 50
210.0
 51
300.0
  0
LINE
  5
79
  8
1
  6
CONTINUOUS
 62
     7
 10
356.144081381
 20
169.4385326758
 30
0.0
 11
356.144081381
 21
169.9955770825
 31
0.0
  0
ARC
  5
7A
  8
1
  6
CONTINUOUS
 62
     7
 10
355.644081381
 20
169.4385326758
 30
0.0
 40
0.5
 50
270.0
 51
0.0
  0
ARC
  5
7B
  8
1
  6
CONTINUOUS
 62
     7
 10
269.644081381
 20
173.4389493135
 30
0.0
 40
3.0
 50
180.0
 51
269.0451587461
  0
LINE
  5
7C
  8
1
  6
CONTINUOUS
 62
     7
 10
372.9310958076
 20
180.8625707815
 30
0.0
 11
372.4486812004
 21
181.1410929848
 31
0.0
  0
LINE
  5
7D
  8
1
  6
CONTINUOUS
 62
     7
 10
266.644081381
 20
205.938116038
 30
0.0
 11
266.644081381
 21
173.4389493135
 31
0.0
  0
ARC
  5
7E
  8
1
  6
CONTINUOUS
 62
     7
 10
354.644081381
 20
189.6885326758
 30
0.0
 40
19.75
 50
34.355772627
 51
85.644227373
  0
LINE
  5
7F
  8
1
  6
CONTINUOUS
 62
     7
 10
337.8570669544
 20
201.1125707815
 30
0.0
 11
338.3394815616
 21
200.8340485781
 31
0.0
  0
ARC
  5
80
  8
1
  6
CONTINUOUS
 62
     7
 10
354.644081381
 20
189.6885326758
 30
0.0
 40
19.75
 50
94.355772627
 51
145.644227373
  0
LINE
  5
81
  8
1
  6
CONTINUOUS
 62
     7
 10
269.594088324
 20
170.4393658934
 30
0.0
 11
299.644081381
 21
169.9385326758
 31
0.0
  0
CIRCLE
  5
82
  8
1
  6
CONTINUOUS
 62
     7
 10
354.644081381
 20
189.6885326758
 30
0.0
 40
17.8
  0
LINE
  5
83
  8
1
  6
CONTINUOUS
 62
     7
 10
372.1141085095
 20
200.9295580796
 30
0.0
 11
373.1141085095
 21
199.197507272
 31
0.0
  0
ARC
  5
84
  8
1
  6
CONTINUOUS
 62
     7
 10
355.644081381
 20
209.9385326758
 30
0.0
 40
0.5
 50
0.0
 51
90.0
  0
LINE
  5
85
  8
1
  6
CONTINUOUS
 62
     7
 10
336.3570669544
 20
180.8625707815
 30
0.0
 11
336.8394815616
 21
181.1410929848
 31
0.0
  0
LINE
  5
86
  8
1
  6
CENTER
 62
     7
 10
354.644081381
 20
214.6885326758
 30
0.0
 11
354.644081381
 21
164.6885326758
 31
0.0
  0
LINE
  5
88
  8
1
  6
CONTINUOUS
 62
     7
 10
299.644081381
 20
181.1410929848
 30
0.0
 11
280.6274170287
 21
181.1410929848
 31
0.0
  0
LINE
  5
89
  8
1
  6
CONTINUOUS
 62
     7
 10
353.644081381
 20
210.4385326758
 30
0.0
 11
355.644081381
 21
210.4385326758
 31
0.0
  0
ARC
  5
8A
  8
1
  6
CONTINUOUS
 62
     7
 10
354.644081381
 20
189.6885326758
 30
0.0
 40
19.75
 50
334.355772627
 51
25.64422737299998
  0
LINE
  5
8B
  8
1
  6
CONTINUOUS
 62
     7
 10
353.144081381
 20
209.9385326758
 30
0.0
 11
353.144081381
 21
209.3814882691
 31
0.0
  0
LINE
  5
8C
  8
1
  6
CENTER
 62
     7
 10
261.644081381
 20
189.6885326758
 30
0.0
 11
304.644081381
 21
189.6885326758
 31
0.0
  0
ARC
  5
8D
  8
1
  6
CONTINUOUS
 62
     7
 10
371.6810958076
 20
200.6795580796
 30
0.0
 40
0.5
 50
30.0
 51
120.0
  0
LINE
  5
8E
  8
1
  6
CONTINUOUS
 62
     7
 10
336.3570669544
 20
198.5144945701
 30
0.0
 11
336.8394815616
 21
198.2359723668
 31
0.0
  0
LINE
  5
8F
  8
1
  6
CENTER
 62
     7
 10
329.644081381
 20
189.6885326758
 30
0.0
 11
379.644081381
 21
189.6885326758
 31
0.0
  0
LINE
  5
90
  8
1
  6
CONTINUOUS
 62
     7
 10
280.6274170287
 20
169.2554770817
 30
0.0
 11
299.644081381
 21
168.9385326758
 31
0.0
  0
ARC
  5
91
  8
1
  6
CONTINUOUS
 62
     7
 10
354.644081381
 20
189.6885326758
 30
0.0
 40
19.75
 50
214.355772627
 51
265.644227373
  0
LINE
  5
92
  8
1
  6
CONTINUOUS
 62
     7
 10
371.4310958076
 20
201.1125707815
 30
0.0
 11
370.9486812004
 21
200.8340485781
 31
0.0
  0
ARC
  5
93
  8
1
  6
CONTINUOUS
 62
     7
 10
337.6070669544
 20
200.6795580796
 30
0.0
 40
0.5
 50
60.0
 51
150.0
  0
LINE
  5
94
  8
1
  6
CONTINUOUS
 62
     7
 10
280.6274170287
 20
178.197507272
 30
0.0
 11
299.1515805374
 21
178.2874049427
 31
0.0
  0
ARC
  5
95
  8
1
  6
CONTINUOUS
 62
     7
 10
281.2361638077
 20
179.6693001284
 30
0.0
 40
1.5927168151
 50
112.4704278044
 51
247.5295721956
  0
LINE
  5
96
  8
1
  6
CONTINUOUS
 62
     7
 10
269.594088324
 20
208.9376994582
 30
0.0
 11
299.644081381
 21
209.4385326758
 31
0.0
  0
ARC
  5
97
  8
1
  6
CONTINUOUS
 62
     7
 10
269.644081381
 20
205.938116038
 30
0.0
 40
3.0
 50
90.9548412539
 51
180.0
  0
LINE
  5
98
  8
1
  6
CONTINUOUS
 62
     7
 10
280.6274170287
 20
210.1215882699
 30
0.0
 11
299.644081381
 21
210.4385326758
 31
0.0
  0
LINE
  5
99
  8
1
  6
CONTINUOUS
 62
     7
 10
279.644081381
 20
209.1217271299
 30
0.0
 11
279.644081381
 21
209.1051993424
 31
0.0
  0
ARC
  5
9A
  8
1
  6
CONTINUOUS
 62
     7
 10
280.644081381
 20
209.1217271299
 30
0.0
 40
1.0
 50
90.9548412539
 51
180.0
  0
LINE
  5
9B
  8
1
  6
CONTINUOUS
 62
     7
 10
299.644081381
 20
198.2359723668
 30
0.0
 11
280.6274170287
 21
198.2359723668
 31
0.0
  0
LINE
  5
9C
  8
1
  6
CONTINUOUS
 62
     7
 10
280.6274170287
 20
201.1795580796
 30
0.0
 11
299.1515805374
 21
201.0896604089
 31
0.0
  0
LINE
  5
9D
  8
1
  6
CONTINUOUS
 62
     7
 10
279.644081381
 20
170.2553382217
 30
0.0
 11
279.644081381
 21
170.2718660091
 31
0.0
  0
LINE
  5
9E
  8
1
  6
CONTINUOUS
 62
     7
 10
337.8570669544
 20
178.2644945701
 30
0.0
 11
338.3394815616
 21
178.5430167735
 31
0.0
  0
ARC
  5
9F
  8
1
  6
CONTINUOUS
 62
     7
 10
281.2361638077
 20
199.7077652232
 30
0.0
 40
1.5927168151
 50
112.4704278044
 51
247.5295721956
  0
LINE
  5
A0
  8
1
  6
CONTINUOUS
 62
     7
 10
353.144081381
 20
169.4385326758
 30
0.0
 11
353.144081381
 21
169.9955770825
 31
0.0
  0
LINE
  5
A1
  8
1
  6
CONTINUOUS
 62
     7
 10
372.9310958076
 20
198.5144945701
 30
0.0
 11
372.4486812004
 21
198.2359723668
 31
0.0
  0
LINE
  5
A2
  8
1
  6
CONTINUOUS
 62
     7
 10
371.4310958076
 20
178.2644945701
 30
0.0
 11
370.9486812004
 21
178.5430167735
 31
0.0
  0
LINE
  5
A3
  8
1
  6
CONTINUOUS
 62
     7
 10
336.1740542525
 20
199.197507272
 30
0.0
 11
337.1740542525
 21
200.9295580796
 31
0.0
  0
LINE
  5
A4
  8
1
  6
CONTINUOUS
 62
     7
 10
373.1141085095
 20
180.1795580796
 30
0.0
 11
372.1141085095
 21
178.447507272
 31
0.0
  0
LINE
  5
A5
  8
1
  6
CONTINUOUS
 62
     7
 10
337.1740542525
 20
178.447507272
 30
0.0
 11
336.1740542525
 21
180.1795580796
 31
0.0
  0
ARC
  5
A6
  8
1
  6
CONTINUOUS
 62
     7
 10
354.644081381
 20
189.6885326758
 30
0.0
 40
19.75
 50
154.355772627
 51
205.644227373
  0
CIRCLE
  5
A7
  8
1
  6
CONTINUOUS
 62
     7
 10
354.644081381
 20
189.6885326758
 30
0.0
 40
18.5426124873
  0
LINE
  5
A8
  8
1
  6
CONTINUOUS
 62
     7
 10
355.644081381
 20
168.9385326758
 30
0.0
 11
353.644081381
 21
168.9385326758
 31
0.0
  0
ARC
  5
A9
  8
1
  6
CONTINUOUS
 62
     7
 10
280.644081381
 20
170.2553382217
 30
0.0
 40
1.0
 50
180.0
 51
269.0451587461
  0
ARC
  5
AA
  8
1
  6
CONTINUOUS
 62
     7
 10
353.644081381
 20
209.9385326758
 30
0.0
 40
0.5
 50
90.0
 51
180.0
  0
ARC
  5
AB
  8
1
  6
CONTINUOUS
 62
     7
 10
353.644081381
 20
169.4385326758
 30
0.0
 40
0.5
 50
180.0
 51
270.0
  0
ARC
  5
AC
  8
1
  6
CONTINUOUS
 62
     7
 10
371.6810958076
 20
178.697507272
 30
0.0
 40
0.5
 50
240.0
 51
330.0
  0
CIRCLE
  5
AD
  8
1
  6
CONTINUOUS
 62
     7
 10
354.644081381
 20
189.6885326758
 30
0.0
 40
16.0
  0
ARC
  5
AE
  8
1
  6
CONTINUOUS
 62
     7
 10
241.7753142231
 20
198.947507272
 30
0.0
 40
0.5
 50
300.0
 51
30.0
  0
LINE
  5
AF
  8
1
  6
CONTINUOUS
 62
     7
 10
225.2382997964
 20
209.9385326758
 30
0.0
 11
225.2382997964
 21
209.3814882691
 31
0.0
  0
ARC
  5
B0
  8
1
  6
CONTINUOUS
 62
     7
 10
224.7382997964
 20
209.9385326758
 30
0.0
 40
0.5
 50
0.0
 51
90.0
  0
LINE
  5
B1
  8
1
  6
CONTINUOUS
 62
     7
 10
242.0253142231
 20
198.5144945701
 30
0.0
 11
241.5428996158
 21
198.2359723668
 31
0.0
  0
LINE
  5
B2
  8
1
  6
CONTINUOUS
 62
     7
 10
206.9512853698
 20
178.2644945701
 30
0.0
 11
207.433699977
 21
178.5430167735
 31
0.0
  0
ARC
  5
B3
  8
1
  6
CONTINUOUS
 62
     7
 10
206.7012853698
 20
178.697507272
 30
0.0
 40
0.5
 50
210.0
 51
300.0
  0
ARC
  5
B4
  8
1
  6
CONTINUOUS
 62
     7
 10
222.7382997964
 20
209.9385326758
 30
0.0
 40
0.5
 50
90.0
 51
180.0
  0
ARC
  5
B5
  8
1
  6
CONTINUOUS
 62
     7
 10
205.7012853698
 20
180.4295580796
 30
0.0
 40
0.5
 50
120.0
 51
210.0
  0
ARC
  5
B6
  8
1
  6
CONTINUOUS
 62
     7
 10
222.7382997964
 20
169.4385326758
 30
0.0
 40
0.5
 50
180.0
 51
270.0
  0
CIRCLE
  5
B7
  8
1
  6
CONTINUOUS
 62
     7
 10
223.7382997964
 20
189.6885326758
 30
0.0
 40
18.4849036403
  0
LINE
  5
B8
  8
1
  6
CENTER
 62
     7
 10
223.7382997964
 20
214.6885326758
 30
0.0
 11
223.7382997964
 21
164.6885326758
 31
0.0
  0
CIRCLE
  5
B9
  8
1
  6
CONTINUOUS
 62
     7
 10
223.7382997964
 20
189.6885326758
 30
0.0
 40
19.75
  0
LINE
  5
BA
  8
1
  6
CONTINUOUS
 62
     7
 10
206.2682726679
 20
200.9295580796
 30
0.0
 11
205.2682726679
 21
199.197507272
 31
0.0
  0
LINE
  5
BB
  8
1
  6
CONTINUOUS
 62
     7
 10
205.2682726679
 20
180.1795580796
 30
0.0
 11
206.2682726679
 21
178.447507272
 31
0.0
  0
LINE
  5
BC
  8
1
  6
CONTINUOUS
 62
     7
 10
222.2382997964
 20
169.4385326758
 30
0.0
 11
222.2382997964
 21
169.9955770825
 31
0.0
  0
LINE
  5
BD
  8
1
  6
CONTINUOUS
 62
     7
 10
222.7382997964
 20
168.9385326758
 30
0.0
 11
224.7382997964
 21
168.9385326758
 31
0.0
  0
ARC
  5
BE
  8
1
  6
CONTINUOUS
 62
     7
 10
206.7012853698
 20
200.6795580796
 30
0.0
 40
0.5
 50
60.0
 51
150.0
  0
ARC
  5
BF
  8
1
  6
CONTINUOUS
 62
     7
 10
240.7753142231
 20
178.697507272
 30
0.0
 40
0.5
 50
240.0
 51
330.0
  0
LINE
  5
C0
  8
1
  6
CONTINUOUS
 62
     7
 10
205.4512853698
 20
198.5144945701
 30
0.0
 11
205.933699977
 21
198.2359723668
 31
0.0
  0
LINE
  5
C1
  8
1
  6
CONTINUOUS
 62
     7
 10
242.0253142231
 20
180.8625707815
 30
0.0
 11
241.5428996158
 21
181.1410929848
 31
0.0
  0
ARC
  5
C2
  8
1
  6
CONTINUOUS
 62
     7
 10
224.7382997964
 20
169.4385326758
 30
0.0
 40
0.5
 50
270.0
 51
0.0
  0
LINE
  5
C3
  8
1
  6
CONTINUOUS
 62
     7
 10
205.4512853698
 20
180.8625707815
 30
0.0
 11
205.933699977
 21
181.1410929848
 31
0.0
  0
LINE
  5
C4
  8
1
  6
CONTINUOUS
 62
     7
 10
206.9512853698
 20
201.1125707815
 30
0.0
 11
207.433699977
 21
200.8340485781
 31
0.0
  0
ARC
  5
C5
  8
1
  6
CONTINUOUS
 62
     7
 10
241.7753142231
 20
180.4295580796
 30
0.0
 40
0.5
 50
330.0
 51
60.0
  0
LINE
  5
C6
  8
1
  6
CONTINUOUS
 62
     7
 10
225.2382997964
 20
169.4385326758
 30
0.0
 11
225.2382997964
 21
169.9955770825
 31
0.0
  0
LINE
  5
C7
  8
1
  6
CONTINUOUS
 62
     7
 10
240.5253142231
 20
201.1125707815
 30
0.0
 11
240.0428996158
 21
200.8340485781
 31
0.0
  0
LINE
  5
C8
  8
1
  6
CENTER
 62
     7
 10
248.7382997964
 20
189.6885326758
 30
0.0
 11
198.7382997964
 21
189.6885326758
 31
0.0
  0
LINE
  5
C9
  8
1
  6
CONTINUOUS
 62
     7
 10
242.208326925
 20
199.197507272
 30
0.0
 11
241.208326925
 21
200.9295580796
 31
0.0
  0
LINE
  5
CA
  8
1
  6
CONTINUOUS
 62
     7
 10
224.7382997964
 20
210.4385326758
 30
0.0
 11
222.7382997964
 21
210.4385326758
 31
0.0
  0
LINE
  5
CB
  8
1
  6
CONTINUOUS
 62
     7
 10
222.2382997964
 20
209.9385326758
 30
0.0
 11
222.2382997964
 21
209.3814882691
 31
0.0
  0
ARC
  5
CC
  8
1
  6
CONTINUOUS
 62
     7
 10
205.7012853698
 20
198.947507272
 30
0.0
 40
0.5
 50
150.0
 51
240.0
  0
ARC
  5
CD
  8
1
  6
CONTINUOUS
 62
     7
 10
240.7753142231
 20
200.6795580796
 30
0.0
 40
0.5
 50
30.0
 51
120.0
  0
LINE
  5
CE
  8
1
  6
CONTINUOUS
 62
     7
 10
240.5253142231
 20
178.2644945701
 30
0.0
 11
240.0428996158
 21
178.5430167735
 31
0.0
  0
LINE
  5
CF
  8
1
  6
CONTINUOUS
 62
     7
 10
241.208326925
 20
178.447507272
 30
0.0
 11
242.208326925
 21
180.1795580796
 31
0.0
  0
ENDSEC
  0
EOF
