  0
SECTION
  2
HEADER
  9
$ACADVER
  1
AC1006
  9
$DWGCODEPAGE
  3
ansi_932
  9
$INSBASE
 10
0.0
 20
0.0
 30
0.0
  9
$EXTMIN
 10
54.02497449761077
 20
67.76741044044846
  9
$EXTMAX
 10
161.9070577158056
 20
166.3318884985354
  9
$LIMMIN
 10
0.0
 20
0.0
  9
$LIMMAX
 10
12.0
 20
9.0
  9
$ORTHOMODE
 70
     0
  9
$REGENMODE
 70
     1
  9
$FILLMODE
 70
     1
  9
$QTEXTMODE
 70
     0
  9
$MIRRTEXT
 70
     1
  9
$DRAGMODE
 70
     2
  9
$LTSCALE
 40
1.0
  9
$OSMODE
 70
    37
  9
$ATTMODE
 70
     1
  9
$TEXTSIZE
 40
0.2
  9
$TRACEWID
 40
0.05
  9
$TEXTSTYLE
  7
STANDARD
  9
$CLAYER
  8
0
  9
$CELTYPE
  6
BYLAYER
  9
$CECOLOR
 62
   256
  9
$DIMSCALE
 40
1.0
  9
$DIMASZ
 40
3.0
  9
$DIMEXO
 40
0.0625
  9
$DIMDLI
 40
0.38
  9
$DIMRND
 40
0.0
  9
$DIMDLE
 40
0.0
  9
$DIMEXE
 40
1.5
  9
$DIMTP
 40
0.0
  9
$DIMTM
 40
0.0
  9
$DIMTXT
 40
3.0
  9
$DIMCEN
 40
0.09
  9
$DIMTSZ
 40
0.0
  9
$DIMTOL
 70
     0
  9
$DIMLIM
 70
     0
  9
$DIMTIH
 70
     1
  9
$DIMTOH
 70
     1
  9
$DIMSE1
 70
     0
  9
$DIMSE2
 70
     0
  9
$DIMTAD
 70
     1
  9
$DIMZIN
 70
     0
  9
$DIMBLK
  1

  9
$DIMASO
 70
     1
  9
$DIMSHO
 70
     1
  9
$DIMPOST
  1

  9
$DIMAPOST
  1

  9
$DIMALT
 70
     0
  9
$DIMALTD
 70
     2
  9
$DIMALTF
 40
25.4
  9
$DIMLFAC
 40
1.0
  9
$DIMTOFL
 70
     0
  9
$DIMTVP
 40
0.0
  9
$DIMTIX
 70
     0
  9
$DIMSOXD
 70
     0
  9
$DIMSAH
 70
     0
  9
$DIMBLK1
  1

  9
$DIMBLK2
  1

  9
$LUNITS
 70
     2
  9
$LUPREC
 70
     4
  9
$SKETCHINC
 40
0.1
  9
$FILLETRAD
 40
0.5
  9
$AUNITS
 70
     0
  9
$AUPREC
 70
     0
  9
$MENU
  1
.
  9
$ELEVATION
 40
0.0
  9
$THICKNESS
 40
0.0
  9
$LIMCHECK
 70
     0
  9
$CHAMFERA
 40
0.0
  9
$CHAMFERB
 40
0.0
  9
$SKPOLY
 70
     0
  9
$TDCREATE
 40
2460745.658883808
  9
$TDUPDATE
 40
2460745.658884016
  9
$TDINDWG
 40
0.0000000116
  9
$TDUSRTIMER
 40
0.0000000116
  9
$USRTIMER
 70
     1
  9
$ANGBASE
 50
0.0
  9
$ANGDIR
 70
     0
  9
$PDMODE
 70
     0
  9
$PDSIZE
 40
0.0
  9
$PLINEWID
 40
0.0
  9
$COORDS
 70
     1
  9
$SPLFRAME
 70
     0
  9
$SPLINETYPE
 70
     6
  9
$SPLINESEGS
 70
     8
  9
$ATTDIA
 70
     0
  9
$ATTREQ
 70
     1
  9
$HANDLING
 70
     1
  9
$HANDSEED
  5
230
  9
$SURFTAB1
 70
     6
  9
$SURFTAB2
 70
     6
  9
$SURFTYPE
 70
     6
  9
$SURFU
 70
     6
  9
$SURFV
 70
     6
  9
$UCSNAME
  2

  9
$UCSORG
 10
0.0
 20
0.0
 30
0.0
  9
$UCSXDIR
 10
1.0
 20
0.0
 30
0.0
  9
$UCSYDIR
 10
0.0
 20
1.0
 30
0.0
  9
$USERI1
 70
     0
  9
$USERI2
 70
     0
  9
$USERI3
 70
     0
  9
$USERI4
 70
     0
  9
$USERI5
 70
     0
  9
$USERR1
 40
0.0
  9
$USERR2
 40
0.0
  9
$USERR3
 40
0.0
  9
$USERR4
 40
0.0
  9
$USERR5
 40
0.0
  9
$WORLDVIEW
 70
     1
  0
ENDSEC
  0
SECTION
  2
TABLES
  0
TABLE
  2
VPORT
 70
     1
  0
VPORT
  2
*ACTIVE
 70
     0
 10
0.0
 20
0.0
 11
1.0
 21
1.0
 12
107.9660161067082
 22
117.0496494694919
 13
0.0
 23
0.0
 14
0.5
 24
0.5
 15
0.5
 25
0.5
 16
0.0
 26
0.0
 36
1.0
 17
0.0
 27
0.0
 37
0.0
 40
98.56447805808693
 41
1.6
 42
50.0
 43
0.0
 44
0.0
 50
0.0
 51
0.0
 71
     0
 72
   100
 73
     1
 74
     3
 75
     0
 76
     0
 77
     0
 78
     0
  0
ENDTAB
  0
TABLE
  2
LTYPE
 70
     2
  0
LTYPE
  2
CONTINUOUS
 70
     0
  3
Solid line
 72
    65
 73
     0
 40
0.0
  0
LTYPE
  2
CENTER
 70
     0
  3

 72
    65
 73
     0
 40
0.0
  0
ENDTAB
  0
TABLE
  2
LAYER
 70
     2
  0
LAYER
  2
0
 70
     0
 62
     7
  6
CONTINUOUS
  0
LAYER
  2
1
 70
     0
 62
     7
  6
CONTINUOUS
  0
ENDTAB
  0
TABLE
  2
STYLE
 70
     2
  0
STYLE
  2
STANDARD
 70
     0
 40
0.0
 41
1.0
 50
0.0
 71
     0
 42
0.2
  3
txt
  4

  0
STYLE
  2
ＭＳ_ゴシック
 70
     0
 40
0.0
 41
1.0
 50
0.0
 71
     0
 42
0.2
  3
ＭＳ ゴシック.shx
  4

  0
ENDTAB
  0
TABLE
  2
VIEW
 70
     0
  0
ENDTAB
  0
TABLE
  2
UCS
 70
     0
  0
ENDTAB
  0
ENDSEC
  0
SECTION
  2
BLOCKS
  0
BLOCK
  8
0
  2
D_FRAME_VIEW_2906
 70
     0
 10
0.0
 20
0.0
 30
0.0
  0
POLYLINE
  5
76
  8
1
  6
CONTINUOUS
 62
     7
 66
     1
 10
0.0
 20
0.0
 30
0.0
  0
VERTEX
  5
12A
  8
1
  6
CONTINUOUS
 62
     7
 10
85.83843363795577
 20
96.26741044044846
 30
0.0
  0
VERTEX
  5
12B
  8
1
  6
CONTINUOUS
 62
     7
 10
85.83861496356013
 20
96.28812381629872
 30
0.0
  0
VERTEX
  5
12C
  8
1
  6
CONTINUOUS
 62
     7
 10
85.8395718121633
 20
96.30882052285399
 30
0.0
  0
VERTEX
  5
12D
  8
1
  6
CONTINUOUS
 62
     7
 10
85.84130070212598
 20
96.32944709133228
 30
0.0
  0
VERTEX
  5
12E
  8
1
  6
CONTINUOUS
 62
     7
 10
85.84379815180884
 20
96.3499500529516
 30
0.0
  0
VERTEX
  5
12F
  8
1
  6
CONTINUOUS
 62
     7
 10
85.84717066129069
 20
96.37090024194025
 30
0.0
  0
VERTEX
  5
130
  8
1
  6
CONTINUOUS
 62
     7
 10
85.85135134265606
 20
96.39168146086074
 30
0.0
  0
VERTEX
  5
131
  8
1
  6
CONTINUOUS
 62
     7
 10
85.8563273184032
 20
96.41223706688214
 30
0.0
  0
VERTEX
  5
132
  8
1
  6
CONTINUOUS
 62
     7
 10
85.86208571103026
 20
96.4325104171736
 30
0.0
  0
VERTEX
  5
133
  8
1
  6
CONTINUOUS
 62
     7
 10
85.86842808119201
 20
96.45192259516529
 30
0.0
  0
VERTEX
  5
134
  8
1
  6
CONTINUOUS
 62
     7
 10
85.87549790844426
 20
96.47103389511992
 30
0.0
  0
VERTEX
  5
135
  8
1
  6
CONTINUOUS
 62
     7
 10
85.88327545105695
 20
96.48979539442738
 30
0.0
  0
VERTEX
  5
136
  8
1
  6
CONTINUOUS
 62
     7
 10
85.8917409673
 20
96.5081581704776
 30
0.0
  0
VERTEX
  5
137
  8
1
  6
CONTINUOUS
 62
     7
 10
85.90116407054819
 20
96.52661922492595
 30
0.0
  0
VERTEX
  5
138
  8
1
  6
CONTINUOUS
 62
     7
 10
85.9112979196633
 20
96.54462448830648
 30
0.0
  0
VERTEX
  5
139
  8
1
  6
CONTINUOUS
 62
     7
 10
85.92211313051203
 20
96.56212554974199
 30
0.0
  0
VERTEX
  5
13A
  8
1
  6
CONTINUOUS
 62
     7
 10
85.93358031896108
 20
96.5790739983553
 30
0.0
  0
VERTEX
  5
13B
  8
1
  6
CONTINUOUS
 62
     7
 10
85.9453479921376
 20
96.59500917996297
 30
0.0
  0
VERTEX
  5
13C
  8
1
  6
CONTINUOUS
 62
     7
 10
85.95771059828881
 20
96.61039364719659
 30
0.0
  0
VERTEX
  5
13D
  8
1
  6
CONTINUOUS
 62
     7
 10
85.97063479237127
 20
96.62518862797569
 30
0.0
  0
VERTEX
  5
13E
  8
1
  6
CONTINUOUS
 62
     7
 10
85.9840872293415
 20
96.63935535021973
 30
0.0
  0
VERTEX
  5
13F
  8
1
  6
CONTINUOUS
 62
     7
 10
85.99846872092778
 20
96.65326116888282
 30
0.0
  0
VERTEX
  5
140
  8
1
  6
CONTINUOUS
 62
     7
 10
86.01338251140844
 20
96.66647653044613
 30
0.0
  0
VERTEX
  5
141
  8
1
  6
CONTINUOUS
 62
     7
 10
86.02878656107845
 20
96.6789665880588
 30
0.0
  0
VERTEX
  5
142
  8
1
  6
CONTINUOUS
 62
     7
 10
86.04463883023269
 20
96.69069649487002
 30
0.0
  0
VERTEX
  5
143
  8
1
  6
CONTINUOUS
 62
     7
 10
86.06049466537065
 20
96.70137709438399
 30
0.0
  0
VERTEX
  5
144
  8
1
  6
CONTINUOUS
 62
     7
 10
86.0767469124861
 20
96.71131770988264
 30
0.0
  0
VERTEX
  5
145
  8
1
  6
CONTINUOUS
 62
     7
 10
86.09335264061345
 20
96.720493814991
 30
0.0
  0
VERTEX
  5
146
  8
1
  6
CONTINUOUS
 62
     7
 10
86.11026891878723
 20
96.72888088333406
 30
0.0
  0
VERTEX
  5
147
  8
1
  6
CONTINUOUS
 62
     7
 10
86.12798386867634
 20
96.73667693997622
 30
0.0
  0
VERTEX
  5
148
  8
1
  6
CONTINUOUS
 62
     7
 10
86.14599497463857
 20
96.74362303033622
 30
0.0
  0
VERTEX
  5
149
  8
1
  6
CONTINUOUS
 62
     7
 10
86.16425236411352
 20
96.74970147471586
 30
0.0
  0
VERTEX
  5
14A
  8
1
  6
CONTINUOUS
 62
     7
 10
86.1827061645408
 20
96.754894593417
 30
0.0
  0
VERTEX
  5
14B
  8
1
  6
CONTINUOUS
 62
     7
 10
86.20225548681235
 20
96.75938026559001
 30
0.0
  0
VERTEX
  5
14C
  8
1
  6
CONTINUOUS
 62
     7
 10
86.22199211457902
 20
96.76288219866403
 30
0.0
  0
VERTEX
  5
14D
  8
1
  6
CONTINUOUS
 62
     7
 10
86.24185634514248
 20
96.76539288035468
 30
0.0
  0
VERTEX
  5
14E
  8
1
  6
CONTINUOUS
 62
     7
 10
86.2617884758043
 20
96.76690479837761
 30
0.0
  0
VERTEX
  5
14F
  8
1
  6
CONTINUOUS
 62
     7
 10
86.28172880386606
 20
96.76741044044846
 30
0.0
  0
SEQEND
  5
228
  8
1
  6
CONTINUOUS
 62
     7
  0
LINE
  5
77
  8
1
  6
CONTINUOUS
 62
     7
 10
85.83843363795577
 20
96.26741044044846
 30
0.0
 11
86.04898776857043
 21
75.26741044044844
 31
0.0
  0
LINE
  5
78
  8
1
  6
CONTINUOUS
 62
     7
 10
67.80096122665114
 20
75.26741044044844
 30
0.0
 11
86.04898776857043
 21
75.26741044044844
 31
0.0
  0
LINE
  5
79
  8
1
  6
CONTINUOUS
 62
     7
 10
67.80096122665114
 20
75.26741044044844
 30
0.0
 11
68.01151535726578
 21
96.26741044044844
 31
0.0
  0
POLYLINE
  5
7A
  8
1
  6
CONTINUOUS
 62
     7
 66
     1
 10
0.0
 20
0.0
 30
0.0
  0
VERTEX
  5
150
  8
1
  6
CONTINUOUS
 62
     7
 10
67.5682201913555
 20
96.76741044044846
 30
0.0
  0
VERTEX
  5
151
  8
1
  6
CONTINUOUS
 62
     7
 10
67.58673266107134
 20
96.76697642911459
 30
0.0
  0
VERTEX
  5
152
  8
1
  6
CONTINUOUS
 62
     7
 10
67.60523084715388
 20
96.76567737568556
 30
0.0
  0
VERTEX
  5
153
  8
1
  6
CONTINUOUS
 62
     7
 10
67.62366690169918
 20
96.76351775102017
 30
0.0
  0
VERTEX
  5
154
  8
1
  6
CONTINUOUS
 62
     7
 10
67.64199297680334
 20
96.76050202597722
 30
0.0
  0
VERTEX
  5
155
  8
1
  6
CONTINUOUS
 62
     7
 10
67.66071881653666
 20
96.75650500665964
 30
0.0
  0
VERTEX
  5
156
  8
1
  6
CONTINUOUS
 62
     7
 10
67.67929379460391
 20
96.75160778772643
 30
0.0
  0
VERTEX
  5
157
  8
1
  6
CONTINUOUS
 62
     7
 10
67.69766698960206
 20
96.74582492886478
 30
0.0
  0
VERTEX
  5
158
  8
1
  6
CONTINUOUS
 62
     7
 10
67.71578748012804
 20
96.73917098976194
 30
0.0
  0
VERTEX
  5
159
  8
1
  6
CONTINUOUS
 62
     7
 10
67.7331379551325
 20
96.73187327253783
 30
0.0
  0
VERTEX
  5
15A
  8
1
  6
CONTINUOUS
 62
     7
 10
67.75021824773906
 20
96.72376486152082
 30
0.0
  0
VERTEX
  5
15B
  8
1
  6
CONTINUOUS
 62
     7
 10
67.76698405633043
 20
96.71486765088298
 30
0.0
  0
VERTEX
  5
15C
  8
1
  6
CONTINUOUS
 62
     7
 10
67.7833910792894
 20
96.70520353479642
 30
0.0
  0
VERTEX
  5
15D
  8
1
  6
CONTINUOUS
 62
     7
 10
67.79988370786404
 20
96.6944640216984
 30
0.0
  0
VERTEX
  5
15E
  8
1
  6
CONTINUOUS
 62
     7
 10
67.81596490195949
 20
96.68293075523809
 30
0.0
  0
VERTEX
  5
15F
  8
1
  6
CONTINUOUS
 62
     7
 10
67.83159043151095
 20
96.67063627639216
 30
0.0
  0
VERTEX
  5
160
  8
1
  6
CONTINUOUS
 62
     7
 10
67.84671606645361
 20
96.65761312613735
 30
0.0
  0
VERTEX
  5
161
  8
1
  6
CONTINUOUS
 62
     7
 10
67.86091035846376
 20
96.64427839711425
 30
0.0
  0
VERTEX
  5
162
  8
1
  6
CONTINUOUS
 62
     7
 10
67.8746064170759
 20
96.63027912773124
 30
0.0
  0
VERTEX
  5
163
  8
1
  6
CONTINUOUS
 62
     7
 10
67.88776866970247
 20
96.61565229407988
 30
0.0
  0
VERTEX
  5
164
  8
1
  6
CONTINUOUS
 62
     7
 10
67.90036154375599
 20
96.60043487225171
 30
0.0
  0
VERTEX
  5
165
  8
1
  6
CONTINUOUS
 62
     7
 10
67.91271268339989
 20
96.5841691730144
 30
0.0
  0
VERTEX
  5
166
  8
1
  6
CONTINUOUS
 62
     7
 10
67.92443615260252
 20
96.56730660951938
 30
0.0
  0
VERTEX
  5
167
  8
1
  6
CONTINUOUS
 62
     7
 10
67.9354997848077
 20
96.54989424039866
 30
0.0
  0
VERTEX
  5
168
  8
1
  6
CONTINUOUS
 62
     7
 10
67.94587141345922
 20
96.53197912428423
 30
0.0
  0
VERTEX
  5
169
  8
1
  6
CONTINUOUS
 62
     7
 10
67.95525698222178
 20
96.51413891785596
 30
0.0
  0
VERTEX
  5
16A
  8
1
  6
CONTINUOUS
 62
     7
 10
67.96397321400468
 20
96.49585675342736
 30
0.0
  0
VERTEX
  5
16B
  8
1
  6
CONTINUOUS
 62
     7
 10
67.9719977790818
 20
96.47718052027263
 30
0.0
  0
VERTEX
  5
16C
  8
1
  6
CONTINUOUS
 62
     7
 10
67.97930834772703
 20
96.45815810766591
 30
0.0
  0
VERTEX
  5
16D
  8
1
  6
CONTINUOUS
 62
     7
 10
67.98607676946996
 20
96.43823617217194
 30
0.0
  0
VERTEX
  5
16E
  8
1
  6
CONTINUOUS
 62
     7
 10
67.99207485094942
 20
96.41798335904258
 30
0.0
  0
VERTEX
  5
16F
  8
1
  6
CONTINUOUS
 62
     7
 10
67.99728674170352
 20
96.39745576174984
 30
0.0
  0
VERTEX
  5
170
  8
1
  6
CONTINUOUS
 62
     7
 10
68.00169659127032
 20
96.37670947376574
 30
0.0
  0
VERTEX
  5
171
  8
1
  6
CONTINUOUS
 62
     7
 10
68.00539223470116
 20
96.35512472566295
 30
0.0
  0
VERTEX
  5
172
  8
1
  6
CONTINUOUS
 62
     7
 10
68.00822774876279
 20
96.33333845540281
 30
0.0
  0
VERTEX
  5
173
  8
1
  6
CONTINUOUS
 62
     7
 10
68.01019731770855
 20
96.31141465586234
 30
0.0
  0
VERTEX
  5
174
  8
1
  6
CONTINUOUS
 62
     7
 10
68.01129512579176
 20
96.28941731991856
 30
0.0
  0
VERTEX
  5
175
  8
1
  6
CONTINUOUS
 62
     7
 10
68.01151535726578
 20
96.26741044044844
 30
0.0
  0
SEQEND
  5
229
  8
1
  6
CONTINUOUS
 62
     7
  0
LINE
  5
7B
  8
1
  6
CONTINUOUS
 62
     7
 10
56.07887174433814
 20
75.26741044044844
 30
0.0
 11
65.07086061212482
 21
75.26741044044844
 31
0.0
  0
LINE
  5
7C
  8
1
  6
CONTINUOUS
 62
     7
 10
56.07887174433814
 20
75.26741044044844
 30
0.0
 11
56.49998000556744
 21
96.26741044044846
 31
0.0
  0
LINE
  5
7D
  8
1
  6
CONTINUOUS
 62
     7
 10
56.47941507753131
 20
96.76741044044846
 30
0.0
 11
56.49998000556744
 21
96.26741044044846
 31
0.0
  0
LINE
  5
7E
  8
1
  6
CONTINUOUS
 62
     7
 10
97.34996898965409
 20
96.26741044044846
 30
0.0
 11
97.37053391769021
 21
96.76741044044846
 31
0.0
  0
LINE
  5
7F
  8
1
  6
CONTINUOUS
 62
     7
 10
97.34996898965409
 20
96.26741044044846
 30
0.0
 11
97.77107725088338
 21
75.26741044044844
 31
0.0
  0
LINE
  5
80
  8
1
  6
CONTINUOUS
 62
     7
 10
88.77908838309673
 20
75.26741044044844
 30
0.0
 11
97.77107725088341
 21
75.26741044044844
 31
0.0
  0
LINE
  5
81
  8
1
  6
CONTINUOUS
 62
     7
 10
59.66557443762277
 20
110.2674104404484
 30
0.0
 11
94.18437455759876
 21
110.2674104404484
 31
0.0
  0
LINE
  5
82
  8
1
  6
CONTINUOUS
 62
     7
 10
65.8211514791047
 20
96.76741044044846
 30
0.0
 11
65.80435155565667
 21
96.76689063070664
 31
0.0
  0
LINE
  5
83
  8
1
  6
CONTINUOUS
 62
     7
 10
65.80435155565667
 20
96.76689063070664
 30
0.0
 11
65.76331762021005
 21
96.76123182087673
 31
0.0
  0
LINE
  5
84
  8
1
  6
CONTINUOUS
 62
     7
 10
65.82115147910471
 20
96.76741044044846
 30
0.0
 11
67.55320228667361
 21
96.76741044044846
 31
0.0
  0
LINE
  5
85
  8
1
  6
CONTINUOUS
 62
     7
 10
86.29674670854797
 20
96.76741044044846
 30
0.0
 11
88.02879751611685
 21
96.76741044044846
 31
0.0
  0
LINE
  5
86
  8
1
  6
CONTINUOUS
 62
     7
 10
67.73592412158592
 20
75.26741044044844
 30
0.0
 11
67.0738146797433
 21
75.26741044044844
 31
0.0
  0
LINE
  5
87
  8
1
  6
CONTINUOUS
 62
     7
 10
86.77613431547826
 20
75.26741044044844
 30
0.0
 11
86.11402487363563
 21
75.26741044044844
 31
0.0
  0
LINE
  5
88
  8
1
  6
CONTINUOUS
 62
     7
 10
65.3005245672323
 20
75.26741044044844
 30
0.0
 11
67.07381467974331
 21
75.26741044044844
 31
0.0
  0
LINE
  5
89
  8
1
  6
CONTINUOUS
 62
     7
 10
86.77613431547827
 20
75.26741044044844
 30
0.0
 11
88.54942442798924
 21
75.26741044044844
 31
0.0
  0
LINE
  5
8A
  8
1
  6
CONTINUOUS
 62
     7
 10
67.73592412158592
 20
75.26741044044844
 30
0.0
 11
67.80096122665114
 21
75.26741044044844
 31
0.0
  0
LINE
  5
8B
  8
1
  6
CONTINUOUS
 62
     7
 10
86.04898776857043
 20
75.26741044044844
 30
0.0
 11
86.11402487363563
 21
75.26741044044844
 31
0.0
  0
LINE
  5
8C
  8
1
  6
CONTINUOUS
 62
     7
 10
67.55320228667358
 20
96.76741044044846
 30
0.0
 11
67.5682201913555
 21
96.76741044044846
 31
0.0
  0
LINE
  5
8D
  8
1
  6
CONTINUOUS
 62
     7
 10
86.28172880386606
 20
96.76741044044846
 30
0.0
 11
86.29674670854797
 21
96.76741044044846
 31
0.0
  0
LINE
  5
8E
  8
1
  6
CONTINUOUS
 62
     7
 10
88.10379006065506
 20
96.75699892374357
 30
0.0
 11
88.02879751611681
 21
96.76741044044847
 31
0.0
  0
LINE
  5
8F
  8
1
  6
CONTINUOUS
 62
     7
 10
65.3005245672323
 20
75.26741044044844
 30
0.0
 11
65.07086061212482
 21
75.26741044044844
 31
0.0
  0
LINE
  5
90
  8
1
  6
CONTINUOUS
 62
     7
 10
88.77908838309672
 20
75.26741044044844
 30
0.0
 11
88.54942442798925
 21
75.26741044044844
 31
0.0
  0
LINE
  5
91
  8
1
  6
CONTINUOUS
 62
     7
 10
56.4493792681675
 20
96.76741044044846
 30
0.0
 11
56.47941507753131
 21
96.76741044044846
 31
0.0
  0
LINE
  5
92
  8
1
  6
CONTINUOUS
 62
     7
 10
55.94879753420773
 20
75.26741044044844
 30
0.0
 11
55.4493647493648
 21
75.26741044044844
 31
0.0
  0
LINE
  5
93
  8
1
  6
CONTINUOUS
 62
     7
 10
55.94879753420773
 20
75.26741044044844
 30
0.0
 11
56.07887174433814
 21
75.26741044044844
 31
0.0
  0
LINE
  5
94
  8
1
  6
CONTINUOUS
 62
     7
 10
97.37053391769021
 20
96.76741044044846
 30
0.0
 11
97.40056972705405
 21
96.76741044044846
 31
0.0
  0
LINE
  5
95
  8
1
  6
CONTINUOUS
 62
     7
 10
97.77107725088338
 20
75.26741044044844
 30
0.0
 11
97.9011514610138
 21
75.26741044044844
 31
0.0
  0
LINE
  5
96
  8
1
  6
CONTINUOUS
 62
     7
 10
98.40058424585673
 20
75.26741044044844
 30
0.0
 11
97.9011514610138
 21
75.26741044044844
 31
0.0
  0
LINE
  5
97
  8
1
  6
CONTINUOUS
 62
     7
 10
56.42497449761079
 20
96.76741044044846
 30
0.0
 11
56.44937926816751
 21
96.76741044044846
 31
0.0
  0
LINE
  5
98
  8
1
  6
CONTINUOUS
 62
     7
 10
97.40056972705405
 20
96.76741044044846
 30
0.0
 11
97.42497449761076
 21
96.76741044044846
 31
0.0
  0
LINE
  5
99
  8
1
  6
CONTINUOUS
 62
     7
 10
55.42497449761076
 20
75.26741044044844
 30
0.0
 11
55.4493647493648
 21
75.26741044044844
 31
0.0
  0
LINE
  5
9A
  8
1
  6
CONTINUOUS
 62
     7
 10
98.40058424585672
 20
75.26741044044844
 30
0.0
 11
98.42497449761076
 21
75.26741044044844
 31
0.0
  0
LINE
  5
9B
  8
1
  6
CONTINUOUS
 62
     7
 10
97.39497449761075
 20
96.76741044044846
 30
0.0
 11
97.18377473753878
 21
107.3273984440471
 31
0.0
  0
LINE
  5
9C
  8
1
  6
CONTINUOUS
 62
     7
 10
56.66617425768275
 20
107.3273984440471
 30
0.0
 11
56.45497449761078
 21
96.76741044044846
 31
0.0
  0
ARC
  5
9D
  8
1
  6
CONTINUOUS
 62
     7
 10
59.66557443762277
 20
107.2674104404484
 30
0.0
 40
3.000000000000003
 50
90.0
 51
178.8542371618282
  0
ARC
  5
9E
  8
1
  6
CONTINUOUS
 62
     7
 10
94.18437455759876
 20
107.2674104404484
 30
0.0
 40
2.999999999999996
 50
1.145762838171824
 51
90.0
  0
ARC
  5
9F
  8
1
  6
CONTINUOUS
 62
     7
 10
87.3995768802687
 20
95.77554889271998
 30
0.0
 40
1.37944265010137
 50
359.6619637126094
 51
19.03963771407473
  0
POLYLINE
  5
A0
  8
1
  6
CONTINUOUS
 62
     7
 66
     1
 10
0.0
 20
0.0
 30
0.0
  0
VERTEX
  5
176
  8
1
  6
CONTINUOUS
 62
     7
 10
88.7035545247748
 20
96.22555370107986
 30
0.0
  0
VERTEX
  5
177
  8
1
  6
CONTINUOUS
 62
     7
 10
88.65306270524907
 20
96.34433831324688
 30
0.0
  0
VERTEX
  5
178
  8
1
  6
CONTINUOUS
 62
     7
 10
88.59092159305493
 20
96.45075814686429
 30
0.0
  0
VERTEX
  5
179
  8
1
  6
CONTINUOUS
 62
     7
 10
88.52354547795014
 20
96.53719980499861
 30
0.0
  0
VERTEX
  5
17A
  8
1
  6
CONTINUOUS
 62
     7
 10
88.447328215896
 20
96.61070450812173
 30
0.0
  0
VERTEX
  5
17B
  8
1
  6
CONTINUOUS
 62
     7
 10
88.35291674714429
 20
96.67624881732178
 30
0.0
  0
VERTEX
  5
17C
  8
1
  6
CONTINUOUS
 62
     7
 10
88.24653689799936
 20
96.7249863045526
 30
0.0
  0
VERTEX
  5
17D
  8
1
  6
CONTINUOUS
 62
     7
 10
88.12963630666503
 20
96.75379568548134
 30
0.0
  0
VERTEX
  5
17E
  8
1
  6
CONTINUOUS
 62
     7
 10
88.10378802632448
 20
96.75699949165494
 30
0.0
  0
SEQEND
  5
22A
  8
1
  6
CONTINUOUS
 62
     7
  0
POLYLINE
  5
A1
  8
1
  6
CONTINUOUS
 62
     7
 66
     1
 10
0.0
 20
0.0
 30
0.0
  0
VERTEX
  5
17F
  8
1
  6
CONTINUOUS
 62
     7
 10
65.7633176360431
 20
96.76123182426181
 30
0.0
  0
VERTEX
  5
180
  8
1
  6
CONTINUOUS
 62
     7
 10
65.65795019882815
 20
96.74308060573067
 30
0.0
  0
VERTEX
  5
181
  8
1
  6
CONTINUOUS
 62
     7
 10
65.54253699960418
 20
96.70079280915151
 30
0.0
  0
VERTEX
  5
182
  8
1
  6
CONTINUOUS
 62
     7
 10
65.44386246500073
 20
96.64267792348068
 30
0.0
  0
VERTEX
  5
183
  8
1
  6
CONTINUOUS
 62
     7
 10
65.36034017956753
 20
96.57275138355568
 30
0.0
  0
VERTEX
  5
184
  8
1
  6
CONTINUOUS
 62
     7
 10
65.28256742455952
 20
96.48373194697487
 30
0.0
  0
VERTEX
  5
185
  8
1
  6
CONTINUOUS
 62
     7
 10
65.21883013283548
 20
96.3857025555367
 30
0.0
  0
VERTEX
  5
186
  8
1
  6
CONTINUOUS
 62
     7
 10
65.17097237006058
 20
96.28836743511408
 30
0.0
  0
SEQEND
  5
22B
  8
1
  6
CONTINUOUS
 62
     7
  0
ARC
  5
A2
  8
1
  6
CONTINUOUS
 62
     7
 10
66.39716313730058
 20
95.78287036681365
 30
0.0
 40
1.326299771441184
 50
157.5960976677
 51
180.6678796239392
  0
LINE
  5
A3
  8
1
  6
CONTINUOUS
 62
     7
 10
65.07086061212482
 20
95.76741044044844
 30
0.0
 11
65.07086061212482
 21
75.26741044044844
 31
0.0
  0
LINE
  5
A4
  8
1
  6
CONTINUOUS
 62
     7
 10
88.77908838309672
 20
75.26741044044844
 30
0.0
 11
88.77908838309672
 21
95.76741044044844
 31
0.0
  0
ARC
  5
A5
  8
1
  6
CONTINUOUS
 62
     7
 10
56.42497449761076
 20
95.76741044044844
 30
0.0
 40
1.000000000000001
 50
90.0
 51
180.0
  0
ARC
  5
A6
  8
1
  6
CONTINUOUS
 62
     7
 10
97.42497449761076
 20
95.76741044044844
 30
0.0
 40
1.000000000000001
 50
0.0000000000000994
 51
90.0000000000004
  0
LINE
  5
A7
  8
1
  6
CONTINUOUS
 62
     7
 10
55.42497449761076
 20
95.76741044044844
 30
0.0
 11
55.42497449761076
 21
75.26741044044844
 31
0.0
  0
LINE
  5
A8
  8
1
  6
CONTINUOUS
 62
     7
 10
98.42497449761076
 20
75.26741044044844
 30
0.0
 11
98.42497449761076
 21
95.76741044044844
 31
0.0
  0
ENDBLK
  8
0
  0
BLOCK
  8
0
  2
D_FRAME_VIEW_2817
 70
     0
 10
0.0
 20
0.0
 30
0.0
  0
LINE
  5
AD
  8
1
  6
CONTINUOUS
 62
     7
 10
133.4070577158056
 20
144.9318884985354
 30
0.0
 11
133.9070577158056
 21
144.9318884985354
 31
0.0
  0
ARC
  5
AE
  8
1
  6
CONTINUOUS
 62
     7
 10
133.4070577158056
 20
144.4318884985354
 30
0.0
 40
0.5000000000000004
 50
90.0000000000002
 51
180.0
  0
LINE
  5
AF
  8
1
  6
CONTINUOUS
 62
     7
 10
132.9070577158056
 20
142.4318884985354
 30
0.0
 11
132.9070577158056
 21
144.4318884985354
 31
0.0
  0
LINE
  5
B0
  8
1
  6
CONTINUOUS
 62
     7
 10
133.9070577158056
 20
141.9318884985354
 30
0.0
 11
133.4070577158056
 21
141.9318884985354
 31
0.0
  0
ARC
  5
B1
  8
1
  6
CONTINUOUS
 62
     7
 10
133.4070577158056
 20
142.4318884985354
 30
0.0
 40
0.5000000000000004
 50
180.0
 51
269.9999999999998
  0
LINE
  5
B2
  8
1
  6
CONTINUOUS
 62
     7
 10
154.4070577158056
 20
142.4080789747259
 30
0.0
 11
154.4070577158056
 21
144.4556980223449
 31
0.0
  0
LINE
  5
B3
  8
1
  6
CONTINUOUS
 62
     7
 10
154.4070577158056
 20
141.9318884985354
 30
0.0
 11
133.9070577158056
 21
141.9318884985354
 31
0.0
  0
LINE
  5
B4
  8
1
  6
CONTINUOUS
 62
     7
 10
154.4070577158056
 20
142.4080789747259
 30
0.0
 11
154.4070577158056
 21
141.9318884985354
 31
0.0
  0
LINE
  5
B5
  8
1
  6
CONTINUOUS
 62
     7
 10
133.9070577158056
 20
144.9318884985354
 30
0.0
 11
154.4070577158056
 21
144.9318884985354
 31
0.0
  0
LINE
  5
B6
  8
1
  6
CONTINUOUS
 62
     7
 10
154.4070577158056
 20
144.9318884985354
 30
0.0
 11
154.4070577158056
 21
144.4556980223449
 31
0.0
  0
LINE
  5
B7
  8
1
  6
CONTINUOUS
 62
     7
 10
154.4070577158056
 20
122.5318884985354
 30
0.0
 11
154.4070577158056
 21
124.2659863739504
 31
0.0
  0
POLYLINE
  5
B8
  8
1
  6
CONTINUOUS
 62
     7
 66
     1
 10
0.0
 20
0.0
 30
0.0
  0
VERTEX
  5
187
  8
1
  6
CONTINUOUS
 62
     7
 10
133.4070577158056
 20
160.3704526008021
 30
0.0
  0
VERTEX
  5
188
  8
1
  6
CONTINUOUS
 62
     7
 10
133.3863443399553
 20
160.3703357590319
 30
0.0
  0
VERTEX
  5
189
  8
1
  6
CONTINUOUS
 62
     7
 10
133.3656476334001
 20
160.3707032374527
 30
0.0
  0
VERTEX
  5
18A
  8
1
  6
CONTINUOUS
 62
     7
 10
133.3450210649218
 20
160.3715533389093
 30
0.0
  0
VERTEX
  5
18B
  8
1
  6
CONTINUOUS
 62
     7
 10
133.3245181033025
 20
160.3728843662465
 30
0.0
  0
VERTEX
  5
18C
  8
1
  6
CONTINUOUS
 62
     7
 10
133.3035679143138
 20
160.3747562747568
 30
0.0
  0
VERTEX
  5
18D
  8
1
  6
CONTINUOUS
 62
     7
 10
133.2827866953933
 20
160.3771338212023
 30
0.0
  0
VERTEX
  5
18E
  8
1
  6
CONTINUOUS
 62
     7
 10
133.2622310893719
 20
160.3800092228575
 30
0.0
  0
VERTEX
  5
18F
  8
1
  6
CONTINUOUS
 62
     7
 10
133.2419577390805
 20
160.3833746969968
 30
0.0
  0
VERTEX
  5
190
  8
1
  6
CONTINUOUS
 62
     7
 10
133.2225455610888
 20
160.3871125705148
 30
0.0
  0
VERTEX
  5
191
  8
1
  6
CONTINUOUS
 62
     7
 10
133.2034342611342
 20
160.3913055906069
 30
0.0
  0
VERTEX
  5
192
  8
1
  6
CONTINUOUS
 62
     7
 10
133.1846727618267
 20
160.3959414636655
 30
0.0
  0
VERTEX
  5
193
  8
1
  6
CONTINUOUS
 62
     7
 10
133.1663099857765
 20
160.4010078960836
 30
0.0
  0
VERTEX
  5
194
  8
1
  6
CONTINUOUS
 62
     7
 10
133.1478489313281
 20
160.4066665143223
 30
0.0
  0
VERTEX
  5
195
  8
1
  6
CONTINUOUS
 62
     7
 10
133.1298436679476
 20
160.4127690580854
 30
0.0
  0
VERTEX
  5
196
  8
1
  6
CONTINUOUS
 62
     7
 10
133.1123426065121
 20
160.4192970675171
 30
0.0
  0
VERTEX
  5
197
  8
1
  6
CONTINUOUS
 62
     7
 10
133.0953941578988
 20
160.4262320827617
 30
0.0
  0
VERTEX
  5
198
  8
1
  6
CONTINUOUS
 62
     7
 10
133.0794589762911
 20
160.4333603178288
 30
0.0
  0
VERTEX
  5
199
  8
1
  6
CONTINUOUS
 62
     7
 10
133.0640745090575
 20
160.4408588913112
 30
0.0
  0
VERTEX
  5
19A
  8
1
  6
CONTINUOUS
 62
     7
 10
133.0492795282784
 20
160.4487068300749
 30
0.0
  0
VERTEX
  5
19B
  8
1
  6
CONTINUOUS
 62
     7
 10
133.0351128060344
 20
160.4568831609861
 30
0.0
  0
VERTEX
  5
19C
  8
1
  6
CONTINUOUS
 62
     7
 10
133.0212069873712
 20
160.4656310535356
 30
0.0
  0
VERTEX
  5
19D
  8
1
  6
CONTINUOUS
 62
     7
 10
133.007991625808
 20
160.4747086499264
 30
0.0
  0
VERTEX
  5
19E
  8
1
  6
CONTINUOUS
 62
     7
 10
132.9955015681953
 20
160.4840895855296
 30
0.0
  0
VERTEX
  5
19F
  8
1
  6
CONTINUOUS
 62
     7
 10
132.9837716613841
 20
160.4937474957161
 30
0.0
  0
VERTEX
  5
1A0
  8
1
  6
CONTINUOUS
 62
     7
 10
132.9730910618701
 20
160.503410609858
 30
0.0
  0
VERTEX
  5
1A1
  8
1
  6
CONTINUOUS
 62
     7
 10
132.9631504463714
 20
160.5133175770738
 30
0.0
  0
VERTEX
  5
1A2
  8
1
  6
CONTINUOUS
 62
     7
 10
132.9539743412631
 20
160.5234416232617
 30
0.0
  0
VERTEX
  5
1A3
  8
1
  6
CONTINUOUS
 62
     7
 10
132.94558727292
 20
160.5337559743196
 30
0.0
  0
VERTEX
  5
1A4
  8
1
  6
CONTINUOUS
 62
     7
 10
132.9377912162778
 20
160.5445576807541
 30
0.0
  0
VERTEX
  5
1A5
  8
1
  6
CONTINUOUS
 62
     7
 10
132.9308451259178
 20
160.5555398448344
 30
0.0
  0
VERTEX
  5
1A6
  8
1
  6
CONTINUOUS
 62
     7
 10
132.9247666815382
 20
160.5666715926078
 30
0.0
  0
VERTEX
  5
1A7
  8
1
  6
CONTINUOUS
 62
     7
 10
132.9195735628371
 20
160.5779220501219
 30
0.0
  0
VERTEX
  5
1A8
  8
1
  6
CONTINUOUS
 62
     7
 10
132.9150878906641
 20
160.5898387838779
 30
0.0
  0
VERTEX
  5
1A9
  8
1
  6
CONTINUOUS
 62
     7
 10
132.9115859575901
 20
160.6018677665699
 30
0.0
  0
VERTEX
  5
1AA
  8
1
  6
CONTINUOUS
 62
     7
 10
132.9090752758994
 20
160.6139724124626
 30
0.0
  0
VERTEX
  5
1AB
  8
1
  6
CONTINUOUS
 62
     7
 10
132.9075633578765
 20
160.6261161358206
 30
0.0
  0
VERTEX
  5
1AC
  8
1
  6
CONTINUOUS
 62
     7
 10
132.9070577158056
 20
160.6382623509084
 30
0.0
  0
SEQEND
  5
22C
  8
1
  6
CONTINUOUS
 62
     7
  0
LINE
  5
B9
  8
1
  6
CONTINUOUS
 62
     7
 10
133.4070577158056
 20
160.3704526008021
 30
0.0
 11
154.4070577158056
 21
160.7351430527702
 31
0.0
  0
LINE
  5
BA
  8
1
  6
CONTINUOUS
 62
     7
 10
154.4070577158056
 20
126.1286339443006
 30
0.0
 11
133.4070577158056
 21
126.4933243962686
 31
0.0
  0
POLYLINE
  5
BB
  8
1
  6
CONTINUOUS
 62
     7
 66
     1
 10
0.0
 20
0.0
 30
0.0
  0
VERTEX
  5
1AD
  8
1
  6
CONTINUOUS
 62
     7
 10
132.9070577158056
 20
126.2255146461624
 30
0.0
  0
VERTEX
  5
1AE
  8
1
  6
CONTINUOUS
 62
     7
 10
132.9074917271395
 20
126.2367909968604
 30
0.0
  0
VERTEX
  5
1AF
  8
1
  6
CONTINUOUS
 62
     7
 10
132.9087907805685
 20
126.2480607876703
 30
0.0
  0
VERTEX
  5
1B0
  8
1
  6
CONTINUOUS
 62
     7
 10
132.9109504052339
 20
126.2592947429081
 30
0.0
  0
VERTEX
  5
1B1
  8
1
  6
CONTINUOUS
 62
     7
 10
132.9139661302769
 20
126.2704635868903
 30
0.0
  0
VERTEX
  5
1B2
  8
1
  6
CONTINUOUS
 62
     7
 10
132.9179631495944
 20
126.2818778992991
 30
0.0
  0
VERTEX
  5
1B3
  8
1
  6
CONTINUOUS
 62
     7
 10
132.9228603685277
 20
126.2932017725691
 30
0.0
  0
VERTEX
  5
1B4
  8
1
  6
CONTINUOUS
 62
     7
 10
132.9286432273893
 20
126.3044037725709
 30
0.0
  0
VERTEX
  5
1B5
  8
1
  6
CONTINUOUS
 62
     7
 10
132.9352971664921
 20
126.3154524651752
 30
0.0
  0
VERTEX
  5
1B6
  8
1
  6
CONTINUOUS
 62
     7
 10
132.9425948837163
 20
126.3260319839365
 30
0.0
  0
VERTEX
  5
1B7
  8
1
  6
CONTINUOUS
 62
     7
 10
132.9507032947333
 20
126.3364465542118
 30
0.0
  0
VERTEX
  5
1B8
  8
1
  6
CONTINUOUS
 62
     7
 10
132.9596005053711
 20
126.3466686117837
 30
0.0
  0
VERTEX
  5
1B9
  8
1
  6
CONTINUOUS
 62
     7
 10
132.9692646214577
 20
126.3566705924347
 30
0.0
  0
VERTEX
  5
1BA
  8
1
  6
CONTINUOUS
 62
     7
 10
132.9800041345557
 20
126.366722720101
 30
0.0
  0
VERTEX
  5
1BB
  8
1
  6
CONTINUOUS
 62
     7
 10
132.991537401016
 20
126.3765212424566
 30
0.0
  0
VERTEX
  5
1BC
  8
1
  6
CONTINUOUS
 62
     7
 10
133.0038318798619
 20
126.3860384664452
 30
0.0
  0
VERTEX
  5
1BD
  8
1
  6
CONTINUOUS
 62
     7
 10
133.0168550301167
 20
126.3952466990104
 30
0.0
  0
VERTEX
  5
1BE
  8
1
  6
CONTINUOUS
 62
     7
 10
133.0301897591398
 20
126.4038827335399
 30
0.0
  0
VERTEX
  5
1BF
  8
1
  6
CONTINUOUS
 62
     7
 10
133.0441890285229
 20
126.4122095835429
 30
0.0
  0
VERTEX
  5
1C0
  8
1
  6
CONTINUOUS
 62
     7
 10
133.0588158621742
 20
126.4202048885024
 30
0.0
  0
VERTEX
  5
1C1
  8
1
  6
CONTINUOUS
 62
     7
 10
133.0740332840024
 20
126.4278462879014
 30
0.0
  0
VERTEX
  5
1C2
  8
1
  6
CONTINUOUS
 62
     7
 10
133.0902989832397
 20
126.4353314028642
 30
0.0
  0
VERTEX
  5
1C3
  8
1
  6
CONTINUOUS
 62
     7
 10
133.1071615467347
 20
126.4424251552446
 30
0.0
  0
VERTEX
  5
1C4
  8
1
  6
CONTINUOUS
 62
     7
 10
133.1245739158554
 20
126.4491073172687
 30
0.0
  0
VERTEX
  5
1C5
  8
1
  6
CONTINUOUS
 62
     7
 10
133.1424890319698
 20
126.4553576611629
 30
0.0
  0
VERTEX
  5
1C6
  8
1
  6
CONTINUOUS
 62
     7
 10
133.1603292383981
 20
126.4609988613107
 30
0.0
  0
VERTEX
  5
1C7
  8
1
  6
CONTINUOUS
 62
     7
 10
133.1786114028267
 20
126.4662214326649
 30
0.0
  0
VERTEX
  5
1C8
  8
1
  6
CONTINUOUS
 62
     7
 10
133.1972876359815
 20
126.4710114122928
 30
0.0
  0
VERTEX
  5
1C9
  8
1
  6
CONTINUOUS
 62
     7
 10
133.2163100485882
 20
126.4753548372615
 30
0.0
  0
VERTEX
  5
1CA
  8
1
  6
CONTINUOUS
 62
     7
 10
133.2362319840821
 20
126.4793521242737
 30
0.0
  0
VERTEX
  5
1CB
  8
1
  6
CONTINUOUS
 62
     7
 10
133.2564847972115
 20
126.4828669415427
 30
0.0
  0
VERTEX
  5
1CC
  8
1
  6
CONTINUOUS
 62
     7
 10
133.2770123945042
 20
126.4858895728848
 30
0.0
  0
VERTEX
  5
1CD
  8
1
  6
CONTINUOUS
 62
     7
 10
133.2977586824883
 20
126.4884103021167
 30
0.0
  0
VERTEX
  5
1CE
  8
1
  6
CONTINUOUS
 62
     7
 10
133.3193434305911
 20
126.4904766188338
 30
0.0
  0
VERTEX
  5
1CF
  8
1
  6
CONTINUOUS
 62
     7
 10
133.3411297008513
 20
126.4920042933265
 30
0.0
  0
VERTEX
  5
1D0
  8
1
  6
CONTINUOUS
 62
     7
 10
133.3630535003917
 20
126.4929902188758
 30
0.0
  0
VERTEX
  5
1D1
  8
1
  6
CONTINUOUS
 62
     7
 10
133.3850508363355
 20
126.4934312887629
 30
0.0
  0
VERTEX
  5
1D2
  8
1
  6
CONTINUOUS
 62
     7
 10
133.4070577158056
 20
126.4933243962686
 30
0.0
  0
SEQEND
  5
22D
  8
1
  6
CONTINUOUS
 62
     7
  0
LINE
  5
BC
  8
1
  6
CONTINUOUS
 62
     7
 10
154.4070577158056
 20
126.1286339443006
 30
0.0
 11
154.4070577158056
 21
141.9318884985354
 31
0.0
  0
LINE
  5
BD
  8
1
  6
CONTINUOUS
 62
     7
 10
154.4070577158056
 20
144.9318884985354
 30
0.0
 11
154.4070577158056
 21
160.7351430527702
 31
0.0
  0
LINE
  5
BE
  8
1
  6
CONTINUOUS
 62
     7
 10
154.4070577158056
 20
162.5977906231203
 30
0.0
 11
154.4070577158056
 21
164.3318884985354
 31
0.0
  0
LINE
  5
BF
  8
1
  6
CONTINUOUS
 62
     7
 10
119.4070577158056
 20
126.1724884385474
 30
0.0
 11
119.4070577158056
 21
143.4318884985354
 31
0.0
  0
LINE
  5
C0
  8
1
  6
CONTINUOUS
 62
     7
 10
119.4070577158056
 20
143.4318884985354
 30
0.0
 11
119.4070577158056
 21
160.6912885585234
 31
0.0
  0
LINE
  5
C1
  8
1
  6
CONTINUOUS
 62
     7
 10
154.4070577158056
 20
126.0159863739505
 30
0.0
 11
154.4070577158056
 21
125.3453696566984
 31
0.0
  0
LINE
  5
C2
  8
1
  6
CONTINUOUS
 62
     7
 10
154.4070577158056
 20
161.5184073403724
 30
0.0
 11
154.4070577158056
 21
160.8477906231203
 31
0.0
  0
LINE
  5
C3
  8
1
  6
CONTINUOUS
 62
     7
 10
154.4070577158056
 20
126.0159863739505
 30
0.0
 11
154.4070577158056
 21
126.1286339443006
 31
0.0
  0
LINE
  5
C4
  8
1
  6
CONTINUOUS
 62
     7
 10
154.4070577158056
 20
160.7351430527702
 30
0.0
 11
154.4070577158056
 21
160.8477906231203
 31
0.0
  0
LINE
  5
C5
  8
1
  6
CONTINUOUS
 62
     7
 10
132.9070577158056
 20
125.1995028722301
 30
0.0
 11
132.9132363604042
 21
125.1020312891551
 31
0.0
  0
LINE
  5
C6
  8
1
  6
CONTINUOUS
 62
     7
 10
132.9070577158056
 20
125.1995028722301
 30
0.0
 11
132.9070577158056
 21
126.1995028722301
 31
0.0
  0
LINE
  5
C7
  8
1
  6
CONTINUOUS
 62
     7
 10
132.9070577158056
 20
160.6642741248407
 30
0.0
 11
132.9070577158056
 21
161.6642741248407
 31
0.0
  0
LINE
  5
C8
  8
1
  6
CONTINUOUS
 62
     7
 10
154.4070577158056
 20
124.3215601328889
 30
0.0
 11
154.4070577158056
 21
125.3453696566984
 31
0.0
  0
LINE
  5
C9
  8
1
  6
CONTINUOUS
 62
     7
 10
154.4070577158056
 20
161.5184073403724
 30
0.0
 11
154.4070577158056
 21
162.5422168641819
 31
0.0
  0
LINE
  5
CA
  8
1
  6
CONTINUOUS
 62
     7
 10
132.9070577158056
 20
126.1995028722301
 30
0.0
 11
132.9070577158056
 21
126.2255146461624
 31
0.0
  0
LINE
  5
CB
  8
1
  6
CONTINUOUS
 62
     7
 10
132.9070577158056
 20
160.6382623509084
 30
0.0
 11
132.9070577158056
 21
160.6642741248407
 31
0.0
  0
LINE
  5
CC
  8
1
  6
CONTINUOUS
 62
     7
 10
132.9174705050466
 20
161.7906745997802
 30
0.0
 11
132.9070577158056
 21
161.6642741248407
 31
0.0
  0
LINE
  5
CD
  8
1
  6
CONTINUOUS
 62
     7
 10
133.9070577158056
 20
124.2660929011416
 30
0.0
 11
133.9070577158056
 21
124.2659863739504
 31
0.0
  0
LINE
  5
CE
  8
1
  6
CONTINUOUS
 62
     7
 10
154.4070577158056
 20
124.3215601328889
 30
0.0
 11
154.4070577158056
 21
124.2659863739504
 31
0.0
  0
LINE
  5
CF
  8
1
  6
CONTINUOUS
 62
     7
 10
133.9070577158056
 20
162.5977906231203
 30
0.0
 11
133.9070577158056
 21
162.5976840918441
 31
0.0
  0
LINE
  5
D0
  8
1
  6
CONTINUOUS
 62
     7
 10
154.4070577158056
 20
162.5977906231203
 30
0.0
 11
154.4070577158056
 21
162.5422168641819
 31
0.0
  0
LINE
  5
D1
  8
1
  6
CONTINUOUS
 62
     7
 10
154.4070577158056
 20
164.3318884985354
 30
0.0
 11
122.347069712207
 21
163.6906887384634
 31
0.0
  0
LINE
  5
D2
  8
1
  6
CONTINUOUS
 62
     7
 10
122.347069712207
 20
123.1730882586074
 30
0.0
 11
154.4070577158056
 21
122.5318884985354
 31
0.0
  0
ARC
  5
D3
  8
1
  6
CONTINUOUS
 62
     7
 10
122.4070577158056
 20
126.1724884385474
 30
0.0
 40
3.000000000000003
 50
180.0
 51
268.8542371618283
  0
ARC
  5
D4
  8
1
  6
CONTINUOUS
 62
     7
 10
122.4070577158056
 20
160.6912885585234
 30
0.0
 40
2.999999999999996
 50
91.14576283817182
 51
180.0
  0
POLYLINE
  5
D5
  8
1
  6
CONTINUOUS
 62
     7
 66
     1
 10
0.0
 20
0.0
 30
0.0
  0
VERTEX
  5
1D3
  8
1
  6
CONTINUOUS
 62
     7
 10
133.9070577158056
 20
162.5976840878139
 30
0.0
  0
VERTEX
  5
1D4
  8
1
  6
CONTINUOUS
 62
     7
 10
133.8633509100946
 20
162.5967595526607
 30
0.0
  0
VERTEX
  5
1D5
  8
1
  6
CONTINUOUS
 62
     7
 10
133.8212122830485
 20
162.5941868159681
 30
0.0
  0
VERTEX
  5
1D6
  8
1
  6
CONTINUOUS
 62
     7
 10
133.7806239169645
 20
162.5901373725731
 30
0.0
  0
VERTEX
  5
1D7
  8
1
  6
CONTINUOUS
 62
     7
 10
133.7415700902374
 20
162.5847676044627
 30
0.0
  0
VERTEX
  5
1D8
  8
1
  6
CONTINUOUS
 62
     7
 10
133.7040368468738
 20
162.5782217589221
 30
0.0
  0
VERTEX
  5
1D9
  8
1
  6
CONTINUOUS
 62
     7
 10
133.6681755730721
 20
162.5706715173194
 30
0.0
  0
VERTEX
  5
1DA
  8
1
  6
CONTINUOUS
 62
     7
 10
133.6275790912522
 20
162.5605536055342
 30
0.0
  0
VERTEX
  5
1DB
  8
1
  6
CONTINUOUS
 62
     7
 10
133.5895438550259
 20
162.5495101840519
 30
0.0
  0
VERTEX
  5
1DC
  8
1
  6
CONTINUOUS
 62
     7
 10
133.5539755275938
 20
162.5377605166442
 30
0.0
  0
VERTEX
  5
1DD
  8
1
  6
CONTINUOUS
 62
     7
 10
133.5207887458927
 20
162.5255051549016
 30
0.0
  0
VERTEX
  5
1DE
  8
1
  6
CONTINUOUS
 62
     7
 10
133.489905477068
 20
162.5129292712051
 30
0.0
  0
VERTEX
  5
1DF
  8
1
  6
CONTINUOUS
 62
     7
 10
133.4496409422515
 20
162.4947468225715
 30
0.0
  0
VERTEX
  5
1E0
  8
1
  6
CONTINUOUS
 62
     7
 10
133.413739834659
 20
162.4767236599595
 30
0.0
  0
VERTEX
  5
1E1
  8
1
  6
CONTINUOUS
 62
     7
 10
133.3821159831011
 20
162.4593339864378
 30
0.0
  0
VERTEX
  5
1E2
  8
1
  6
CONTINUOUS
 62
     7
 10
133.3537088609584
 20
162.4424208176546
 30
0.0
  0
VERTEX
  5
1E3
  8
1
  6
CONTINUOUS
 62
     7
 10
133.3258159239554
 20
162.4245422122689
 30
0.0
  0
VERTEX
  5
1E4
  8
1
  6
CONTINUOUS
 62
     7
 10
133.298344917708
 20
162.4056108447326
 30
0.0
  0
VERTEX
  5
1E5
  8
1
  6
CONTINUOUS
 62
     7
 10
133.271316362726
 20
162.3855988409719
 30
0.0
  0
VERTEX
  5
1E6
  8
1
  6
CONTINUOUS
 62
     7
 10
133.2447545100789
 20
162.3644750044759
 30
0.0
  0
VERTEX
  5
1E7
  8
1
  6
CONTINUOUS
 62
     7
 10
133.2186876544171
 20
162.3422045470873
 30
0.0
  0
VERTEX
  5
1E8
  8
1
  6
CONTINUOUS
 62
     7
 10
133.1931485259098
 20
162.3187487440105
 30
0.0
  0
VERTEX
  5
1E9
  8
1
  6
CONTINUOUS
 62
     7
 10
133.1681747771553
 20
162.2940644972563
 30
0.0
  0
VERTEX
  5
1EA
  8
1
  6
CONTINUOUS
 62
     7
 10
133.1438297895538
 20
162.2681262739671
 30
0.0
  0
VERTEX
  5
1EB
  8
1
  6
CONTINUOUS
 62
     7
 10
133.11982141119
 20
162.2405004273929
 30
0.0
  0
VERTEX
  5
1EC
  8
1
  6
CONTINUOUS
 62
     7
 10
133.0938070678988
 20
162.2080273498708
 30
0.0
  0
VERTEX
  5
1ED
  8
1
  6
CONTINUOUS
 62
     7
 10
133.0800850525652
 20
162.1896755428263
 30
0.0
  0
VERTEX
  5
1EE
  8
1
  6
CONTINUOUS
 62
     7
 10
133.0659946753351
 20
162.1698203203068
 30
0.0
  0
VERTEX
  5
1EF
  8
1
  6
CONTINUOUS
 62
     7
 10
133.0516298306213
 20
162.1483860593028
 30
0.0
  0
VERTEX
  5
1F0
  8
1
  6
CONTINUOUS
 62
     7
 10
133.0370958989467
 20
162.1252933609058
 30
0.0
  0
VERTEX
  5
1F1
  8
1
  6
CONTINUOUS
 62
     7
 10
133.0225109302044
 20
162.1004598175555
 30
0.0
  0
VERTEX
  5
1F2
  8
1
  6
CONTINUOUS
 62
     7
 10
133.0080069196568
 20
162.0738008883165
 30
0.0
  0
VERTEX
  5
1F3
  8
1
  6
CONTINUOUS
 62
     7
 10
132.9937311797276
 20
162.0452308873337
 30
0.0
  0
VERTEX
  5
1F4
  8
1
  6
CONTINUOUS
 62
     7
 10
132.980120488157
 20
162.0152955425476
 30
0.0
  0
VERTEX
  5
1F5
  8
1
  6
CONTINUOUS
 62
     7
 10
132.967063405886
 20
161.983376302042
 30
0.0
  0
VERTEX
  5
1F6
  8
1
  6
CONTINUOUS
 62
     7
 10
132.9548278772363
 20
161.9496240463159
 30
0.0
  0
VERTEX
  5
1F7
  8
1
  6
CONTINUOUS
 62
     7
 10
132.9436289583757
 20
161.9140847010143
 30
0.0
  0
VERTEX
  5
1F8
  8
1
  6
CONTINUOUS
 62
     7
 10
132.9356852546888
 20
161.8848969902775
 30
0.0
  0
VERTEX
  5
1F9
  8
1
  6
CONTINUOUS
 62
     7
 10
132.9286050097764
 20
161.854594376111
 30
0.0
  0
VERTEX
  5
1FA
  8
1
  6
CONTINUOUS
 62
     7
 10
132.9224953346922
 20
161.823180112547
 30
0.0
  0
VERTEX
  5
1FB
  8
1
  6
CONTINUOUS
 62
     7
 10
132.9174686645992
 20
161.7906634876968
 30
0.0
  0
SEQEND
  5
22E
  8
1
  6
CONTINUOUS
 62
     7
  0
POLYLINE
  5
D6
  8
1
  6
CONTINUOUS
 62
     7
 66
     1
 10
0.0
 20
0.0
 30
0.0
  0
VERTEX
  5
1FC
  8
1
  6
CONTINUOUS
 62
     7
 10
132.9132363319923
 20
125.1020315126291
 30
0.0
  0
VERTEX
  5
1FD
  8
1
  6
CONTINUOUS
 62
     7
 10
132.91818919166
 20
125.0628992055744
 30
0.0
  0
VERTEX
  5
1FE
  8
1
  6
CONTINUOUS
 62
     7
 10
132.9247381158301
 20
125.0253194665364
 30
0.0
  0
VERTEX
  5
1FF
  8
1
  6
CONTINUOUS
 62
     7
 10
132.9326848222064
 20
124.9893143378757
 30
0.0
  0
VERTEX
  5
200
  8
1
  6
CONTINUOUS
 62
     7
 10
132.9418202462397
 20
124.9549674345751
 30
0.0
  0
VERTEX
  5
201
  8
1
  6
CONTINUOUS
 62
     7
 10
132.9524095863846
 20
124.9209245647218
 30
0.0
  0
VERTEX
  5
202
  8
1
  6
CONTINUOUS
 62
     7
 10
132.9638353744095
 20
124.8888241959375
 30
0.0
  0
VERTEX
  5
203
  8
1
  6
CONTINUOUS
 62
     7
 10
132.9759084605403
 20
124.8586091519205
 30
0.0
  0
VERTEX
  5
204
  8
1
  6
CONTINUOUS
 62
     7
 10
132.9881264572543
 20
124.8309320238043
 30
0.0
  0
VERTEX
  5
205
  8
1
  6
CONTINUOUS
 62
     7
 10
133.0006516633841
 20
124.8049236149226
 30
0.0
  0
VERTEX
  5
206
  8
1
  6
CONTINUOUS
 62
     7
 10
133.0133538561066
 20
124.7805213450336
 30
0.0
  0
VERTEX
  5
207
  8
1
  6
CONTINUOUS
 62
     7
 10
133.026115505232
 20
124.7576620672904
 30
0.0
  0
VERTEX
  5
208
  8
1
  6
CONTINUOUS
 62
     7
 10
133.0388308312851
 20
124.7362831496926
 30
0.0
  0
VERTEX
  5
209
  8
1
  6
CONTINUOUS
 62
     7
 10
133.0514048922862
 20
124.7163234329834
 30
0.0
  0
VERTEX
  5
20A
  8
1
  6
CONTINUOUS
 62
     7
 10
133.0637527066261
 20
124.6977240728515
 30
0.0
  0
VERTEX
  5
20B
  8
1
  6
CONTINUOUS
 62
     7
 10
133.0874706945441
 20
124.6643921367767
 30
0.0
  0
VERTEX
  5
20C
  8
1
  6
CONTINUOUS
 62
     7
 10
133.110033273309
 20
124.6352343131756
 30
0.0
  0
VERTEX
  5
20D
  8
1
  6
CONTINUOUS
 62
     7
 10
133.1331835338844
 20
124.6076408747566
 30
0.0
  0
VERTEX
  5
20E
  8
1
  6
CONTINUOUS
 62
     7
 10
133.1569777675866
 20
124.5813987459637
 30
0.0
  0
VERTEX
  5
20F
  8
1
  6
CONTINUOUS
 62
     7
 10
133.1813573822096
 20
124.5564558713599
 30
0.0
  0
VERTEX
  5
210
  8
1
  6
CONTINUOUS
 62
     7
 10
133.2062701683789
 20
124.5327646785295
 30
0.0
  0
VERTEX
  5
211
  8
1
  6
CONTINUOUS
 62
     7
 10
133.2316695398278
 20
124.5102815416255
 30
0.0
  0
VERTEX
  5
212
  8
1
  6
CONTINUOUS
 62
     7
 10
133.265522843879
 20
124.4826579192774
 30
0.0
  0
VERTEX
  5
213
  8
1
  6
CONTINUOUS
 62
     7
 10
133.3000549508031
 20
124.4569472556527
 30
0.0
  0
VERTEX
  5
214
  8
1
  6
CONTINUOUS
 62
     7
 10
133.336204575589
 20
124.4324235728573
 30
0.0
  0
VERTEX
  5
215
  8
1
  6
CONTINUOUS
 62
     7
 10
133.3606861983461
 20
124.4170878872358
 30
0.0
  0
VERTEX
  5
216
  8
1
  6
CONTINUOUS
 62
     7
 10
133.3879748397229
 20
124.4011191321965
 30
0.0
  0
VERTEX
  5
217
  8
1
  6
CONTINUOUS
 62
     7
 10
133.4181929512308
 20
124.3847365394938
 30
0.0
  0
VERTEX
  5
218
  8
1
  6
CONTINUOUS
 62
     7
 10
133.4514743238926
 20
124.3681781140773
 30
0.0
  0
VERTEX
  5
219
  8
1
  6
CONTINUOUS
 62
     7
 10
133.478816095548
 20
124.3556745083217
 30
0.0
  0
VERTEX
  5
21A
  8
1
  6
CONTINUOUS
 62
     7
 10
133.5080693514529
 20
124.3433401541333
 30
0.0
  0
VERTEX
  5
21B
  8
1
  6
CONTINUOUS
 62
     7
 10
133.5393094630393
 20
124.331306360314
 30
0.0
  0
VERTEX
  5
21C
  8
1
  6
CONTINUOUS
 62
     7
 10
133.5726187449781
 20
124.3197154658222
 30
0.0
  0
VERTEX
  5
21D
  8
1
  6
CONTINUOUS
 62
     7
 10
133.608050829411
 20
124.3087337129974
 30
0.0
  0
VERTEX
  5
21E
  8
1
  6
CONTINUOUS
 62
     7
 10
133.6453185797543
 20
124.2986252709293
 30
0.0
  0
VERTEX
  5
21F
  8
1
  6
CONTINUOUS
 62
     7
 10
133.6786714989141
 20
124.29079148011
 30
0.0
  0
VERTEX
  5
220
  8
1
  6
CONTINUOUS
 62
     7
 10
133.7133407851002
 20
124.2838292578651
 30
0.0
  0
VERTEX
  5
221
  8
1
  6
CONTINUOUS
 62
     7
 10
133.7493425356047
 20
124.2778443460397
 30
0.0
  0
VERTEX
  5
222
  8
1
  6
CONTINUOUS
 62
     7
 10
133.7866943797408
 20
124.2729499941244
 30
0.0
  0
VERTEX
  5
223
  8
1
  6
CONTINUOUS
 62
     7
 10
133.8254158285413
 20
124.2692686039857
 30
0.0
  0
VERTEX
  5
224
  8
1
  6
CONTINUOUS
 62
     7
 10
133.8655287096869
 20
124.2669337786459
 30
0.0
  0
VERTEX
  5
225
  8
1
  6
CONTINUOUS
 62
     7
 10
133.9070577158056
 20
124.2660929092569
 30
0.0
  0
SEQEND
  5
22F
  8
1
  6
CONTINUOUS
 62
     7
  0
LINE
  5
D7
  8
1
  6
CONTINUOUS
 62
     7
 10
133.9070577158056
 20
124.2659863739504
 30
0.0
 11
154.4070577158056
 21
124.2659863739504
 31
0.0
  0
LINE
  5
D8
  8
1
  6
CONTINUOUS
 62
     7
 10
154.4070577158056
 20
162.5977906231203
 30
0.0
 11
133.9070577158056
 21
162.5977906231203
 31
0.0
  0
ENDBLK
  8
0
  0
BLOCK
  8
0
  2
D_FRAME_VIEW_2626
 70
     0
 10
0.0
 20
0.0
 30
0.0
  0
LINE
  5
DD
  8
1
  6
CONTINUOUS
 62
     7
 10
85.83843363795577
 20
124.9933243962686
 30
0.0
 11
86.28172880386606
 21
125.2255146461624
 31
0.0
  0
ARC
  5
DE
  8
1
  6
CONTINUOUS
 62
     7
 10
76.92497449761076
 20
143.4318884985354
 30
0.0
 40
20.9
 50
244.1156757505554
 51
295.8843242494446
  0
LINE
  5
DF
  8
1
  6
CONTINUOUS
 62
     7
 10
67.5682201913555
 20
125.2255146461623
 30
0.0
 11
68.01151535726578
 21
124.9933243962686
 31
0.0
  0
ARC
  5
E0
  8
1
  6
CONTINUOUS
 62
     7
 10
76.92497449761076
 20
143.4318884985354
 30
0.0
 40
20.47
 50
237.1998732989963
 51
242.8001267010039
  0
LINE
  5
E1
  8
1
  6
CONTINUOUS
 62
     7
 10
65.41343914591246
 20
126.4933243962686
 30
0.0
 11
65.83616938378661
 21
126.2255146461623
 31
0.0
  0
ARC
  5
E2
  8
1
  6
CONTINUOUS
 62
     7
 10
76.92497449761076
 20
143.4318884985354
 30
0.0
 40
20.90000000000001
 50
184.1156757505554
 51
235.8843242494445
  0
LINE
  5
E3
  8
1
  6
CONTINUOUS
 62
     7
 10
56.47941507753131
 20
142.4318884985354
 30
0.0
 11
56.49998000556744
 21
141.9318884985354
 31
0.0
  0
ARC
  5
E4
  8
1
  6
CONTINUOUS
 62
     7
 10
76.92497449761076
 20
143.4318884985354
 30
0.0
 40
20.47
 50
177.1998732989962
 51
182.8001267010038
  0
LINE
  5
E5
  8
1
  6
CONTINUOUS
 62
     7
 10
56.49998000556744
 20
144.9318884985354
 30
0.0
 11
56.47941507753131
 21
144.4318884985354
 31
0.0
  0
ARC
  5
E6
  8
1
  6
CONTINUOUS
 62
     7
 10
76.92497449761076
 20
143.4318884985354
 30
0.0
 40
20.9
 50
124.1156757505554
 51
175.8843242494446
  0
LINE
  5
E7
  8
1
  6
CONTINUOUS
 62
     7
 10
65.8361693837866
 20
160.6382623509084
 30
0.0
 11
65.41343914591245
 21
160.3704526008021
 31
0.0
  0
ARC
  5
E8
  8
1
  6
CONTINUOUS
 62
     7
 10
76.92497449761076
 20
143.4318884985354
 30
0.0
 40
20.47000000000001
 50
117.1998732989963
 51
122.8001267010039
  0
LINE
  5
E9
  8
1
  6
CONTINUOUS
 62
     7
 10
68.01151535726576
 20
161.8704526008021
 30
0.0
 11
67.56822019135546
 21
161.6382623509084
 31
0.0
  0
ARC
  5
EA
  8
1
  6
CONTINUOUS
 62
     7
 10
76.92497449761076
 20
143.4318884985354
 30
0.0
 40
20.9
 50
64.11567575055545
 51
115.8843242494446
  0
LINE
  5
EB
  8
1
  6
CONTINUOUS
 62
     7
 10
86.28172880386605
 20
161.6382623509084
 30
0.0
 11
85.83843363795576
 21
161.8704526008021
 31
0.0
  0
ARC
  5
EC
  8
1
  6
CONTINUOUS
 62
     7
 10
76.92497449761076
 20
143.4318884985354
 30
0.0
 40
20.47
 50
57.19987329899624
 51
62.80012670100393
  0
LINE
  5
ED
  8
1
  6
CONTINUOUS
 62
     7
 10
88.43650984930908
 20
160.3704526008021
 30
0.0
 11
88.01377961143493
 21
160.6382623509084
 31
0.0
  0
ARC
  5
EE
  8
1
  6
CONTINUOUS
 62
     7
 10
76.92497449761076
 20
143.4318884985354
 30
0.0
 40
20.90000000000001
 50
4.115675750555485
 51
55.88432424944462
  0
LINE
  5
EF
  8
1
  6
CONTINUOUS
 62
     7
 10
97.37053391769021
 20
144.4318884985354
 30
0.0
 11
97.34996898965407
 21
144.9318884985354
 31
0.0
  0
ARC
  5
F0
  8
1
  6
CONTINUOUS
 62
     7
 10
76.92497449761076
 20
143.4318884985354
 30
0.0
 40
20.47
 50
357.1998732989962
 51
2.800126701003819
  0
LINE
  5
F1
  8
1
  6
CONTINUOUS
 62
     7
 10
97.34996898965409
 20
141.9318884985354
 30
0.0
 11
97.37053391769021
 21
142.4318884985354
 31
0.0
  0
ARC
  5
F2
  8
1
  6
CONTINUOUS
 62
     7
 10
76.92497449761076
 20
143.4318884985354
 30
0.0
 40
20.90000000000001
 50
304.1156757505554
 51
355.8843242494446
  0
LINE
  5
F3
  8
1
  6
CONTINUOUS
 62
     7
 10
88.01377961143493
 20
126.2255146461624
 30
0.0
 11
88.43650984930909
 21
126.4933243962686
 31
0.0
  0
ARC
  5
F4
  8
1
  6
CONTINUOUS
 62
     7
 10
76.92497449761076
 20
143.4318884985354
 30
0.0
 40
20.46999999999998
 50
297.1998732989962
 51
302.8001267010038
  0
ARC
  5
F5
  8
1
  6
CONTINUOUS
 62
     7
 10
76.92497449761076
 20
143.4318884985354
 30
0.0
 40
21.5
 50
57.27059736322138
 51
62.72940263677873
  0
LINE
  5
F6
  8
1
  6
CONTINUOUS
 62
     7
 10
85.86373400665575
 20
161.9142741248407
 30
0.0
 11
86.11402487363561
 21
162.3477906231203
 31
0.0
  0
ARC
  5
F7
  8
1
  6
CONTINUOUS
 62
     7
 10
86.54703757552784
 20
162.0977906231203
 30
0.0
 40
0.500000000000002
 50
62.72940263677873
 51
150.0
  0
ARC
  5
F8
  8
1
  6
CONTINUOUS
 62
     7
 10
76.92497449761076
 20
143.4318884985354
 30
0.0
 40
21.5
 50
177.2705973632212
 51
182.7294026367787
  0
LINE
  5
F9
  8
1
  6
CONTINUOUS
 62
     7
 10
56.44937926816749
 20
141.9318884985354
 30
0.0
 11
55.94879753420773
 21
141.9318884985354
 31
0.0
  0
ARC
  5
FA
  8
1
  6
CONTINUOUS
 62
     7
 10
55.94879753420773
 20
142.4318884985354
 30
0.0
 40
0.5000000000000004
 50
182.7294026367787
 51
270.0
  0
ARC
  5
FB
  8
1
  6
CONTINUOUS
 62
     7
 10
76.92497449761076
 20
143.4318884985354
 30
0.0
 40
21.50000000000001
 50
117.2705973632214
 51
122.7294026367787
  0
LINE
  5
FC
  8
1
  6
CONTINUOUS
 62
     7
 10
65.38813877721248
 20
160.4142741248407
 30
0.0
 11
65.13784791023258
 21
160.8477906231203
 31
0.0
  0
ARC
  5
FD
  8
1
  6
CONTINUOUS
 62
     7
 10
65.5708606121248
 20
161.0977906231203
 30
0.0
 40
0.500000000000002
 50
122.7294026367787
 51
210.0
  0
ARC
  5
FE
  8
1
  6
CONTINUOUS
 62
     7
 10
76.92497449761076
 20
143.4318884985354
 30
0.0
 40
21.50000000000001
 50
357.2705973632213
 51
2.729402636778729
  0
LINE
  5
FF
  8
1
  6
CONTINUOUS
 62
     7
 10
97.40056972705403
 20
144.9318884985354
 30
0.0
 11
97.9011514610138
 21
144.9318884985354
 31
0.0
  0
ARC
  5
100
  8
1
  6
CONTINUOUS
 62
     7
 10
97.9011514610138
 20
144.4318884985354
 30
0.0
 40
0.5000000000000004
 50
2.729402636778673
 51
90.0
  0
ARC
  5
101
  8
1
  6
CONTINUOUS
 62
     7
 10
76.92497449761076
 20
143.4318884985354
 30
0.0
 40
21.50000000000001
 50
297.2705973632214
 51
302.7294026367788
  0
LINE
  5
102
  8
1
  6
CONTINUOUS
 62
     7
 10
88.46181021800906
 20
126.4495028722301
 30
0.0
 11
88.71210108498894
 21
126.0159863739505
 31
0.0
  0
ARC
  5
103
  8
1
  6
CONTINUOUS
 62
     7
 10
88.27908838309672
 20
125.7659863739505
 30
0.0
 40
0.500000000000002
 50
302.7294026367784
 51
30.0
  0
ARC
  5
104
  8
1
  6
CONTINUOUS
 62
     7
 10
76.92497449761076
 20
143.4318884985354
 30
0.0
 40
21.5
 50
237.2705973632212
 51
242.7294026367788
  0
LINE
  5
105
  8
1
  6
CONTINUOUS
 62
     7
 10
67.9862149885658
 20
124.94950287223
 30
0.0
 11
67.73592412158592
 21
124.5159863739504
 31
0.0
  0
ARC
  5
106
  8
1
  6
CONTINUOUS
 62
     7
 10
67.3029114196937
 20
124.7659863739504
 30
0.0
 40
0.500000000000002
 50
242.7294026367789
 51
330.0
  0
ARC
  5
107
  8
1
  6
CONTINUOUS
 62
     7
 10
67.30291141969369
 20
162.0977906231203
 30
0.0
 40
0.4999999999999841
 50
30.00000000000057
 51
117.2705973632213
  0
LINE
  5
108
  8
1
  6
CONTINUOUS
 62
     7
 10
67.73592412158591
 20
162.3477906231203
 30
0.0
 11
67.98621498856579
 21
161.9142741248407
 31
0.0
  0
ARC
  5
109
  8
1
  6
CONTINUOUS
 62
     7
 10
88.2790883830967
 20
161.0977906231203
 30
0.0
 40
0.5000000000000021
 50
331.7705973632213
 51
57.2705973632215
  0
ARC
  5
10A
  8
1
  6
CONTINUOUS
 62
     7
 10
88.2790883830967
 20
161.0977906231203
 30
0.0
 40
0.5000000000000002
 50
330.0
 51
331.7705973632212
  0
LINE
  5
10B
  8
1
  6
CONTINUOUS
 62
     7
 10
88.71210108498893
 20
160.8477906231203
 30
0.0
 11
88.46181021800902
 21
160.4142741248407
 31
0.0
  0
ARC
  5
10C
  8
1
  6
CONTINUOUS
 62
     7
 10
97.9011514610138
 20
142.4318884985354
 30
0.0
 40
0.5000000000000048
 50
270.0000000000001
 51
357.2705973632214
  0
LINE
  5
10D
  8
1
  6
CONTINUOUS
 62
     7
 10
97.9011514610138
 20
141.9318884985354
 30
0.0
 11
97.40056972705405
 21
141.9318884985354
 31
0.0
  0
ARC
  5
10E
  8
1
  6
CONTINUOUS
 62
     7
 10
86.54703757552785
 20
124.7659863739504
 30
0.0
 40
0.4999999999999964
 50
210.0
 51
297.2705973632212
  0
LINE
  5
10F
  8
1
  6
CONTINUOUS
 62
     7
 10
86.11402487363563
 20
124.5159863739504
 30
0.0
 11
85.86373400665572
 21
124.9495028722301
 31
0.0
  0
ARC
  5
110
  8
1
  6
CONTINUOUS
 62
     7
 10
55.94879753420773
 20
144.4318884985354
 30
0.0
 40
0.499999999999999
 50
89.9999999999993
 51
177.2705973632214
  0
LINE
  5
111
  8
1
  6
CONTINUOUS
 62
     7
 10
55.94879753420773
 20
144.9318884985354
 30
0.0
 11
56.44937926816756
 21
144.9318884985354
 31
0.0
  0
ARC
  5
112
  8
1
  6
CONTINUOUS
 62
     7
 10
65.57086061212482
 20
125.7659863739504
 30
0.0
 40
0.4999999999999946
 50
150.0000000000005
 51
237.2705973632213
  0
LINE
  5
113
  8
1
  6
CONTINUOUS
 62
     7
 10
65.1378479102326
 20
126.0159863739504
 30
0.0
 11
65.38813877721253
 21
126.4495028722301
 31
0.0
  0
LINE
  5
114
  8
1
  6
CONTINUOUS
 62
     7
 10
85.83843363795576
 20
161.8704526008021
 30
0.0
 11
85.86373400665575
 21
161.9142741248407
 31
0.0
  0
LINE
  5
115
  8
1
  6
CONTINUOUS
 62
     7
 10
65.41343914591245
 20
160.3704526008021
 30
0.0
 11
65.38813877721248
 21
160.4142741248407
 31
0.0
  0
LINE
  5
116
  8
1
  6
CONTINUOUS
 62
     7
 10
88.43650984930909
 20
126.4933243962686
 30
0.0
 11
88.46181021800906
 21
126.4495028722301
 31
0.0
  0
LINE
  5
117
  8
1
  6
CONTINUOUS
 62
     7
 10
68.01151535726578
 20
124.9933243962686
 30
0.0
 11
67.9862149885658
 21
124.94950287223
 31
0.0
  0
LINE
  5
118
  8
1
  6
CONTINUOUS
 62
     7
 10
88.46181021800902
 20
160.4142741248407
 30
0.0
 11
88.43650984930908
 21
160.3704526008021
 31
0.0
  0
LINE
  5
119
  8
1
  6
CONTINUOUS
 62
     7
 10
67.98621498856579
 20
161.9142741248407
 30
0.0
 11
68.01151535726576
 21
161.8704526008021
 31
0.0
  0
LINE
  5
11A
  8
1
  6
CONTINUOUS
 62
     7
 10
85.86373400665572
 20
124.9495028722301
 30
0.0
 11
85.83843363795577
 21
124.9933243962686
 31
0.0
  0
LINE
  5
11B
  8
1
  6
CONTINUOUS
 62
     7
 10
65.38813877721253
 20
126.4495028722301
 30
0.0
 11
65.41343914591246
 21
126.4933243962686
 31
0.0
  0
LINE
  5
11C
  8
1
  6
CONTINUOUS
 62
     7
 10
97.40056972705405
 20
141.9318884985354
 30
0.0
 11
97.34996898965409
 21
141.9318884985354
 31
0.0
  0
LINE
  5
11D
  8
1
  6
CONTINUOUS
 62
     7
 10
97.34996898965407
 20
144.9318884985354
 30
0.0
 11
97.40056972705403
 21
144.9318884985354
 31
0.0
  0
LINE
  5
11E
  8
1
  6
CONTINUOUS
 62
     7
 10
56.49998000556744
 20
141.9318884985354
 30
0.0
 11
56.44937926816749
 21
141.9318884985354
 31
0.0
  0
LINE
  5
11F
  8
1
  6
CONTINUOUS
 62
     7
 10
56.44937926816756
 20
144.9318884985354
 30
0.0
 11
56.49998000556744
 21
144.9318884985354
 31
0.0
  0
ENDBLK
  8
0
  0
ENDSEC
  0
SECTION
  2
ENTITIES
  0
LINE
  5
70
  8
1
  6
CENTER
 62
     1
 10
54.02497449761077
 20
143.4318884985354
 30
0.0
 11
99.82497449761077
 21
143.4318884985354
 31
0.0
  0
LINE
  5
72
  8
1
  6
CENTER
 62
     1
 10
76.92497449761076
 20
120.5318884985354
 30
0.0
 11
76.92497449761076
 21
166.3318884985354
 31
0.0
  0
TEXT
  5
73
  8
1
  6
CONTINUOUS
 62
     7
 10
124.0385288924969
 20
91.76030853104757
 30
0.0
 40
3.0
  1
FP30-C-BM
  0
LINE
  5
74
  8
1
  6
CONTINUOUS
 62
     2
 10
124.2093304430784
 20
91.20234304398993
 30
0.0
 11
139.6047849885329
 21
91.20234304398993
 31
0.0
  0
INSERT
  5
A9
  8
1
  6
CONTINUOUS
 62
     7
  2
D_FRAME_VIEW_2906
 10
0.0
 20
0.0
 30
0.0
  0
INSERT
  5
D9
  8
1
  6
CONTINUOUS
 62
     7
  2
D_FRAME_VIEW_2817
 10
0.0
 20
0.0
 30
0.0
  0
INSERT
  5
120
  8
1
  6
CONTINUOUS
 62
     7
  2
D_FRAME_VIEW_2626
 10
0.0
 20
0.0
 30
0.0
  0
LINE
  5
121
  8
1
  6
CENTER
 62
     1
 10
76.92497449761076
 20
112.7674104404485
 30
0.0
 11
76.92497449761076
 21
67.76741044044846
 31
0.0
  0
LINE
  5
122
  8
1
  6
CENTER
 62
     1
 10
161.9070577158056
 20
143.4318884985354
 30
0.0
 11
116.9070577158056
 21
143.4318884985354
 31
0.0
  0
ENDSEC
  0
EOF
