  0
SECTION
  2
HEADER
  9
$ACADVER
  1
AC1004
  9
$INSBASE
 10
0.0
 20
0.0
  9
$EXTMIN
 10
0.0
 20
0.0
  9
$EXTMAX
 10
196.111092982
 20
238.5926739328
  9
$LIMMIN
 10
0.0
 20
0.0
  9
$LIMMAX
 10
12.0
 20
9.0
  9
$ORTHOMODE
 70
     0
  9
$REGENMODE
 70
     1
  9
$FILLMODE
 70
     1
  9
$QTEXTMODE
 70
     0
  9
$DRAGMODE
 70
     2
  9
$LTSCALE
 40
1.0
  9
$OSMODE
 70
    37
  9
$ATTMODE
 70
     1
  9
$TEXTSIZE
 40
0.2
  9
$TRACEWID
 40
0.05
  9
$TEXTSTYLE
  7
STANDARD
  9
$CLAYER
  8
0
  9
$CELTYPE
  6
BYLAYER
  9
$CECOLOR
 62
   256
  9
$DIMSCALE
 40
1.0
  9
$DIMASZ
 40
3.0
  9
$DIMEXO
 40
0.0625
  9
$DIMDLI
 40
0.38
  9
$DIMRND
 40
0.0
  9
$DIMDLE
 40
0.0
  9
$DIMEXE
 40
1.5
  9
$DIMTP
 40
0.0
  9
$DIMTM
 40
0.0
  9
$DIMTXT
 40
3.0
  9
$DIMCEN
 40
0.09
  9
$DIMTSZ
 40
0.0
  9
$DIMTOL
 70
     0
  9
$DIMLIM
 70
     0
  9
$DIMTIH
 70
     1
  9
$DIMTOH
 70
     1
  9
$DIMSE1
 70
     0
  9
$DIMSE2
 70
     0
  9
$DIMTAD
 70
     1
  9
$DIMZIN
 70
     0
  9
$DIMBLK
  1

  9
$DIMASO
 70
     1
  9
$DIMSHO
 70
     1
  9
$DIMPOST
  1

  9
$DIMAPOST
  1

  9
$DIMALT
 70
     0
  9
$DIMALTD
 70
     2
  9
$DIMALTF
 40
25.4
  9
$DIMLFAC
 40
1.0
  9
$DIMTOFL
 70
     0
  9
$DIMTVP
 40
0.0
  9
$DIMTIX
 70
     0
  9
$DIMSOXD
 70
     0
  9
$DIMSAH
 70
     0
  9
$DIMBLK1
  1

  9
$DIMBLK2
  1

  9
$LUNITS
 70
     2
  9
$LUPREC
 70
     4
  9
$SKETCHINC
 40
0.1
  9
$FILLETRAD
 40
0.5
  9
$AUNITS
 70
     0
  9
$AUPREC
 70
     0
  9
$MENU
  1
.
  9
$ELEVATION
 40
0.0
  9
$THICKNESS
 40
0.0
  9
$LIMCHECK
 70
     0
  9
$CHAMFERA
 40
0.0
  9
$CHAMFERB
 40
0.0
  9
$SKPOLY
 70
     0
  9
$TDCREATE
 40
2459047.449164317
  9
$TDUPDATE
 40
2459047.449164502
  9
$TDINDWG
 40
0.0000000116
  9
$TDUSRTIMER
 40
0.0000000116
  9
$USRTIMER
 70
     1
  9
$ANGBASE
 50
0.0
  9
$ANGDIR
 70
     0
  9
$PDMODE
 70
     0
  9
$PDSIZE
 40
0.0
  9
$PLINEWID
 40
0.0
  9
$COORDS
 70
     1
  9
$SPLFRAME
 70
     0
  9
$SPLINETYPE
 70
     6
  9
$SPLINESEGS
 70
     8
  9
$ATTDIA
 70
     0
  9
$ATTREQ
 70
     1
  9
$SURFTAB1
 70
     6
  9
$SURFTAB2
 70
     6
  9
$SURFTYPE
 70
     6
  9
$SURFU
 70
     6
  9
$SURFV
 70
     6
  9
$UCSNAME
  2

  9
$UCSORG
 10
0.0
 20
0.0
 30
0.0
  9
$UCSXDIR
 10
1.0
 20
0.0
 30
0.0
  9
$UCSYDIR
 10
0.0
 20
1.0
 30
0.0
  9
$USERI1
 70
     0
  9
$USERI2
 70
     0
  9
$USERI3
 70
     0
  9
$USERI4
 70
     0
  9
$USERI5
 70
     0
  9
$USERR1
 40
0.0
  9
$USERR2
 40
0.0
  9
$USERR3
 40
0.0
  9
$USERR4
 40
0.0
  9
$USERR5
 40
0.0
  9
$WORLDVIEW
 70
     1
  0
ENDSEC
  0
SECTION
  2
TABLES
  0
TABLE
  2
LTYPE
 70
     1
  0
LTYPE
  2
CONTINUOUS
 70
     0
  3
Solid line
 72
    65
 73
     0
 40
0.0
  0
ENDTAB
  0
TABLE
  2
LAYER
 70
     2
  0
LAYER
  2
0
 70
     0
 62
     7
  6
CONTINUOUS
  0
LAYER
  2
1
 70
     0
 62
     7
  6
CONTINUOUS
  0
ENDTAB
  0
TABLE
  2
STYLE
 70
     2
  0
STYLE
  2
STANDARD
 70
     0
 40
0.0
 41
1.0
 50
0.0
 71
     0
 42
0.2
  3
txt
  4

  0
STYLE
  2
ＭＳ_ゴシック
 70
     0
 40
0.0
 41
1.0
 50
0.0
 71
     0
 42
0.2
  3
ＭＳ ゴシック.shx
  4

  0
ENDTAB
  0
TABLE
  2
VIEW
 70
     0
  0
ENDTAB
  0
ENDSEC
  0
SECTION
  2
BLOCKS
  0
ENDSEC
  0
SECTION
  2
ENTITIES
  0
LINE
  8
1
  6
CONTINUOUS
 62
     7
 10
90.88081344120003
 20
235.5926739327999
 11
79.421994396099
 21
232.5222926234702
  0
ARC
  8
1
  6
CONTINUOUS
 62
     7
 10
79.68081344120002
 20
231.5563667971807
 40
1.00000000000001
 50
104.9999999999092
 51
180.0000000000002
  0
LINE
  8
1
  6
CONTINUOUS
 62
     7
 10
78.68081344120002
 20
231.5563667971807
 11
78.68081344120002
 21
206.1289810684193
  0
ARC
  8
1
  6
CONTINUOUS
 62
     7
 10
79.68081344120002
 20
206.1289810684193
 40
1.000000000000001
 50
180.0
 51
255.0000000000907
  0
LINE
  8
1
  6
CONTINUOUS
 62
     7
 10
79.42199439609905
 20
205.1630552421298
 11
90.88081344120006
 21
202.0926739328001
  0
LINE
  8
1
  6
CONTINUOUS
 62
     7
 10
128.8808134412
 20
202.0926739328001
 11
140.339632486301
 21
205.1630552421298
  0
ARC
  8
1
  6
CONTINUOUS
 62
     7
 10
140.0808134412
 20
206.1289810684193
 40
1.000000000000008
 50
284.9999999999089
 51
359.9999999999998
  0
LINE
  8
1
  6
CONTINUOUS
 62
     7
 10
141.0808134412
 20
206.1289810684193
 11
141.0808134412
 21
231.5563667971807
  0
ARC
  8
1
  6
CONTINUOUS
 62
     7
 10
140.0808134412
 20
231.5563667971806
 40
1.000000000000001
 50
0.0
 51
75.00000000009065
  0
LINE
  8
1
  6
CONTINUOUS
 62
     7
 10
140.339632486301
 20
232.5222926234701
 11
128.8808134411999
 21
235.5926739327999
  0
LINE
  8
1
  6
CONTINUOUS
 62
     1
 10
109.8808134412
 20
199.0926739328
 11
109.8808134412
 21
238.5926739328
  0
LINE
  8
1
  6
CONTINUOUS
 62
     7
 10
104.8559494599
 20
202.8338548877
 11
105.3808134412
 21
204.7926739328
  0
CIRCLE
  8
1
  6
CONTINUOUS
 62
     7
 10
176.361092982
 20
218.8426739328
 40
16.75
  0
LINE
  8
1
  6
CONTINUOUS
 62
     7
 10
102.8804015405
 20
233.2030187832
 11
102.7835081359
 21
232.8426682634
  0
LINE
  8
1
  6
CONTINUOUS
 62
     7
 10
114.9056774225
 20
234.8514929779
 11
114.3808134412
 21
232.8926739328
  0
LINE
  8
1
  6
CONTINUOUS
 62
     7
 10
128.8808134412
 20
202.0926739328
 11
128.8808134412
 21
235.5926739328
  0
LINE
  8
1
  6
CONTINUOUS
 62
     7
 10
105.3808134412
 20
204.7926739328
 11
114.3808134412
 21
204.7926739328
  0
ARC
  8
1
  6
CONTINUOUS
 62
     7
 10
176.361092982
 20
218.8426739328
 40
10.0
 50
133.1646817343
 51
166.8353182657
  0
LINE
  8
1
  6
CONTINUOUS
 62
     7
 10
166.2228148633
 20
220.3999531753
 11
166.0985777019
 21
220.2888573772
  0
LINE
  8
1
  6
CONTINUOUS
 62
     7
 10
166.0985777019
 20
220.2888573772
 11
166.0147684679
 21
220.2263706249
  0
LINE
  8
1
  6
CONTINUOUS
 62
     7
 10
166.0147684679
 20
220.2263706249
 11
165.8456589245
 21
220.125556302
  0
LINE
  8
1
  6
CONTINUOUS
 62
     7
 10
90.8808134412
 20
235.5926739328
 11
90.8808134412
 21
202.0926739328
  0
LINE
  8
1
  6
CONTINUOUS
 62
     7
 10
114.3808134412
 20
204.7926739328
 11
114.3808134412
 21
232.8926739328
  0
ARC
  8
1
  6
CONTINUOUS
 62
     7
 10
115.8716032487
 20
203.0926739328
 40
1.0
 50
195.0
 51
270.0
  0
ARC
  8
1
  6
CONTINUOUS
 62
     7
 10
165.1630450759
 20
221.461914415
 40
1.5002911973
 50
314.9408214695
 51
346.8337027819999
  0
LINE
  8
1
  6
CONTINUOUS
 62
     7
 10
169.9711819236
 20
227.4911364599
 11
169.9042568042
 21
227.8706876723
  0
LINE
  8
1
  6
CONTINUOUS
 62
     7
 10
165.314185649
 20
219.920451221
 11
165.6763492007
 21
220.0522679738
  0
ARC
  8
1
  6
CONTINUOUS
 62
     7
 10
176.361092982
 20
218.8426739328
 40
10.0
 50
73.1646817343
 51
106.8353182657
  0
ARC
  8
1
  6
CONTINUOUS
 62
     7
 10
103.8900236337
 20
234.5926739328
 40
1.0
 50
15.0
 51
90.0
  0
ARC
  8
1
  6
CONTINUOUS
 62
     7
 10
103.8900236337
 20
203.0926739328
 40
1.0
 50
270.0
 51
345.0
  0
LINE
  8
1
  6
CONTINUOUS
 62
     7
 10
105.3808134412
 20
232.8926739328
 11
104.8559494599
 21
234.8514929779
  0
ARC
  8
1
  6
CONTINUOUS
 62
     7
 10
115.8716032487
 20
234.5926739328
 40
1.0
 50
90.0
 51
165.0
  0
ARC
  8
1
  6
CONTINUOUS
 62
     7
 10
168.4924196753
 20
227.2317458964
 40
1.5018498094
 50
313.1795990521
 51
3.009547488099998
  0
LINE
  8
1
  6
CONTINUOUS
 62
     7
 10
105.3808134412
 20
232.8926739328
 11
105.3808134412
 21
204.7926739328
  0
LINE
  8
1
  6
CONTINUOUS
 62
     7
 10
169.9711819236
 20
227.4911364599
 11
169.9921981332
 21
227.3105965591
  0
ARC
  8
1
  6
CONTINUOUS
 62
     7
 10
179.6919056951
 20
229.8516803296
 40
1.5018492511
 50
253.1795953319
 51
303.0100346914
  0
LINE
  8
1
  6
CONTINUOUS
 62
     7
 10
172.2166144803
 20
228.5897420223
 11
172.0662602592
 21
228.7007305009
  0
ARC
  8
1
  6
CONTINUOUS
 62
     7
 10
176.361092982
 20
218.8426739328
 40
10.0
 50
313.1646817343
 51
345.0
  0
LINE
  8
1
  6
CONTINUOUS
 62
     7
 10
180.6559257049
 20
228.7007305009
 11
180.5100920062
 21
228.5922668418
  0
ARC
  8
1
  6
CONTINUOUS
 62
     7
 10
173.0304209912
 20
229.8499406315
 40
1.5001433074
 50
243.7042888779001
 51
286.8344873694
  0
LINE
  8
1
  6
CONTINUOUS
 62
     7
 10
180.6559257049
 20
228.7007305009
 11
180.9511641373
 21
228.9484649606
  0
ARC
  8
1
  6
CONTINUOUS
 62
     7
 10
184.2297662887
 20
210.4536019692
 40
1.5018498092
 50
133.1795990504
 51
183.0095474864
  0
LINE
  8
1
  6
CONTINUOUS
 62
     7
 10
182.7510040405
 20
210.1942114057
 11
182.8179291599
 21
209.8146601932
  0
LINE
  8
1
  6
CONTINUOUS
 62
     7
 10
172.3658513809
 20
228.5050327626
 11
172.2166144803
 21
228.5897420223
  0
LINE
  8
1
  6
CONTINUOUS
 62
     7
 10
186.0203512449
 20
216.2544834817
 11
187.0828696539
 21
215.9697825321
  0
LINE
  8
1
  6
CONTINUOUS
 62
     7
 10
165.8456589245
 20
220.125556302
 11
165.6763492007
 21
220.0522679738
  0
LINE
  8
1
  6
CONTINUOUS
 62
     1
 10
76.8808134412
 20
218.8426739328
 11
142.8808134412
 21
218.8426739328
  0
LINE
  8
1
  6
CONTINUOUS
 62
     7
 10
171.7710218268
 20
228.9484649606
 11
172.0662602592
 21
228.7007305009
  0
LINE
  8
1
  6
CONTINUOUS
 62
     7
 10
182.7510040405
 20
210.1942114057
 11
182.7299878309
 21
210.3747513065
  0
LINE
  8
1
  6
CONTINUOUS
 62
     7
 10
114.3808134412
 20
204.7926739328
 11
114.9056774225
 21
202.8338548877
  0
LINE
  8
1
  6
CONTINUOUS
 62
     7
 10
114.3808134412
 20
232.8926739328
 11
105.3808134412
 21
232.8926739328
  0
ARC
  8
1
  6
CONTINUOUS
 62
     7
 10
176.361092982
 20
218.8426739328
 40
10.8
 50
173.6612255333
 51
186.3387744667
  0
LINE
  8
1
  6
CONTINUOUS
 62
     7
 10
180.9511641373
 20
208.7368829049
 11
180.6559257049
 21
208.9846173646
  0
CIRCLE
  8
1
  6
CONTINUOUS
 62
     7
 10
176.361092982
 20
218.8426739328
 40
11.1
  0
LINE
  8
1
  6
CONTINUOUS
 62
     1
 10
176.361092982
 20
199.0926739328
 11
176.361092982
 21
238.5926739328
  0
ARC
  8
1
  6
CONTINUOUS
 62
     7
 10
176.361092982
 20
218.8426739328
 40
10.0
 50
15.0
 51
46.8353182657
  0
LINE
  8
1
  6
CONTINUOUS
 62
     7
 10
182.7447994999
 20
227.0070652374
 11
182.7325784177
 21
227.1109161304
  0
LINE
  8
1
  6
CONTINUOUS
 62
     7
 10
102.8808134412
 20
235.5926739328
 11
102.8808134412
 21
202.0926739328
  0
ARC
  8
1
  6
CONTINUOUS
 62
     7
 10
184.2284456362
 20
227.2308475774
 40
1.5002910784
 50
194.946209269
 51
226.8337035069
  0
CIRCLE
  8
1
  6
CONTINUOUS
 62
     7
 10
176.361092982
 20
218.8426739328
 40
7.2
  0
LINE
  8
1
  6
CONTINUOUS
 62
     7
 10
165.6763492007
 20
217.6330798917
 11
165.314185649
 21
217.7648966445
  0
LINE
  8
1
  6
CONTINUOUS
 62
     7
 10
182.7298161966
 20
227.3078243809
 11
182.7510040405
 21
227.4911364599
  0
LINE
  8
1
  6
CONTINUOUS
 62
     7
 10
182.7325784177
 20
227.1109161304
 11
182.7298161966
 21
227.3078243809
  0
LINE
  8
1
  6
CONTINUOUS
 62
     7
 10
172.0662602592
 20
208.9846173646
 11
172.2120939579
 21
209.0930810237
  0
ARC
  8
1
  6
CONTINUOUS
 62
     7
 10
179.6917441261
 20
207.8355052196
 40
1.5000434836
 50
72.751437961
 51
106.8348091351
  0
LINE
  8
1
  6
CONTINUOUS
 62
     7
 10
180.1365334297
 20
209.2680878274
 11
180.2871602059
 21
209.2123629996
  0
LINE
  8
1
  6
CONTINUOUS
 62
     7
 10
165.6763492007
 20
217.6330798917
 11
165.8432075799
 21
217.5610114399
  0
ARC
  8
1
  6
CONTINUOUS
 62
     7
 10
165.1616069977
 20
216.2227389868
 40
1.501849697
 50
13.1795980975
 51
63.0096296361
  0
LINE
  8
1
  6
CONTINUOUS
 62
     7
 10
182.8179291599
 20
227.8706876723
 11
182.7510040405
 21
227.4911364599
  0
LINE
  8
1
  6
CONTINUOUS
 62
     7
 10
187.0828696539
 20
221.7155653334
 11
186.0203512449
 21
221.4308643838
  0
LINE
  8
1
  6
CONTINUOUS
 62
     7
 10
180.4217480497
 20
209.1459302295
 11
180.5835119859
 21
209.0417023452
  0
LINE
  8
1
  6
CONTINUOUS
 62
     7
 10
172.0662602592
 20
208.9846173646
 11
171.7710218268
 21
208.7368829049
  0
CIRCLE
  8
1
  6
CONTINUOUS
 62
     7
 10
176.361092982
 20
218.8426739328
 40
8.9
  0
ARC
  8
1
  6
CONTINUOUS
 62
     7
 10
176.361092982
 20
218.8426739328
 40
10.8
 50
233.6612255333
 51
246.3387744666999
  0
LINE
  8
1
  6
CONTINUOUS
 62
     7
 10
169.9773864642
 20
210.6782826281
 11
169.9896075464
 21
210.5744317351
  0
LINE
  8
1
  6
CONTINUOUS
 62
     7
 10
169.9042568042
 20
209.8146601932
 11
169.9711819236
 21
210.1942114057
  0
LINE
  8
1
  6
CONTINUOUS
 62
     7
 10
169.9923697675
 20
210.3775234846
 11
169.9711819236
 21
210.1942114057
  0
ARC
  8
1
  6
CONTINUOUS
 62
     7
 10
173.030280269
 20
207.8336675359
 40
1.5018492511
 50
73.17959533190002
 51
123.0100346914
  0
LINE
  8
1
  6
CONTINUOUS
 62
     7
 10
180.5835119859
 20
209.0417023452
 11
180.6559257049
 21
208.9846173646
  0
LINE
  8
1
  6
CONTINUOUS
 62
     7
 10
128.8808134412
 20
235.5926739328
 11
115.8716032487
 21
235.5926739328
  0
LINE
  8
1
  6
CONTINUOUS
 62
     7
 10
169.9896075464
 20
210.5744317351
 11
169.9923697675
 21
210.3775234846
  0
ARC
  8
1
  6
CONTINUOUS
 62
     7
 10
176.361092982
 20
218.8426739328
 40
10.0
 50
193.1646817343
 51
226.8353182657
  0
ARC
  8
1
  6
CONTINUOUS
 62
     7
 10
176.361092982
 20
218.8426739328
 40
10.0
 50
253.1646817343
 51
286.8353182657
  0
LINE
  8
1
  6
CONTINUOUS
 62
     7
 10
169.9432741384
 20
210.841443504
 11
169.9773864642
 21
210.6782826281
  0
ARC
  8
1
  6
CONTINUOUS
 62
     7
 10
176.361092982
 20
218.8426739328
 40
10.8
 50
113.6612255333
 51
126.3387744667
  0
ARC
  8
1
  6
CONTINUOUS
 62
     7
 10
176.361092982
 20
218.8426739328
 40
10.8
 50
345.0
 51
15.0
  0
LINE
  8
1
  6
CONTINUOUS
 62
     7
 10
180.2871602059
 20
209.2123629996
 11
180.4217480497
 21
209.1459302295
  0
ARC
  8
1
  6
CONTINUOUS
 62
     7
 10
176.361092982
 20
218.8426739328
 40
10.8
 50
293.6612255333
 51
306.3387744667
  0
LINE
  8
1
  6
CONTINUOUS
 62
     7
 10
115.8716032487
 20
202.0926739328
 11
128.8808134412
 21
202.0926739328
  0
LINE
  8
1
  6
CONTINUOUS
 62
     7
 10
182.7789118257
 20
226.8439043615
 11
182.7447994999
 21
227.0070652374
  0
ARC
  8
1
  6
CONTINUOUS
 62
     7
 10
176.361092982
 20
218.8426739328
 40
10.8
 50
53.66122553329999
 51
66.33877446669999
  0
LINE
  8
1
  6
CONTINUOUS
 62
     1
 10
156.611092982
 20
218.8426739328
 11
196.111092982
 21
218.8426739328
  0
LINE
  8
1
  6
CONTINUOUS
 62
     7
 10
90.8808134412
 20
202.0926739328
 11
103.8900236337
 21
202.0926739328
  0
LINE
  8
1
  6
CONTINUOUS
 62
     7
 10
103.8900236337
 20
235.5926739328
 11
90.8808134412
 21
235.5926739328
  0
LINE
  8
1
  6
CONTINUOUS
 62
     7
 10
116.8808134412
 20
202.0926739328
 11
116.8808134412
 21
235.5926739328
  0
ARC
  8
1
  6
CONTINUOUS
 62
     7
 10
168.4937403279
 20
210.4545002881
 40
1.5002910784
 50
14.946209269
 51
46.8337035069
  0
TEXT
  8
1
  6
CONTINUOUS
 62
     1
 10
167.613660391897
 20
191.5171046191072
 40
4.0
  1
FPC-14F
 41
1.057272
  0
ENDSEC
  0
EOF
