  0
SECTION
  2
HEADER
  9
$ACADVER
  1
AC1004
  9
$INSBASE
 10
0.0
 20
0.0
  9
$EXTMIN
 10
0.1154545454545454
 20
0.0577272727272727
  9
$EXTMAX
 10
2255.0
 20
483.2695663152194
  9
$LIMMIN
 10
0.0
 20
0.0
  9
$LIMMAX
 10
12.0
 20
9.0
  9
$ORTHOMODE
 70
     0
  9
$REGENMODE
 70
     1
  9
$FILLMODE
 70
     1
  9
$QTEXTMODE
 70
     0
  9
$DRAGMODE
 70
     2
  9
$LTSCALE
 40
1.0
  9
$OSMODE
 70
    37
  9
$ATTMODE
 70
     1
  9
$TEXTSIZE
 40
0.2
  9
$TRACEWID
 40
0.05
  9
$TEXTSTYLE
  7
STANDARD
  9
$CLAYER
  8
0
  9
$CELTYPE
  6
BYLAYER
  9
$CECOLOR
 62
   256
  9
$DIMSCALE
 40
1.0
  9
$DIMASZ
 40
2.0
  9
$DIMEXO
 40
0.0625
  9
$DIMDLI
 40
0.38
  9
$DIMRND
 40
0.0
  9
$DIMDLE
 40
0.0
  9
$DIMEXE
 40
1.0
  9
$DIMTP
 40
0.0
  9
$DIMTM
 40
0.0
  9
$DIMTXT
 40
3.2
  9
$DIMCEN
 40
0.09
  9
$DIMTSZ
 40
0.0
  9
$DIMTOL
 70
     0
  9
$DIMLIM
 70
     0
  9
$DIMTIH
 70
     1
  9
$DIMTOH
 70
     1
  9
$DIMSE1
 70
     0
  9
$DIMSE2
 70
     0
  9
$DIMTAD
 70
     1
  9
$DIMZIN
 70
     0
  9
$DIMBLK
  1

  9
$DIMASO
 70
     1
  9
$DIMSHO
 70
     1
  9
$DIMPOST
  1

  9
$DIMAPOST
  1

  9
$DIMALT
 70
     0
  9
$DIMALTD
 70
     2
  9
$DIMALTF
 40
25.4
  9
$DIMLFAC
 40
1.0
  9
$DIMTOFL
 70
     0
  9
$DIMTVP
 40
0.0
  9
$DIMTIX
 70
     0
  9
$DIMSOXD
 70
     0
  9
$DIMSAH
 70
     0
  9
$DIMBLK1
  1

  9
$DIMBLK2
  1

  9
$LUNITS
 70
     2
  9
$LUPREC
 70
     4
  9
$SKETCHINC
 40
0.1
  9
$FILLETRAD
 40
0.5
  9
$AUNITS
 70
     0
  9
$AUPREC
 70
     0
  9
$MENU
  1
.
  9
$ELEVATION
 40
0.0
  9
$THICKNESS
 40
0.0
  9
$LIMCHECK
 70
     0
  9
$CHAMFERA
 40
0.0
  9
$CHAMFERB
 40
0.0
  9
$SKPOLY
 70
     0
  9
$TDCREATE
 40
2459047.418234583
  9
$TDUPDATE
 40
2459047.418234757
  9
$TDINDWG
 40
0.0000000116
  9
$TDUSRTIMER
 40
0.0000000116
  9
$USRTIMER
 70
     1
  9
$ANGBASE
 50
0.0
  9
$ANGDIR
 70
     0
  9
$PDMODE
 70
     0
  9
$PDSIZE
 40
0.0
  9
$PLINEWID
 40
0.0
  9
$COORDS
 70
     1
  9
$SPLFRAME
 70
     0
  9
$SPLINETYPE
 70
     6
  9
$SPLINESEGS
 70
     8
  9
$ATTDIA
 70
     0
  9
$ATTREQ
 70
     1
  9
$SURFTAB1
 70
     6
  9
$SURFTAB2
 70
     6
  9
$SURFTYPE
 70
     6
  9
$SURFU
 70
     6
  9
$SURFV
 70
     6
  9
$UCSNAME
  2

  9
$UCSORG
 10
0.0
 20
0.0
 30
0.0
  9
$UCSXDIR
 10
1.0
 20
0.0
 30
0.0
  9
$UCSYDIR
 10
0.0
 20
1.0
 30
0.0
  9
$USERI1
 70
     0
  9
$USERI2
 70
     0
  9
$USERI3
 70
     0
  9
$USERI4
 70
     0
  9
$USERI5
 70
     0
  9
$USERR1
 40
0.0
  9
$USERR2
 40
0.0
  9
$USERR3
 40
0.0
  9
$USERR4
 40
0.0
  9
$USERR5
 40
0.0
  9
$WORLDVIEW
 70
     1
  0
ENDSEC
  0
SECTION
  2
TABLES
  0
TABLE
  2
LTYPE
 70
     2
  0
LTYPE
  2
CONTINUOUS
 70
     0
  3
Solid line
 72
    65
 73
     0
 40
0.0
  0
LTYPE
  2
CENTER
 70
     0
  3

 72
    65
 73
     0
 40
0.0
  0
ENDTAB
  0
TABLE
  2
LAYER
 70
     2
  0
LAYER
  2
0
 70
     0
 62
     7
  6
CONTINUOUS
  0
LAYER
  2
1
 70
     0
 62
     7
  6
CONTINUOUS
  0
ENDTAB
  0
TABLE
  2
STYLE
 70
     2
  0
STYLE
  2
STANDARD
 70
     0
 40
0.0
 41
1.0
 50
0.0
 71
     0
 42
0.2
  3
txt
  4

  0
STYLE
  2
ＭＳ_ゴシック
 70
     0
 40
0.0
 41
1.0
 50
0.0
 71
     0
 42
0.2
  3
ＭＳ ゴシック.shx
  4

  0
ENDTAB
  0
TABLE
  2
VIEW
 70
     0
  0
ENDTAB
  0
ENDSEC
  0
SECTION
  2
BLOCKS
  0
ENDSEC
  0
SECTION
  2
ENTITIES
  0
LINE
  8
1
  6
CONTINUOUS
 62
     7
 10
2028.3216509062
 20
422.5312857343
 11
2016.862831861099
 21
419.4609044249703
  0
ARC
  8
1
  6
CONTINUOUS
 62
     7
 10
2017.1216509062
 20
418.4949785986808
 40
1.0
 50
104.9999999998947
 51
179.9999999999853
  0
LINE
  8
1
  6
CONTINUOUS
 62
     7
 10
2016.1216509062
 20
418.4949785986808
 11
2016.1216509062
 21
393.0675928700286
  0
ARC
  8
1
  6
CONTINUOUS
 62
     7
 10
2017.1216509062
 20
393.0675928700286
 40
1.0
 50
180.0
 51
254.9999999995799
  0
LINE
  8
1
  6
CONTINUOUS
 62
     7
 10
2016.86283186109
 20
392.1016670437415
 11
2028.3216509062
 21
389.0312857343
  0
TEXT
  8
1
  6
CONTINUOUS
 62
     7
 10
2049.740839342534
 20
382.9265939167187
 40
3.5
  1
FPK-14FS
 41
0.881934
  0
LINE
  8
1
  6
CONTINUOUS
 62
     7
 10
2049.3216509062
 20
422.4312857343
 11
2049.3216509062
 21
389.1312857343
  0
LINE
  8
1
  6
CONTINUOUS
 62
     7
 10
2051.3214669582
 20
417.9159468338
 11
2050.8216509062
 21
419.7812857343
  0
LINE
  8
1
  6
CONTINUOUS
 62
     7
 10
2057.7216509062
 20
412.2404665416
 11
2051.3214669582
 21
412.2404665416
  0
LINE
  8
1
  6
CONTINUOUS
 62
     7
 10
2058.3216509062
 20
412.8404665416
 11
2058.3216509062
 21
415.6831072287
  0
ARC
  8
1
  6
CONTINUOUS
 62
     7
 10
2057.3216509062
 20
418.7812857343
 40
1.0
 50
0.0
 51
90.0
  0
LINE
  8
1
  6
CONTINUOUS
 62
     7
 10
2050.8216509062
 20
420.2812857343
 11
2050.8216509062
 21
391.2812857343
  0
LINE
  8
1
  6
CONTINUOUS
 62
     7
 10
2058.3216509062
 20
417.9159468338
 11
2051.3214669582
 21
417.9159468338
  0
LINE
  8
1
  6
CONTINUOUS
 62
     7
 10
2051.3214669582
 20
417.9159468338
 11
2051.3214669582
 21
416.4831072288
  0
LINE
  8
1
  6
CONTINUOUS
 62
     7
 10
2058.3216509062
 20
407.7812857343
 11
2058.3216509062
 21
403.7812857343
  0
LINE
  8
1
  6
CONTINUOUS
 62
     7
 10
2057.5216509062
 20
416.4831072288
 11
2050.8216509062
 21
416.4831072288
  0
LINE
  8
1
  6
CONTINUOUS
 62
     7
 10
2050.8216509062
 20
419.7812857343
 11
2057.3216509062
 21
419.7812857343
  0
LINE
  8
1
  6
CONTINUOUS
 62
     7
 10
2051.3214669582
 20
412.2404665416
 11
2050.8216509062
 21
414.8074153978
  0
LINE
  8
1
  6
CONTINUOUS
 62
     7
 10
2057.3216509062
 20
408.7812857343
 11
2051.3214669582
 21
408.7812857343
  0
ARC
  8
1
  6
CONTINUOUS
 62
     7
 10
2057.5216509062
 20
415.6831072287
 40
0.8
 50
0.0
 51
90.0
  0
LINE
  8
1
  6
CONTINUOUS
 62
     7
 10
2051.3214669582
 20
408.7812857343
 11
2051.3214669582
 21
412.2404665416
  0
LINE
  8
1
  6
CONTINUOUS
 62
     7
 10
2051.3214669582
 20
408.7812857343
 11
2050.8216509062
 21
406.9661787912
  0
ARC
  8
1
  6
CONTINUOUS
 62
     7
 10
2057.3216509062
 20
407.7812857343
 40
1.0
 50
0.0
 51
90.0
  0
LINE
  8
1
  6
CONTINUOUS
 62
     7
 10
2062.3216509062
 20
395.8812857343
 11
2061.8216509062
 21
395.3812857343
  0
LINE
  8
1
  6
CONTINUOUS
 62
     7
 10
2049.3216509062
 20
422.4312857343
 11
2040.3216509062
 21
422.4312857343
  0
LINE
  8
1
  6
CONTINUOUS
 62
     7
 10
2038.3216509062
 20
422.5312857343
 11
2038.3216509062
 21
389.0312857343
  0
ARC
  8
1
  6
CONTINUOUS
 62
     7
 10
2050.3216509062
 20
420.2812857343
 40
0.5
 50
0.0
 51
90.0
  0
LINE
  8
1
  6
CENTER
 62
     7
 10
2013.5264665447
 20
405.7812857343
 11
2066.7146859537
 21
405.7812857343
  0
LINE
  8
1
  6
CONTINUOUS
 62
     7
 10
2058.3216509062
 20
418.7812857343
 11
2058.3216509062
 21
417.9159468339
  0
LINE
  8
1
  6
CONTINUOUS
 62
     7
 10
2049.3216509062
 20
389.1312857343
 11
2040.3216509062
 21
389.1312857343
  0
ARC
  8
1
  6
CONTINUOUS
 62
     7
 10
2057.3216509062
 20
392.7812857343
 40
1.0
 50
270.0
 51
0.0
  0
LINE
  8
1
  6
CONTINUOUS
 62
     7
 10
2057.3216509062
 20
404.5963926775
 11
2050.8216509062
 21
404.5963926775
  0
LINE
  8
1
  6
CONTINUOUS
 62
     7
 10
2040.3216509062
 20
389.0312857343
 11
2040.3216509062
 21
422.5312857343
  0
LINE
  8
1
  6
CONTINUOUS
 62
     7
 10
2040.3216509062
 20
389.0312857343
 11
2028.3216509062
 21
389.0312857343
  0
LINE
  8
1
  6
CONTINUOUS
 62
     7
 10
2057.3216509062
 20
406.9661787912
 11
2050.8216509062
 21
406.9661787912
  0
ARC
  8
1
  6
CONTINUOUS
 62
     7
 10
2058.3216509062
 20
417.2812857343
 40
1.0
 50
0.0
 51
90.0
  0
LINE
  8
1
  6
CONTINUOUS
 62
     7
 10
2051.3214669582
 20
393.6466246348
 11
2051.3214669582
 21
395.0794642399
  0
LINE
  8
1
  6
CONTINUOUS
 62
     7
 10
2051.3214669582
 20
393.6466246348
 11
2050.8216509062
 21
391.7812857343
  0
LINE
  8
1
  6
CONTINUOUS
 62
     7
 10
2057.7216509062
 20
399.322104927
 11
2051.3214669582
 21
399.322104927
  0
LINE
  8
1
  6
CONTINUOUS
 62
     7
 10
2050.3216509062
 20
390.7812857343
 11
2049.3216509062
 21
390.7812857343
  0
ARC
  8
1
  6
CONTINUOUS
 62
     7
 10
2050.3216509062
 20
391.2812857343
 40
0.5
 50
270.0
 51
0.0
  0
LINE
  8
1
  6
CONTINUOUS
 62
     7
 10
2062.3216509062
 20
415.1812857343
 11
2059.3216509062
 21
415.1812857343
  0
LINE
  8
1
  6
CONTINUOUS
 62
     7
 10
2028.3216509062
 20
403.9540130071
 11
2038.3216509062
 21
403.9540130071
  0
LINE
  8
1
  6
CONTINUOUS
 62
     7
 10
2028.3216509062
 20
403.344922098
 11
2038.3216509062
 21
403.344922098
  0
LINE
  8
1
  6
CONTINUOUS
 62
     7
 10
2058.3216509062
 20
392.7812857343
 11
2058.3216509062
 21
393.6466246348
  0
LINE
  8
1
  6
CONTINUOUS
 62
     7
 10
2028.3216509062
 20
405.1721948252
 11
2038.3216509062
 21
405.1721948252
  0
LINE
  8
1
  6
CONTINUOUS
 62
     7
 10
2057.3216509062
 20
396.7551560709
 11
2050.8216509062
 21
396.7551560709
  0
ARC
  8
1
  6
CONTINUOUS
 62
     7
 10
2057.5216509062
 20
395.8794642399
 40
0.8
 50
270.0
 51
0.0
  0
LINE
  8
1
  6
CONTINUOUS
 62
     7
 10
2061.3216509062
 20
416.1812857343
 11
2061.3216509062
 21
395.3812857343
  0
LINE
  8
1
  6
CONTINUOUS
 62
     7
 10
2057.5216509062
 20
395.0794642399
 11
2050.8216509062
 21
395.0794642399
  0
ARC
  8
1
  6
CONTINUOUS
 62
     7
 10
2057.7216509062
 20
398.722104927
 40
0.6
 50
0.0
 51
90.0
  0
LINE
  8
1
  6
CONTINUOUS
 62
     7
 10
2040.3216509062
 20
398.3088875454
 11
2046.8216509062
 21
398.3088875454
  0
LINE
  8
1
  6
CONTINUOUS
 62
     7
 10
2040.3216509062
 20
413.2536839233
 11
2046.8216509062
 21
413.2536839233
  0
LINE
  8
1
  6
CONTINUOUS
 62
     7
 10
2028.3216509062
 20
422.5312857343
 11
2028.3216509062
 21
389.0312857343
  0
LINE
  8
1
  6
CONTINUOUS
 62
     7
 10
2062.3216509062
 20
396.3812857343
 11
2059.3216509062
 21
396.3812857343
  0
LINE
  8
1
  6
CONTINUOUS
 62
     7
 10
2059.3216509062
 20
395.3812857343
 11
2061.8216509062
 21
395.3812857343
  0
LINE
  8
1
  6
CONTINUOUS
 62
     7
 10
2028.3216509062
 20
404.5631039162
 11
2038.3216509062
 21
404.5631039162
  0
LINE
  8
1
  6
CONTINUOUS
 62
     7
 10
2059.3216509062
 20
416.1812857343
 11
2061.8216509062
 21
416.1812857343
  0
LINE
  8
1
  6
CONTINUOUS
 62
     7
 10
2050.8216509062
 20
391.7812857343
 11
2057.3216509062
 21
391.7812857343
  0
LINE
  8
1
  6
CONTINUOUS
 62
     7
 10
2051.3214669582
 20
402.7812857343
 11
2050.8216509062
 21
404.5963926775
  0
ARC
  8
1
  6
CONTINUOUS
 62
     7
 10
2058.3216509062
 20
394.2812857343
 40
1.0
 50
270.0
 51
0.0
  0
LINE
  8
1
  6
CONTINUOUS
 62
     7
 10
2057.3216509062
 20
402.7812857343
 11
2051.3214669582
 21
402.7812857343
  0
ARC
  8
1
  6
CONTINUOUS
 62
     7
 10
2057.7216509062
 20
412.8404665416
 40
0.6
 50
270.0
 51
0.0
  0
LINE
  8
1
  6
CONTINUOUS
 62
     7
 10
2050.3216509062
 20
420.7812857343
 11
2049.3216509062
 21
420.7812857343
  0
LINE
  8
1
  6
CONTINUOUS
 62
     7
 10
2057.3216509062
 20
414.8074153978
 11
2050.8216509062
 21
414.8074153978
  0
LINE
  8
1
  6
CONTINUOUS
 62
     7
 10
2058.3216509062
 20
393.6466246348
 11
2051.3214669582
 21
393.6466246348
  0
LINE
  8
1
  6
CONTINUOUS
 62
     7
 10
2051.3214669582
 20
399.322104927
 11
2050.8216509062
 21
396.7551560709
  0
LINE
  8
1
  6
CONTINUOUS
 62
     7
 10
2051.3214669582
 20
402.7812857343
 11
2051.3214669582
 21
399.322104927
  0
LINE
  8
1
  6
CONTINUOUS
 62
     7
 10
2058.3216509062
 20
398.722104927
 11
2058.3216509062
 21
395.8794642399
  0
ARC
  8
1
  6
CONTINUOUS
 62
     7
 10
2057.3216509062
 20
403.7812857343
 40
1.0
 50
270.0
 51
0.0
  0
LINE
  8
1
  6
CONTINUOUS
 62
     7
 10
2048.3216509062
 20
422.4312857343
 11
2048.3216509062
 21
389.1312857343
  0
LINE
  8
1
  6
CONTINUOUS
 62
     7
 10
2062.3216509062
 20
415.6812857343
 11
2062.3216509062
 21
395.8812857343
  0
LINE
  8
1
  6
CONTINUOUS
 62
     7
 10
2059.3216509062
 20
417.2812857343
 11
2059.3216509062
 21
394.2812857343
  0
LINE
  8
1
  6
CONTINUOUS
 62
     7
 10
2028.3216509062
 20
410.3494675525
 11
2038.3216509062
 21
410.3494675525
  0
LINE
  8
1
  6
CONTINUOUS
 62
     7
 10
2038.3216509062
 20
410.8570433101
 11
2028.3216509062
 21
410.8570433101
  0
LINE
  8
1
  6
CONTINUOUS
 62
     7
 10
2028.3216509062
 20
411.2631039162
 11
2038.3216509062
 21
411.2631039162
  0
LINE
  8
1
  6
CONTINUOUS
 62
     7
 10
2028.3216509062
 20
399.8934069465
 11
2038.3216509062
 21
399.8934069465
  0
LINE
  8
1
  6
CONTINUOUS
 62
     7
 10
2028.3216509062
 20
395.4267402798
 11
2038.3216509062
 21
395.4267402798
  0
LINE
  8
1
  6
CONTINUOUS
 62
     7
 10
2028.3216509062
 20
389.7418917949
 11
2038.3216509062
 21
389.7418917949
  0
LINE
  8
1
  6
CONTINUOUS
 62
     7
 10
2028.3216509062
 20
401.2131039162
 11
2038.3216509062
 21
401.2131039162
  0
LINE
  8
1
  6
CONTINUOUS
 62
     7
 10
2028.3216509062
 20
411.6691645222
 11
2038.3216509062
 21
411.6691645222
  0
LINE
  8
1
  6
CONTINUOUS
 62
     7
 10
2028.3216509062
 20
398.2691645222
 11
2038.3216509062
 21
398.2691645222
  0
LINE
  8
1
  6
CONTINUOUS
 62
     7
 10
2028.3216509062
 20
396.644922098
 11
2038.3216509062
 21
396.644922098
  0
LINE
  8
1
  6
CONTINUOUS
 62
     7
 10
2028.3216509062
 20
399.0812857343
 11
2038.3216509062
 21
399.0812857343
  0
LINE
  8
1
  6
CONTINUOUS
 62
     7
 10
2028.3216509062
 20
400.2994675525
 11
2038.3216509062
 21
400.2994675525
  0
LINE
  8
1
  6
CONTINUOUS
 62
     7
 10
2028.3216509062
 20
398.6752251283
 11
2038.3216509062
 21
398.6752251283
  0
LINE
  8
1
  6
CONTINUOUS
 62
     7
 10
2028.3216509062
 20
397.4570433101
 11
2038.3216509062
 21
397.4570433101
  0
LINE
  8
1
  6
CONTINUOUS
 62
     7
 10
2028.3216509062
 20
395.8328008859
 11
2038.3216509062
 21
395.8328008859
  0
LINE
  8
1
  6
CONTINUOUS
 62
     7
 10
2038.3216509062
 20
400.7055281586
 11
2028.3216509062
 21
400.7055281586
  0
LINE
  8
1
  6
CONTINUOUS
 62
     7
 10
2028.3216509062
 20
397.8631039162
 11
2038.3216509062
 21
397.8631039162
  0
LINE
  8
1
  6
CONTINUOUS
 62
     7
 10
2028.3216509062
 20
392.4828008859
 11
2038.3216509062
 21
392.4828008859
  0
LINE
  8
1
  6
CONTINUOUS
 62
     7
 10
2028.3216509062
 20
402.7358311889
 11
2038.3216509062
 21
402.7358311889
  0
LINE
  8
1
  6
CONTINUOUS
 62
     7
 10
2028.3216509062
 20
393.3964372495
 11
2038.3216509062
 21
393.3964372495
  0
LINE
  8
1
  6
CONTINUOUS
 62
     7
 10
2028.3216509062
 20
397.050982704
 11
2038.3216509062
 21
397.050982704
  0
LINE
  8
1
  6
CONTINUOUS
 62
     7
 10
2028.3216509062
 20
395.0206796737
 11
2038.3216509062
 21
395.0206796737
  0
LINE
  8
1
  6
CONTINUOUS
 62
     7
 10
2028.3216509062
 20
390.6555281586
 11
2038.3216509062
 21
390.6555281586
  0
LINE
  8
1
  6
CONTINUOUS
 62
     7
 10
2028.3216509062
 20
389.1328008859
 11
2038.3216509062
 21
389.1328008859
  0
LINE
  8
1
  6
CONTINUOUS
 62
     7
 10
2040.3216509062
 20
422.5312857343
 11
2028.3216509062
 21
422.5312857343
  0
LINE
  8
1
  6
CONTINUOUS
 62
     7
 10
2038.3216509062
 20
393.700982704
 11
2028.3216509062
 21
393.700982704
  0
LINE
  8
1
  6
CONTINUOUS
 62
     7
 10
2028.3216509062
 20
391.5691645222
 11
2038.3216509062
 21
391.5691645222
  0
LINE
  8
1
  6
CONTINUOUS
 62
     7
 10
2038.3216509062
 20
390.9600736131
 11
2028.3216509062
 21
390.9600736131
  0
LINE
  8
1
  6
CONTINUOUS
 62
     7
 10
2028.3216509062
 20
390.350982704
 11
2038.3216509062
 21
390.350982704
  0
LINE
  8
1
  6
CONTINUOUS
 62
     7
 10
2028.3216509062
 20
394.6146190677
 11
2038.3216509062
 21
394.6146190677
  0
LINE
  8
1
  6
CONTINUOUS
 62
     7
 10
2028.3216509062
 20
391.2646190677
 11
2038.3216509062
 21
391.2646190677
  0
LINE
  8
1
  6
CONTINUOUS
 62
     7
 10
2028.3216509062
 20
392.1782554313
 11
2038.3216509062
 21
392.1782554313
  0
LINE
  8
1
  6
CONTINUOUS
 62
     7
 10
2028.3216509062
 20
407.6085584616
 11
2038.3216509062
 21
407.6085584616
  0
LINE
  8
1
  6
CONTINUOUS
 62
     7
 10
2028.3216509062
 20
408.2176493707
 11
2038.3216509062
 21
408.2176493707
  0
LINE
  8
1
  6
CONTINUOUS
 62
     7
 10
2028.3216509062
 20
408.8267402798
 11
2038.3216509062
 21
408.8267402798
  0
LINE
  8
1
  6
CONTINUOUS
 62
     7
 10
2028.3216509062
 20
406.3903766434
 11
2038.3216509062
 21
406.3903766434
  0
LINE
  8
1
  6
CONTINUOUS
 62
     7
 10
2028.3216509062
 20
402.2282554313
 11
2038.3216509062
 21
402.2282554313
  0
LINE
  8
1
  6
CONTINUOUS
 62
     7
 10
2028.3216509062
 20
393.0918917949
 11
2038.3216509062
 21
393.0918917949
  0
LINE
  8
1
  6
CONTINUOUS
 62
     7
 10
2028.3216509062
 20
391.8737099768
 11
2038.3216509062
 21
391.8737099768
  0
LINE
  8
1
  6
CONTINUOUS
 62
     7
 10
2028.3216509062
 20
390.0464372495
 11
2038.3216509062
 21
390.0464372495
  0
LINE
  8
1
  6
CONTINUOUS
 62
     7
 10
2028.3216509062
 20
399.4873463404
 11
2038.3216509062
 21
399.4873463404
  0
LINE
  8
1
  6
CONTINUOUS
 62
     7
 10
2028.3216509062
 20
396.2388614919
 11
2038.3216509062
 21
396.2388614919
  0
LINE
  8
1
  6
CONTINUOUS
 62
     7
 10
2028.3216509062
 20
389.4373463404
 11
2038.3216509062
 21
389.4373463404
  0
LINE
  8
1
  6
CONTINUOUS
 62
     7
 10
2038.3216509062
 20
401.7206796737
 11
2028.3216509062
 21
401.7206796737
  0
LINE
  8
1
  6
CONTINUOUS
 62
     7
 10
2028.3216509062
 20
406.9994675525
 11
2038.3216509062
 21
406.9994675525
  0
LINE
  8
1
  6
CONTINUOUS
 62
     7
 10
2028.3216509062
 20
392.7873463404
 11
2038.3216509062
 21
392.7873463404
  0
LINE
  8
1
  6
CONTINUOUS
 62
     7
 10
2028.3216509062
 20
409.3343160374
 11
2038.3216509062
 21
409.3343160374
  0
LINE
  8
1
  6
CONTINUOUS
 62
     7
 10
2028.3216509062
 20
394.0055281586
 11
2038.3216509062
 21
394.0055281586
  0
LINE
  8
1
  6
CONTINUOUS
 62
     7
 10
2038.3216509062
 20
409.8418917949
 11
2028.3216509062
 21
409.8418917949
  0
LINE
  8
1
  6
CONTINUOUS
 62
     7
 10
2028.3216509062
 20
394.3100736131
 11
2038.3216509062
 21
394.3100736131
  0
LINE
  8
1
  6
CONTINUOUS
 62
     7
 10
2028.3216509062
 20
422.1252251283
 11
2038.3216509062
 21
422.1252251283
  0
LINE
  8
1
  6
CONTINUOUS
 62
     7
 10
2028.3216509062
 20
416.1358311889
 11
2038.3216509062
 21
416.1358311889
  0
LINE
  8
1
  6
CONTINUOUS
 62
     7
 10
2062.3216509062
 20
415.6812857343
 11
2061.8216509062
 21
416.1812857343
  0
LINE
  8
1
  6
CONTINUOUS
 62
     7
 10
2028.3216509062
 20
413.2934069465
 11
2038.3216509062
 21
413.2934069465
  0
LINE
  8
1
  6
CONTINUOUS
 62
     7
 10
2028.3216509062
 20
418.1661342192
 11
2038.3216509062
 21
418.1661342192
  0
LINE
  8
1
  6
CONTINUOUS
 62
     7
 10
2028.3216509062
 20
419.9934069465
 11
2038.3216509062
 21
419.9934069465
  0
LINE
  8
1
  6
CONTINUOUS
 62
     7
 10
2028.3216509062
 20
412.8873463404
 11
2038.3216509062
 21
412.8873463404
  0
LINE
  8
1
  6
CONTINUOUS
 62
     7
 10
2028.3216509062
 20
417.2524978555
 11
2038.3216509062
 21
417.2524978555
  0
LINE
  8
1
  6
CONTINUOUS
 62
     7
 10
2028.3216509062
 20
414.1055281586
 11
2038.3216509062
 21
414.1055281586
  0
LINE
  8
1
  6
CONTINUOUS
 62
     7
 10
2038.3216509062
 20
417.8615887646
 11
2028.3216509062
 21
417.8615887646
  0
LINE
  8
1
  6
CONTINUOUS
 62
     7
 10
2028.3216509062
 20
418.7752251283
 11
2038.3216509062
 21
418.7752251283
  0
LINE
  8
1
  6
CONTINUOUS
 62
     7
 10
2028.3216509062
 20
414.9176493707
 11
2038.3216509062
 21
414.9176493707
  0
LINE
  8
1
  6
CONTINUOUS
 62
     7
 10
2028.3216509062
 20
418.4706796737
 11
2038.3216509062
 21
418.4706796737
  0
LINE
  8
1
  6
CONTINUOUS
 62
     7
 10
2028.3216509062
 20
415.7297705828
 11
2038.3216509062
 21
415.7297705828
  0
LINE
  8
1
  6
CONTINUOUS
 62
     7
 10
2028.3216509062
 20
416.947952401
 11
2038.3216509062
 21
416.947952401
  0
LINE
  8
1
  6
CONTINUOUS
 62
     7
 10
2028.3216509062
 20
419.0797705828
 11
2038.3216509062
 21
419.0797705828
  0
LINE
  8
1
  6
CONTINUOUS
 62
     7
 10
2028.3216509062
 20
421.5161342192
 11
2038.3216509062
 21
421.5161342192
  0
LINE
  8
1
  6
CONTINUOUS
 62
     7
 10
2028.3216509062
 20
421.8206796737
 11
2038.3216509062
 21
421.8206796737
  0
LINE
  8
1
  6
CONTINUOUS
 62
     7
 10
2028.3216509062
 20
421.2115887646
 11
2038.3216509062
 21
421.2115887646
  0
LINE
  8
1
  6
CONTINUOUS
 62
     7
 10
2028.3216509062
 20
415.3237099768
 11
2038.3216509062
 21
415.3237099768
  0
LINE
  8
1
  6
CONTINUOUS
 62
     7
 10
2046.8216509062
 20
413.2536839233
 11
2046.8216509062
 21
398.038630499
  0
LINE
  8
1
  6
CONTINUOUS
 62
     7
 10
2028.3216509062
 20
420.9070433101
 11
2038.3216509062
 21
420.9070433101
  0
LINE
  8
1
  6
CONTINUOUS
 62
     7
 10
2028.3216509062
 20
419.3843160374
 11
2038.3216509062
 21
419.3843160374
  0
LINE
  8
1
  6
CONTINUOUS
 62
     7
 10
2028.3216509062
 20
413.6994675525
 11
2038.3216509062
 21
413.6994675525
  0
LINE
  8
1
  6
CONTINUOUS
 62
     7
 10
2028.3216509062
 20
416.5418917949
 11
2038.3216509062
 21
416.5418917949
  0
LINE
  8
1
  6
CONTINUOUS
 62
     7
 10
2028.3216509062
 20
419.6888614919
 11
2038.3216509062
 21
419.6888614919
  0
LINE
  8
1
  6
CONTINUOUS
 62
     7
 10
2038.3216509062
 20
420.6024978555
 11
2028.3216509062
 21
420.6024978555
  0
LINE
  8
1
  6
CONTINUOUS
 62
     7
 10
2028.3216509062
 20
412.0752251283
 11
2038.3216509062
 21
412.0752251283
  0
LINE
  8
1
  6
CONTINUOUS
 62
     7
 10
2028.3216509062
 20
420.297952401
 11
2038.3216509062
 21
420.297952401
  0
LINE
  8
1
  6
CONTINUOUS
 62
     7
 10
2028.3216509062
 20
414.5115887646
 11
2038.3216509062
 21
414.5115887646
  0
LINE
  8
1
  6
CONTINUOUS
 62
     7
 10
2028.3216509062
 20
422.4297705828
 11
2038.3216509062
 21
422.4297705828
  0
LINE
  8
1
  6
CONTINUOUS
 62
     7
 10
2028.3216509062
 20
412.4812857343
 11
2038.3216509062
 21
412.4812857343
  0
LINE
  8
1
  6
CONTINUOUS
 62
     7
 10
2028.3216509062
 20
417.5570433101
 11
2038.3216509062
 21
417.5570433101
  0
ENDSEC
  0
EOF
