  0
SECTION
  2
HEADER
  9
$ACADVER
  1
AC1004
  9
$INSBASE
 10
0.0
 20
0.0
  9
$EXTMIN
 10
0.0
 20
0.0
  9
$EXTMAX
 10
218.0197486181818
 20
151.080004
  9
$LIMMIN
 10
0.0
 20
0.0
  9
$LIMMAX
 10
12.0
 20
9.0
  9
$ORTHOMODE
 70
     0
  9
$REGENMODE
 70
     1
  9
$FILLMODE
 70
     1
  9
$QTEXTMODE
 70
     0
  9
$DRAGMODE
 70
     2
  9
$LTSCALE
 40
1.0
  9
$OSMODE
 70
    37
  9
$ATTMODE
 70
     1
  9
$TEXTSIZE
 40
0.2
  9
$TRACEWID
 40
0.05
  9
$TEXTSTYLE
  7
STANDARD
  9
$CLAYER
  8
0
  9
$CELTYPE
  6
BYLAYER
  9
$CECOLOR
 62
   256
  9
$DIMSCALE
 40
1.0
  9
$DIMASZ
 40
0.9
  9
$DIMEXO
 40
0.0625
  9
$DIMDLI
 40
0.38
  9
$DIMRND
 40
0.0
  9
$DIMDLE
 40
0.0
  9
$DIMEXE
 40
0.45
  9
$DIMTP
 40
0.0
  9
$DIMTM
 40
0.0
  9
$DIMTXT
 40
3.0
  9
$DIMCEN
 40
0.09
  9
$DIMTSZ
 40
0.0
  9
$DIMTOL
 70
     0
  9
$DIMLIM
 70
     0
  9
$DIMTIH
 70
     1
  9
$DIMTOH
 70
     1
  9
$DIMSE1
 70
     0
  9
$DIMSE2
 70
     0
  9
$DIMTAD
 70
     1
  9
$DIMZIN
 70
     0
  9
$DIMBLK
  1

  9
$DIMASO
 70
     1
  9
$DIMSHO
 70
     1
  9
$DIMPOST
  1

  9
$DIMAPOST
  1

  9
$DIMALT
 70
     0
  9
$DIMALTD
 70
     2
  9
$DIMALTF
 40
25.4
  9
$DIMLFAC
 40
1.0
  9
$DIMTOFL
 70
     0
  9
$DIMTVP
 40
0.0
  9
$DIMTIX
 70
     0
  9
$DIMSOXD
 70
     0
  9
$DIMSAH
 70
     0
  9
$DIMBLK1
  1

  9
$DIMBLK2
  1

  9
$LUNITS
 70
     2
  9
$LUPREC
 70
     4
  9
$SKETCHINC
 40
0.1
  9
$FILLETRAD
 40
0.5
  9
$AUNITS
 70
     0
  9
$AUPREC
 70
     0
  9
$MENU
  1
.
  9
$ELEVATION
 40
0.0
  9
$THICKNESS
 40
0.0
  9
$LIMCHECK
 70
     0
  9
$CHAMFERA
 40
0.0
  9
$CHAMFERB
 40
0.0
  9
$SKPOLY
 70
     0
  9
$TDCREATE
 40
2459047.633370903
  9
$TDUPDATE
 40
2459047.633371088
  9
$TDINDWG
 40
0.0000000116
  9
$TDUSRTIMER
 40
0.0000000116
  9
$USRTIMER
 70
     1
  9
$ANGBASE
 50
0.0
  9
$ANGDIR
 70
     0
  9
$PDMODE
 70
     0
  9
$PDSIZE
 40
0.0
  9
$PLINEWID
 40
0.0
  9
$COORDS
 70
     1
  9
$SPLFRAME
 70
     0
  9
$SPLINETYPE
 70
     6
  9
$SPLINESEGS
 70
     8
  9
$ATTDIA
 70
     0
  9
$ATTREQ
 70
     1
  9
$SURFTAB1
 70
     6
  9
$SURFTAB2
 70
     6
  9
$SURFTYPE
 70
     6
  9
$SURFU
 70
     6
  9
$SURFV
 70
     6
  9
$UCSNAME
  2

  9
$UCSORG
 10
0.0
 20
0.0
 30
0.0
  9
$UCSXDIR
 10
1.0
 20
0.0
 30
0.0
  9
$UCSYDIR
 10
0.0
 20
1.0
 30
0.0
  9
$USERI1
 70
     0
  9
$USERI2
 70
     0
  9
$USERI3
 70
     0
  9
$USERI4
 70
     0
  9
$USERI5
 70
     0
  9
$USERR1
 40
0.0
  9
$USERR2
 40
0.0
  9
$USERR3
 40
0.0
  9
$USERR4
 40
0.0
  9
$USERR5
 40
0.0
  9
$WORLDVIEW
 70
     1
  0
ENDSEC
  0
SECTION
  2
TABLES
  0
TABLE
  2
LTYPE
 70
     2
  0
LTYPE
  2
CONTINUOUS
 70
     0
  3
Solid line
 72
    65
 73
     0
 40
0.0
  0
LTYPE
  2
CENTER
 70
     0
  3

 72
    65
 73
     0
 40
0.0
  0
ENDTAB
  0
TABLE
  2
LAYER
 70
     2
  0
LAYER
  2
0
 70
     0
 62
     7
  6
CONTINUOUS
  0
LAYER
  2
1
 70
     0
 62
     7
  6
CONTINUOUS
  0
ENDTAB
  0
TABLE
  2
STYLE
 70
     2
  0
STYLE
  2
STANDARD
 70
     0
 40
0.0
 41
1.0
 50
0.0
 71
     0
 42
0.2
  3
txt
  4

  0
STYLE
  2
ＭＳ_ゴシック
 70
     0
 40
0.0
 41
1.0
 50
0.0
 71
     0
 42
0.2
  3
ＭＳ ゴシック.shx
  4

  0
ENDTAB
  0
TABLE
  2
VIEW
 70
     0
  0
ENDTAB
  0
ENDSEC
  0
SECTION
  2
BLOCKS
  0
ENDSEC
  0
SECTION
  2
ENTITIES
  0
LINE
  8
1
  6
CONTINUOUS
 62
     7
 10
204.3593658592
 20
112.5
 11
216.6009058065331
 21
115.547041130273
  0
ARC
  8
1
  6
CONTINUOUS
 62
     7
 10
216.3593658592001
 20
116.5174320071068
 40
1.000000000000006
 50
283.9774471330389
 51
359.9999999999998
  0
LINE
  8
1
  6
CONTINUOUS
 62
     7
 10
217.3593658592001
 20
116.5174320071068
 11
217.3593658592001
 21
143.4825679928932
  0
ARC
  8
1
  6
CONTINUOUS
 62
     7
 10
216.3593658592001
 20
143.4825679928932
 40
1.000000000000001
 50
0.0
 51
76.02255286696115
  0
LINE
  8
1
  6
CONTINUOUS
 62
     7
 10
216.6009058065331
 20
144.452958869727
 11
204.3593658592001
 21
147.5
  0
LINE
  8
1
  6
CONTINUOUS
 62
     7
 10
204.3593658592001
 20
146.0393939394
 11
194.3593658592003
 21
146.0393939394
  0
LINE
  8
1
  6
CONTINUOUS
 62
     7
 10
204.3593658592001
 20
124.5181818182
 11
194.3593658592003
 21
124.5181818182
  0
LINE
  8
1
  6
CONTINUOUS
 62
     7
 10
204.3593658592001
 20
146.6484848484999
 11
194.3593658592003
 21
146.6484848484999
  0
LINE
  8
1
  6
CONTINUOUS
 62
     7
 10
204.3593658592001
 20
123.2999999999999
 11
194.3593658592003
 21
123.2999999999999
  0
LINE
  8
1
  6
CONTINUOUS
 62
     7
 10
204.3593658592001
 20
146.343939394
 11
194.3593658592003
 21
146.343939394
  0
LINE
  8
1
  6
CONTINUOUS
 62
     7
 10
204.3593658592001
 20
118.2242424242999
 11
194.3593658592003
 21
118.2242424242999
  0
LINE
  8
1
  6
CONTINUOUS
 62
     7
 10
204.3593658592001
 20
129.3909090909
 11
194.3593658592003
 21
129.3909090909
  0
LINE
  8
1
  6
CONTINUOUS
 62
     7
 10
204.3593658592001
 20
145.7348484849
 11
194.3593658592003
 21
145.7348484849
  0
LINE
  8
1
  6
CONTINUOUS
 62
     7
 10
204.3593658592001
 20
128.7818181818
 11
194.3593658592003
 21
128.7818181818
  0
LINE
  8
1
  6
CONTINUOUS
 62
     7
 10
204.3593658592001
 20
125.4318181818
 11
194.3593658592003
 21
125.4318181818
  0
LINE
  8
1
  6
CONTINUOUS
 62
     7
 10
194.3593658592003
 20
124.9242424242999
 11
204.3593658592001
 21
124.9242424242999
  0
LINE
  8
1
  6
CONTINUOUS
 62
     7
 10
204.3593658592001
 20
120.4575757576
 11
194.3593658592003
 21
120.4575757576
  0
LINE
  8
1
  6
CONTINUOUS
 62
     7
 10
204.3593658592001
 20
147.2575757576
 11
194.3593658592003
 21
147.2575757576
  0
LINE
  8
1
  6
CONTINUOUS
 62
     7
 10
204.3593658592001
 20
126.9545454546
 11
194.3593658592003
 21
126.9545454546
  0
LINE
  8
1
  6
CONTINUOUS
 62
     7
 10
204.3593658592001
 20
126.4469696969999
 11
194.3593658592003
 21
126.4469696969999
  0
LINE
  8
1
  6
CONTINUOUS
 62
     7
 10
204.3593658592001
 20
118.8333333334
 11
194.3593658592003
 21
118.8333333334
  0
LINE
  8
1
  6
CONTINUOUS
 62
     7
 10
204.3593658592001
 20
118.5287878788
 11
194.3593658592003
 21
118.5287878788
  0
LINE
  8
1
  6
CONTINUOUS
 62
     7
 10
204.3593658592001
 20
117.6151515151999
 11
194.3593658592003
 21
117.6151515151999
  0
LINE
  8
1
  6
CONTINUOUS
 62
     7
 10
204.3593658592001
 20
117.3106060606
 11
194.3593658592003
 21
117.3106060606
  0
LINE
  8
1
  6
CONTINUOUS
 62
     7
 10
204.3593658592001
 20
115.7878787879
 11
194.3593658592003
 21
115.7878787879
  0
LINE
  8
1
  6
CONTINUOUS
 62
     7
 10
194.3593658592003
 20
115.1787878787999
 11
204.3593658592001
 21
115.1787878787999
  0
LINE
  8
1
  6
CONTINUOUS
 62
     7
 10
204.3593658592001
 20
127.5636363637
 11
194.3593658592003
 21
127.5636363637
  0
LINE
  8
1
  6
CONTINUOUS
 62
     7
 10
204.3593658592001
 20
116.396969697
 11
194.3593658592003
 21
116.396969697
  0
LINE
  8
1
  6
CONTINUOUS
 62
     7
 10
204.3593658592001
 20
145.4303030303
 11
194.3593658592003
 21
145.4303030303
  0
LINE
  8
1
  6
CONTINUOUS
 62
     7
 10
204.3593658592001
 20
121.2696969697
 11
194.3593658592003
 21
121.2696969697
  0
LINE
  8
1
  6
CONTINUOUS
 62
     7
 10
204.3593658592001
 20
121.6757575758
 11
194.3593658592003
 21
121.6757575758
  0
LINE
  8
1
  6
CONTINUOUS
 62
     7
 10
204.3593658592001
 20
122.4878787879001
 11
194.3593658592003
 21
122.4878787879001
  0
LINE
  8
1
  6
CONTINUOUS
 62
     7
 10
204.3593658592001
 20
119.6454545454999
 11
194.3593658592003
 21
119.6454545454999
  0
LINE
  8
1
  6
CONTINUOUS
 62
     7
 10
204.3593658592001
 20
120.8636363637001
 11
194.3593658592003
 21
120.8636363637001
  0
LINE
  8
1
  6
CONTINUOUS
 62
     7
 10
204.3593658592001
 20
119.2393939393999
 11
194.3593658592003
 21
119.2393939393999
  0
LINE
  8
1
  6
CONTINUOUS
 62
     7
 10
204.3593658592001
 20
122.8939393939999
 11
194.3593658592003
 21
122.8939393939999
  0
LINE
  8
1
  6
CONTINUOUS
 62
     7
 10
194.3593658592003
 20
125.9393939393999
 11
204.3593658592001
 21
125.9393939393999
  0
LINE
  8
1
  6
CONTINUOUS
 62
     7
 10
204.3593658592001
 20
117.0060606061
 11
194.3593658592003
 21
117.0060606061
  0
LINE
  8
1
  6
CONTINUOUS
 62
     7
 10
204.3593658592001
 20
124.1121212121
 11
194.3593658592003
 21
124.1121212121
  0
LINE
  8
1
  6
CONTINUOUS
 62
     7
 10
204.3593658592001
 20
116.7015151514999
 11
194.3593658592003
 21
116.7015151514999
  0
LINE
  8
1
  6
CONTINUOUS
 62
     7
 10
204.3593658592001
 20
116.0924242424
 11
194.3593658592003
 21
116.0924242424
  0
LINE
  8
1
  6
CONTINUOUS
 62
     7
 10
204.3593658592001
 20
122.0818181818
 11
194.3593658592003
 21
122.0818181818
  0
LINE
  8
1
  6
CONTINUOUS
 62
     7
 10
204.3593658592001
 20
115.4833333333999
 11
194.3593658592003
 21
115.4833333333999
  0
LINE
  8
1
  6
CONTINUOUS
 62
     7
 10
204.3593658592001
 20
114.8742424243
 11
194.3593658592003
 21
114.8742424243
  0
LINE
  8
1
  6
CONTINUOUS
 62
     7
 10
204.3593658592001
 20
114.5696969696999
 11
194.3593658592003
 21
114.5696969696999
  0
LINE
  8
1
  6
CONTINUOUS
 62
     7
 10
204.3593658592001
 20
114.2651515152
 11
194.3593658592003
 21
114.2651515152
  0
LINE
  8
1
  6
CONTINUOUS
 62
     7
 10
194.3593658592003
 20
117.9196969697
 11
204.3593658592001
 21
117.9196969697
  0
LINE
  8
1
  6
CONTINUOUS
 62
     7
 10
204.3593658592001
 20
120.0515151515
 11
194.3593658592003
 21
120.0515151515
  0
LINE
  8
1
  6
CONTINUOUS
 62
     7
 10
204.3593658592001
 20
113.9606060605999
 11
194.3593658592003
 21
113.9606060605999
  0
LINE
  8
1
  6
CONTINUOUS
 62
     7
 10
204.3593658592001
 20
113.0469696969999
 11
194.3593658592003
 21
113.0469696969999
  0
LINE
  8
1
  6
CONTINUOUS
 62
     7
 10
204.3593658592001
 20
128.1727272727001
 11
194.3593658592003
 21
128.1727272727001
  0
LINE
  8
1
  6
CONTINUOUS
 62
     7
 10
204.3593658592001
 20
112.7424242424
 11
194.3593658592003
 21
112.7424242424
  0
LINE
  8
1
  6
CONTINUOUS
 62
     7
 10
204.3593658592001
 20
113.6560606060999
 11
194.3593658592003
 21
113.6560606060999
  0
LINE
  8
1
  6
CONTINUOUS
 62
     7
 10
204.3593658592001
 20
146.9530303029999
 11
194.3593658592003
 21
146.9530303029999
  0
LINE
  8
1
  6
CONTINUOUS
 62
     7
 10
204.3593658592001
 20
123.7060606060999
 11
194.3593658592003
 21
123.7060606060999
  0
LINE
  8
1
  6
CONTINUOUS
 62
     7
 10
204.3593658592001
 20
113.3515151515
 11
194.3593658592003
 21
113.3515151515
  0
LINE
  8
1
  6
CONTINUOUS
 62
     7
 10
204.3593658592001
 20
141.4712121212
 11
194.3593658592003
 21
141.4712121212
  0
LINE
  8
1
  6
CONTINUOUS
 62
     7
 10
204.3593658592001
 20
112.5
 11
204.3593658592001
 21
147.5
  0
LINE
  8
1
  6
CONTINUOUS
 62
     7
 10
204.3593658592001
 20
131.8272727273001
 11
194.3593658592003
 21
131.8272727273001
  0
LINE
  8
1
  6
CONTINUOUS
 62
     7
 10
204.3593658592001
 20
133.553030303
 11
194.3593658592003
 21
133.553030303
  0
LINE
  8
1
  6
CONTINUOUS
 62
     7
 10
204.3593658592001
 20
140.3545454546
 11
194.3593658592003
 21
140.3545454546
  0
LINE
  8
1
  6
CONTINUOUS
 62
     7
 10
204.3593658592001
 20
142.3848484849
 11
194.3593658592003
 21
142.3848484849
  0
LINE
  8
1
  6
CONTINUOUS
 62
     7
 10
204.3593658592001
 20
131.2181818182
 11
194.3593658592003
 21
131.2181818182
  0
LINE
  8
1
  6
CONTINUOUS
 62
     7
 10
204.3593658592001
 20
139.9484848485
 11
194.3593658592003
 21
139.9484848485
  0
LINE
  8
1
  6
CONTINUOUS
 62
     7
 10
204.3593658592001
 20
137.9181818182
 11
194.3593658592003
 21
137.9181818182
  0
LINE
  8
1
  6
CONTINUOUS
 62
     7
 10
204.3593658592001
 20
137.5121212120999
 11
194.3593658592003
 21
137.5121212120999
  0
LINE
  8
1
  6
CONTINUOUS
 62
     7
 10
192.3593658592
 20
147.5
 11
192.3593658592
 21
112.5
  0
LINE
  8
1
  6
CONTINUOUS
 62
     7
 10
204.3593658592001
 20
138.7303030303
 11
194.3593658592003
 21
138.7303030303
  0
LINE
  8
1
  6
CONTINUOUS
 62
     7
 10
204.3593658592001
 20
142.993939394
 11
194.3593658592003
 21
142.993939394
  0
LINE
  8
1
  6
CONTINUOUS
 62
     7
 10
204.3593658592001
 20
143.9075757576
 11
194.3593658592003
 21
143.9075757576
  0
LINE
  8
1
  6
CONTINUOUS
 62
     7
 10
204.3593658592001
 20
135.4818181818
 11
194.3593658592003
 21
135.4818181818
  0
LINE
  8
1
  6
CONTINUOUS
 62
     7
 10
204.3593658592001
 20
130.6090909090999
 11
194.3593658592003
 21
130.6090909090999
  0
LINE
  8
1
  6
CONTINUOUS
 62
     7
 10
204.3593658592001
 20
135.8878787879
 11
194.3593658592003
 21
135.8878787879
  0
LINE
  8
1
  6
CONTINUOUS
 62
     7
 10
204.3593658592001
 20
137.1060606061
 11
194.3593658592003
 21
137.1060606061
  0
LINE
  8
1
  6
CONTINUOUS
 62
     7
 10
204.3593658592001
 20
132.4363636364
 11
194.3593658592003
 21
132.4363636364
  0
LINE
  8
1
  6
CONTINUOUS
 62
     7
 10
204.3593658592001
 20
140.7606060606
 11
194.3593658592003
 21
140.7606060606
  0
LINE
  8
1
  6
CONTINUOUS
 62
     7
 10
204.3593658592001
 20
133.0454545455
 11
194.3593658592003
 21
133.0454545455
  0
LINE
  8
1
  6
CONTINUOUS
 62
     7
 10
204.3593658592001
 20
134.5681818182
 11
194.3593658592003
 21
134.5681818182
  0
LINE
  8
1
  6
CONTINUOUS
 62
     7
 10
204.3593658592001
 20
141.1666666667
 11
194.3593658592003
 21
141.1666666667
  0
LINE
  8
1
  6
CONTINUOUS
 62
     7
 10
204.3593658592001
 20
138.3242424243
 11
194.3593658592003
 21
138.3242424243
  0
LINE
  8
1
  6
CONTINUOUS
 62
     7
 10
204.3593658592001
 20
139.1363636364
 11
194.3593658592003
 21
139.1363636364
  0
LINE
  8
1
  6
CONTINUOUS
 62
     7
 10
204.3593658592001
 20
141.7757575758
 11
194.3593658592003
 21
141.7757575758
  0
LINE
  8
1
  6
CONTINUOUS
 62
     7
 10
204.3593658592001
 20
142.6893939394
 11
194.3593658592003
 21
142.6893939394
  0
LINE
  8
1
  6
CONTINUOUS
 62
     7
 10
194.3593658592003
 20
112.5
 11
194.3593658592003
 21
147.5
  0
LINE
  8
1
  6
CONTINUOUS
 62
     7
 10
194.3593658592003
 20
135.0757575758
 11
204.3593658592001
 21
135.0757575758
  0
LINE
  8
1
  6
CONTINUOUS
 62
     7
 10
204.3593658592001
 20
143.2984848485
 11
194.3593658592003
 21
143.2984848485
  0
LINE
  8
1
  6
CONTINUOUS
 62
     7
 10
194.3593658592003
 20
134.0606060606
 11
204.3593658592001
 21
134.0606060606
  0
LINE
  8
1
  6
CONTINUOUS
 62
     7
 10
204.3593658592001
 20
143.603030303
 11
194.3593658592003
 21
143.603030303
  0
LINE
  8
1
  6
CONTINUOUS
 62
     7
 10
194.3593658592003
 20
142.0803030303
 11
204.3593658592001
 21
142.0803030303
  0
LINE
  8
1
  6
CONTINUOUS
 62
     7
 10
204.3593658592001
 20
144.2121212121
 11
194.3593658592003
 21
144.2121212121
  0
LINE
  8
1
  6
CONTINUOUS
 62
     7
 10
194.3593658592003
 20
144.8212121212
 11
204.3593658592001
 21
144.8212121212
  0
LINE
  8
1
  6
CONTINUOUS
 62
     7
 10
204.3593658592001
 20
139.5424242424
 11
194.3593658592003
 21
139.5424242424
  0
LINE
  8
1
  6
CONTINUOUS
 62
     7
 10
204.3593658592001
 20
144.5166666667
 11
194.3593658592003
 21
144.5166666667
  0
LINE
  8
1
  6
CONTINUOUS
 62
     7
 10
204.3593658592001
 20
145.1257575758
 11
194.3593658592003
 21
145.1257575758
  0
LINE
  8
1
  6
CONTINUOUS
 62
     7
 10
204.3593658592001
 20
136.7
 11
194.3593658592003
 21
136.7
  0
LINE
  8
1
  6
CONTINUOUS
 62
     7
 10
204.3593658592001
 20
136.293939394
 11
194.3593658592003
 21
136.293939394
  0
ARC
  8
1
  6
CONTINUOUS
 62
     7
 10
129.2033148115
 20
130.000012
 40
14.023768
 50
216.7993260000001
 51
233.199918
  0
ARC
  8
1
  6
CONTINUOUS
 62
     7
 10
129.2033088115
 20
130.000006
 40
14.048751
 50
263.1921459999999
 51
276.8072379999999
  0
LINE
  8
1
  6
CONTINUOUS
 62
     7
 10
143.2520598115
 20
130.000006
 11
144.2508118115
 21
130.000006
  0
LINE
  8
1
  6
CONTINUOUS
 62
     7
 10
192.3593658592
 20
137.8727052347
 11
184.8593658592
 21
137.8727052347
  0
LINE
  8
1
  6
CENTER
 62
     5
 10
108.1233178115
 20
130.000004
 11
150.2833178114
 21
130.000004
  0
CIRCLE
  8
1
  6
CONTINUOUS
 62
     7
 10
129.2033088115
 20
130.0002990054
 40
13.2205
  0
LINE
  8
1
  6
CONTINUOUS
 62
     7
 10
143.1530068115
 20
128.334666
 11
143.2520608115
 21
130.000006
  0
ARC
  8
1
  6
CONTINUOUS
 62
     7
 10
129.2033088115
 20
130.000006
 40
14.048751
 50
203.192149
 51
216.807238
  0
LINE
  8
1
  6
CENTER
 62
     5
 10
217.3970983353
 20
130.0
 11
164.9855368009
 21
130.0
  0
LINE
  8
1
  6
CONTINUOUS
 62
     7
 10
134.7278378115
 20
117.110269
 11
134.4528728115
 21
116.458859
  0
LINE
  8
1
  6
CONTINUOUS
 62
     7
 10
131.4271158115
 20
115.648169
 11
130.8636158115
 21
116.074872
  0
LINE
  8
1
  6
CONTINUOUS
 62
     7
 10
192.3593658592
 20
122.1272947652
 11
184.8593658592
 21
122.1272947652
  0
CIRCLE
  8
1
  6
CONTINUOUS
 62
     7
 10
129.2033088115
 20
130.0002990063
 40
10.55
  0
ARC
  8
1
  6
CONTINUOUS
 62
     7
 10
129.2033068115
 20
129.999997
 40
14.023764
 50
66.79934000000002
 51
83.199938
  0
ARC
  8
1
  6
CONTINUOUS
 62
     7
 10
129.2033108115
 20
129.999997
 40
14.023764
 50
96.799336
 51
113.199928
  0
ARC
  8
1
  6
CONTINUOUS
 62
     7
 10
129.2033178115
 20
130.000008
 40
14.023767
 50
186.79933
 51
203.199927
  0
ARC
  8
1
  6
CONTINUOUS
 62
     7
 10
129.2033088115
 20
130.000006
 40
14.048751
 50
173.19215
 51
186.807236
  0
ARC
  8
1
  6
CONTINUOUS
 62
     7
 10
129.2032998115
 20
130.000008
 40
14.023773
 50
336.79933
 51
353.199921
  0
ARC
  8
1
  6
CONTINUOUS
 62
     7
 10
129.2033148115
 20
130.0
 40
14.023765
 50
126.799331
 51
143.199922
  0
ARC
  8
1
  6
CONTINUOUS
 62
     7
 10
129.2033088115
 20
130.000006
 40
14.048751
 50
293.192148
 51
306.807236
  0
LINE
  8
1
  6
CONTINUOUS
 62
     7
 10
140.5204618115
 20
139.101799
 11
140.4326768115
 21
138.400442
  0
CIRCLE
  8
1
  6
CONTINUOUS
 62
     7
 10
129.2033088115
 20
130.000006
 40
13.2205
  0
ARC
  8
1
  6
CONTINUOUS
 62
     7
 10
129.2033088115
 20
130.000006
 40
14.048751
 50
143.192146
 51
156.807239
  0
LINE
  8
1
  6
CONTINUOUS
 62
     7
 10
140.4325608115
 20
121.599432
 11
140.5203758115
 21
120.898113
  0
LINE
  8
1
  6
CENTER
 62
     5
 10
129.2033178115
 20
151.080004
 11
129.2033178115
 21
108.920004
  0
LINE
  8
1
  6
CONTINUOUS
 62
     7
 10
143.2520598115
 20
130.000006
 11
143.1530238115
 21
131.665196
  0
ARC
  8
1
  6
CONTINUOUS
 62
     7
 10
129.2033088115
 20
130.000006
 40
14.048751
 50
233.192146
 51
246.807238
  0
ARC
  8
1
  6
CONTINUOUS
 62
     7
 10
129.2033028115
 20
130.000012
 40
14.02377
 50
306.799344
 51
323.199942
  0
LINE
  8
1
  6
CONTINUOUS
 62
     7
 10
116.3135738115
 20
124.47548
 11
115.6623058115
 21
124.750089
  0
LINE
  8
1
  6
CONTINUOUS
 62
     7
 10
114.8515478115
 20
127.775713
 11
115.2781778115
 21
128.339702
  0
LINE
  8
1
  6
CONTINUOUS
 62
     7
 10
134.4528918115
 20
143.54114
 11
134.7280058115
 21
142.889673
  0
LINE
  8
1
  6
CONTINUOUS
 62
     7
 10
127.5428208115
 20
116.074902
 11
126.9793018115
 21
115.648198
  0
ARC
  8
1
  6
CONTINUOUS
 62
     7
 10
129.2033178115
 20
130.000004
 40
14.023767
 50
156.799339
 51
173.199933
  0
LINE
  8
1
  6
CONTINUOUS
 62
     7
 10
192.3593658592
 20
147.5
 11
192.3593658592
 21
112.5
  0
LINE
  8
1
  6
CONTINUOUS
 62
     7
 10
123.9533028115
 20
116.459031
 11
123.6786078115
 21
117.110333
  0
ARC
  8
1
  6
CONTINUOUS
 62
     7
 10
129.2033028115
 20
130.0
 40
14.023773
 50
36.799343
 51
53.199937
  0
LINE
  8
1
  6
CONTINUOUS
 62
     7
 10
143.5551428115
 20
132.223856
 11
143.1284458115
 21
131.660312
  0
ARC
  8
1
  6
CONTINUOUS
 62
     7
 10
129.2032998115
 20
130.000004
 40
14.023773
 50
6.799337
 51
23.199928
  0
ARC
  8
1
  6
CONTINUOUS
 62
     7
 10
129.2033088115
 20
130.000006
 40
14.048751
 50
23.192146
 51
36.807239
  0
ARC
  8
1
  6
CONTINUOUS
 62
     7
 10
129.2033068115
 20
130.000014
 40
14.02377
 50
276.799341
 51
293.199935
  0
LINE
  8
1
  6
CONTINUOUS
 62
     7
 10
142.0930498115
 20
135.524535
 11
142.7443448115
 21
135.249865
  0
ARC
  8
1
  6
CONTINUOUS
 62
     7
 10
129.2033088115
 20
130.000006
 40
14.048751
 50
83.19214899999999
 51
96.807238
  0
ARC
  8
1
  6
CONTINUOUS
 62
     7
 10
129.2033088115
 20
130.000006
 40
14.048751
 50
53.19214900000001
 51
66.807236
  0
LINE
  8
1
  6
CONTINUOUS
 62
     7
 10
143.1284158115
 20
128.339516
 11
143.5551388115
 21
127.776128
  0
LINE
  8
1
  6
CONTINUOUS
 62
     7
 10
142.7443358115
 20
124.750123
 11
142.0929838115
 21
124.475303
  0
CIRCLE
  8
1
  6
CONTINUOUS
 62
     7
 10
129.2033088115
 20
130.0002990054
 40
12.0585
  0
CIRCLE
  8
1
  6
CONTINUOUS
 62
     7
 10
129.2033088115
 20
130.0002990082
 40
11.4999999981
  0
ARC
  8
1
  6
CONTINUOUS
 62
     7
 10
129.2033088115
 20
130.000006
 40
14.048751
 50
113.192146
 51
126.807238
  0
LINE
  8
1
  6
CONTINUOUS
 62
     7
 10
184.8593658592
 20
122.1272947652
 11
184.8593658592
 21
137.8727052347
  0
ARC
  8
1
  6
CONTINUOUS
 62
     7
 10
129.2033088115
 20
130.000006
 40
14.048751
 50
323.192149
 51
336.807238
  0
LINE
  8
1
  6
CONTINUOUS
 62
     7
 10
137.6038848115
 20
141.229259
 11
138.3055048115
 21
141.316837
  0
LINE
  8
1
  6
CONTINUOUS
 62
     7
 10
138.3054868115
 20
118.683163
 11
137.6037438115
 21
118.77064
  0
ARC
  8
1
  6
CONTINUOUS
 62
     7
 10
129.2033108115
 20
130.000014
 40
14.02377
 50
246.799334
 51
263.1999260000001
  0
LINE
  8
1
  6
CONTINUOUS
 62
     7
 10
130.8637938115
 20
143.925104
 11
131.4272458115
 21
144.351815
  0
LINE
  8
1
  6
CONTINUOUS
 62
     7
 10
123.6787838115
 20
142.889738
 11
123.9533298115
 21
143.540985
  0
LINE
  8
1
  6
CONTINUOUS
 62
     7
 10
181.3593658592
 20
112.5
 11
181.3593658592
 21
147.5
  0
LINE
  8
1
  6
CONTINUOUS
 62
     7
 10
183.3593658592
 20
112.5
 11
183.3593658592
 21
147.5
  0
ARC
  8
1
  6
CONTINUOUS
 62
     7
 10
172.3593658592
 20
144.0484579988
 40
1.0
 50
92.869359
 51
180.0
  0
LINE
  8
1
  6
CONTINUOUS
 62
     7
 10
171.3593628592
 20
116.0746029988
 11
171.3637698592
 21
116.0155149988
  0
ARC
  8
1
  6
CONTINUOUS
 62
     7
 10
172.3516688592
 20
143.9387989988
 40
0.99398
 50
92.435613
 51
168.183259
  0
LINE
  8
1
  6
CONTINUOUS
 62
     7
 10
171.3593658592
 20
143.9494219988
 11
171.3787528592
 21
144.1423479988
  0
ARC
  8
1
  6
CONTINUOUS
 62
     7
 10
172.3442318592
 20
117.1293379988
 40
0.991604
 50
192.030527
 51
267.988612
  0
ARC
  8
1
  6
CONTINUOUS
 62
     7
 10
172.3441508592
 20
142.8701499988
 40
0.9915259999999999
 50
92.00691200000001
 51
167.959205
  0
LINE
  8
1
  6
CONTINUOUS
 62
     7
 10
171.3593658592
 20
116.0500099988
 11
171.3593658592
 21
115.9771599988
  0
LINE
  8
1
  6
CONTINUOUS
 62
     7
 10
171.3744388592
 20
143.0769909988
 11
171.3593658592
 21
142.9131689988
  0
LINE
  8
1
  6
CONTINUOUS
 62
     7
 10
171.3637668592
 20
143.9839439988
 11
171.3593548592
 21
143.9248349988
  0
ARC
  8
1
  6
CONTINUOUS
 62
     7
 10
172.3593658592
 20
115.9509559988
 40
1.0
 50
180.0
 51
267.130641
  0
LINE
  8
1
  6
CONTINUOUS
 62
     7
 10
171.3740658592
 20
118.6221319988
 11
171.3629018592
 21
118.7508939988
  0
LINE
  8
1
  6
CONTINUOUS
 62
     7
 10
169.8593658591
 20
117.9415000005
 11
171.0213658592
 21
116.7795000005
  0
LINE
  8
1
  6
CONTINUOUS
 62
     7
 10
171.3755168592
 20
118.6141369988
 11
171.3740658592
 21
118.6221319988
  0
ARC
  8
1
  6
CONTINUOUS
 62
     7
 10
172.3516828592
 20
116.0606249988
 40
0.9939910000000001
 50
191.798342
 51
267.563577
  0
LINE
  8
1
  6
CONTINUOUS
 62
     7
 10
171.3593658592
 20
144.0222599988
 11
171.3593658592
 21
143.9494219988
  0
LINE
  8
1
  6
CONTINUOUS
 62
     7
 10
171.3746108592
 20
131.6942999988
 11
171.3747778592
 21
131.6979789988
  0
LINE
  8
1
  6
CONTINUOUS
 62
     7
 10
171.3749448592
 20
124.4062109988
 11
171.3736678592
 21
124.4118309988
  0
LINE
  8
1
  6
CONTINUOUS
 62
     7
 10
171.5515508592
 20
127.9551099988
 11
171.4920088592
 21
128.0195499988
  0
LINE
  8
1
  6
CONTINUOUS
 62
     7
 10
172.3091978592
 20
145.0471979988
 11
181.3745388592
 21
145.5004649988
  0
LINE
  8
1
  6
CONTINUOUS
 62
     7
 10
171.3593658592
 20
142.9131689988
 11
171.3593658592
 21
141.2291161193
  0
LINE
  8
1
  6
CONTINUOUS
 62
     7
 10
171.3642208592
 20
135.4948119988
 11
171.3737438592
 21
135.5878569988
  0
LINE
  8
1
  6
CONTINUOUS
 62
     7
 10
171.3737438592
 20
135.5878569988
 11
171.3749748592
 21
135.5932589988
  0
LINE
  8
1
  6
CONTINUOUS
 62
     7
 10
171.3744098592
 20
141.3788639988
 11
171.3755548592
 21
141.3851429988
  0
LINE
  8
1
  6
CONTINUOUS
 62
     7
 10
181.3593658592
 20
114.4997069988
 11
172.3091978592
 21
114.9522149988
  0
LINE
  8
1
  6
CONTINUOUS
 62
     7
 10
171.3630328592
 20
143.9840199988
 11
171.3811048592
 21
144.1530799988
  0
LINE
  8
1
  6
CONTINUOUS
 62
     7
 10
169.8593658592
 20
117.9415000005
 11
169.8593658592
 21
142.0585000005
  0
LINE
  8
1
  6
CONTINUOUS
 62
     7
 10
169.8593658592
 20
142.0585000005
 11
171.0213658592
 21
143.2205000005
  0
LINE
  8
1
  6
CONTINUOUS
 62
     7
 10
171.0213658592
 20
143.2205000005
 11
171.0213658592
 21
116.7795000005
  0
LINE
  8
1
  6
CONTINUOUS
 62
     7
 10
171.3593658592
 20
118.7515849988
 11
171.3593658592
 21
116.0745969988
  0
LINE
  8
1
  6
CONTINUOUS
 62
     7
 10
171.3786918592
 20
115.8573859988
 11
171.3593658592
 21
116.0500099988
  0
LINE
  8
1
  6
CONTINUOUS
 62
     7
 10
171.3593548592
 20
143.9248319988
 11
171.3593548592
 21
142.8894429988
  0
LINE
  8
1
  6
CONTINUOUS
 62
     7
 10
169.8593658592
 20
117.9415000005
 11
171.3593658592
 21
117.9415000005
  0
LINE
  8
1
  6
CONTINUOUS
 62
     7
 10
169.8593658592
 20
141.4999999978
 11
169.0593658592
 21
141.4999999978
  0
LINE
  8
1
  6
CONTINUOUS
 62
     7
 10
169.0593658592
 20
141.4999999978
 11
169.0593658592
 21
118.4999999978
  0
LINE
  8
1
  6
CONTINUOUS
 62
     7
 10
171.3629688592
 20
143.9839359988
 11
171.3809108592
 21
144.1525869988
  0
LINE
  8
1
  6
CONTINUOUS
 62
     7
 10
171.3593658592
 20
143.2205000005
 11
171.0213658592
 21
143.2205000005
  0
LINE
  8
1
  6
CONTINUOUS
 62
     7
 10
171.3593658592
 20
116.7795000005
 11
171.0213658592
 21
116.7795000005
  0
LINE
  8
1
  6
CONTINUOUS
 62
     7
 10
171.3593658592
 20
117.0863039988
 11
171.3744068592
 21
116.9226549988
  0
LINE
  8
1
  6
CONTINUOUS
 62
     7
 10
171.3593658592
 20
142.0585000005
 11
169.8593658592
 21
142.0585000005
  0
LINE
  8
1
  6
CONTINUOUS
 62
     7
 10
171.3736678592
 20
124.4118309988
 11
171.3642078592
 21
124.5036459988
  0
LINE
  8
1
  6
CONTINUOUS
 62
     7
 10
169.0593658592
 20
118.4999999978
 11
169.8593658592
 21
118.4999999978
  0
CIRCLE
  8
1
  6
CONTINUOUS
 62
     7
 10
129.2033068115
 20
129.999997
 40
17.500003
  0
TEXT
  8
1
  6
CONTINUOUS
 62
     7
 10
189.2702413557897
 20
102.0926049090909
 40
3.5
  1
ＦＰＫ－１６Ｆ
 41
0.998774
  0
LINE
  8
1
  6
CONTINUOUS
 62
     7
 10
172.3094278592
 20
139.0761149988
 11
177.8343968592
 21
139.2743179988
  0
LINE
  8
1
  6
CONTINUOUS
 62
     7
 10
171.3593658592
 20
121.5827519988
 11
171.3750078592
 21
121.4671939988
  0
ARC
  8
1
  6
CONTINUOUS
 62
     7
 10
172.2683968592
 20
141.0487969988
 40
0.953716
 50
87.534257
 51
159.385912
  0
ARC
  8
1
  6
CONTINUOUS
 62
     7
 10
177.9970518592
 20
139.6243589988
 40
2.5788
 50
66.085747
 51
93.616265
  0
LINE
  8
1
  6
CONTINUOUS
 62
     7
 10
171.3747168592
 20
131.6980239988
 11
171.3593658592
 21
131.6650459988
  0
ARC
  8
1
  6
CONTINUOUS
 62
     7
 10
178.0761618592
 20
119.8695849988
 40
2.082279
 50
263.3325849999999
 51
320.705362
  0
LINE
  8
1
  6
CONTINUOUS
 62
     7
 10
171.3593658592
 20
124.4670839988
 11
171.3593658592
 21
118.7704539988
  0
LINE
  8
1
  6
CONTINUOUS
 62
     7
 10
177.8343968592
 20
135.9264539988
 11
172.3094278592
 21
135.8554729988
  0
LINE
  8
1
  6
CONTINUOUS
 62
     7
 10
171.3593658592
 20
141.2479189988
 11
171.3757438592
 21
141.3845729988
  0
ARC
  8
1
  6
CONTINUOUS
 62
     7
 10
177.7947198592
 20
118.4621019988
 40
2.263341
 50
50.065251
 51
88.99552700000001
  0
LINE
  8
1
  6
CONTINUOUS
 62
     7
 10
171.3593658592
 20
128.3345169988
 11
171.3748478592
 21
128.3013919988
  0
LINE
  8
1
  6
CONTINUOUS
 62
     7
 10
177.8343968592
 20
120.7250949988
 11
172.3094278592
 21
120.9232989988
  0
ARC
  8
1
  6
CONTINUOUS
 62
     7
 10
177.8456378592
 20
141.3744059988
 40
2.100118
 50
269.693316
 51
337.771358
  0
LINE
  8
1
  6
CONTINUOUS
 62
     7
 10
172.3094278592
 20
131.8591449988
 11
177.8343968592
 21
131.9325969988
  0
ARC
  8
1
  6
CONTINUOUS
 62
     7
 10
177.8055798592
 20
133.9546419988
 40
2.02225
 50
270.816482
 51
49.73301099999997
  0
LINE
  8
1
  6
CONTINUOUS
 62
     7
 10
177.8343968592
 20
128.0668159988
 11
172.3094278592
 21
128.1402679988
  0
ARC
  8
1
  6
CONTINUOUS
 62
     7
 10
178.5490538592
 20
119.1287569988
 40
1.276845
 50
333.0895650000001
 51
56.83302199999996
  0
ARC
  8
1
  6
CONTINUOUS
 62
     7
 10
172.2135188592
 20
129.6237199988
 40
2.237482
 50
87.54327200000002
 51
112.017305
  0
LINE
  8
1
  6
CONTINUOUS
 62
     7
 10
171.4920708592
 20
128.0196189988
 11
171.3593588592
 21
128.3394029988
  0
ARC
  8
1
  6
CONTINUOUS
 62
     7
 10
177.8791328592
 20
126.0459089988
 40
1.973457
 50
268.7010540000001
 51
56.36055399999999
  0
ARC
  8
1
  6
CONTINUOUS
 62
     7
 10
178.6905338592
 20
140.8941129988
 40
1.143169
 50
344.047482
 51
72.07242900000001
  0
LINE
  8
1
  6
CONTINUOUS
 62
     7
 10
172.3094278592
 20
124.1439399988
 11
177.8343968592
 21
124.0729599988
  0
ARC
  8
1
  6
CONTINUOUS
 62
     7
 10
172.2143868592
 20
130.3800209988
 40
2.241768
 50
248.00666
 51
272.429813
  0
LINE
  8
1
  6
CONTINUOUS
 62
     7
 10
171.3757388592
 20
124.4078489988
 11
171.3593658592
 21
124.4670839988
  0
ARC
  8
1
  6
CONTINUOUS
 62
     7
 10
172.1981648592
 20
125.5721249988
 40
1.432512
 50
235.430765
 51
274.454641
  0
LINE
  8
1
  6
CONTINUOUS
 62
     7
 10
171.3853558592
 20
124.3925359988
 11
171.3757388592
 21
124.4078489988
  0
ARC
  8
1
  6
CONTINUOUS
 62
     7
 10
172.1736798592
 20
134.5515269988
 40
1.310993
 50
84.056588
 51
127.49103
  0
LINE
  8
1
  6
CONTINUOUS
 62
     7
 10
171.3593658592
 20
135.5324669988
 11
171.3757608592
 21
135.5917329988
  0
ARC
  8
1
  6
CONTINUOUS
 62
     7
 10
172.2583998592
 20
138.0889839988
 40
0.9884489999999999
 50
87.040851
 51
153.335966
  0
LINE
  8
1
  6
CONTINUOUS
 62
     7
 10
171.3593658592
 20
138.4167819988
 11
171.3593658592
 21
135.5324669988
  0
LINE
  8
1
  6
CONTINUOUS
 62
     7
 10
171.3593658592
 20
135.5244029988
 11
171.3593658592
 21
124.4751759988
  0
LINE
  8
1
  6
CONTINUOUS
 62
     7
 10
171.3593588592
 20
124.4751809988
 11
171.3651188592
 21
124.5035639988
  0
LINE
  8
1
  6
CONTINUOUS
 62
     7
 10
171.3750698592
 20
138.5325589988
 11
171.3593658592
 21
138.4167819988
  0
LINE
  8
1
  6
CONTINUOUS
 62
     7
 10
171.3593598592
 20
118.7704599988
 11
171.3636928592
 21
118.7509089988
  0
LINE
  8
1
  6
CONTINUOUS
 62
     7
 10
172.3094278592
 20
117.9977829988
 11
177.8343968592
 21
117.8013889988
  0
ARC
  8
1
  6
CONTINUOUS
 62
     7
 10
177.8342748592
 20
126.1642439988
 40
1.902573
 50
53.260245
 51
89.99633500000003
  0
ARC
  8
1
  6
CONTINUOUS
 62
     7
 10
177.8986678592
 20
133.9982109988
 40
1.929314
 50
51.006221
 51
91.90904699999999
  0
LINE
  8
1
  6
CONTINUOUS
 62
     7
 10
171.5924988592
 20
127.9246459988
 11
171.4920708592
 21
128.0196189988
  0
ARC
  8
1
  6
CONTINUOUS
 62
     7
 10
172.2585868592
 20
121.9105739988
 40
0.9885829999999999
 50
206.647473
 51
272.9479230000001
  0
LINE
  8
1
  6
CONTINUOUS
 62
     7
 10
171.3593558592
 20
141.2290669988
 11
171.3593558592
 21
138.4002819988
  0
LINE
  8
1
  6
CONTINUOUS
 62
     7
 10
171.3757228592
 20
118.6150149988
 11
171.3593658592
 21
118.7515849988
  0
LINE
  8
1
  6
CONTINUOUS
 62
     7
 10
171.3636698592
 20
141.2485359988
 11
171.3593558592
 21
141.2290709988
  0
ARC
  8
1
  6
CONTINUOUS
 62
     7
 10
172.2684138592
 20
118.9505789988
 40
0.953678
 50
200.601294
 51
272.464826
  0
LINE
  8
1
  6
CONTINUOUS
 62
     7
 10
171.3648028592
 20
135.4948439988
 11
171.3593588592
 21
135.5244049988
  0
LINE
  8
1
  6
CONTINUOUS
 62
     7
 10
177.8343968592
 20
142.1980239988
 11
172.3094278592
 21
142.0016299988
  0
LINE
  8
1
  6
CONTINUOUS
 62
     7
 10
114.8371158115
 20
127.707183
 11
114.8513068115
 21
127.777114
  0
LINE
  8
1
  6
CONTINUOUS
 62
     7
 10
115.6154708115
 20
135.197529
 11
115.6628768115
 21
135.251474
  0
LINE
  8
1
  6
CONTINUOUS
 62
     7
 10
138.3720478115
 20
118.704929
 11
138.3043908115
 21
118.682253
  0
LINE
  8
1
  6
CONTINUOUS
 62
     7
 10
132.1911318115
 20
115.418139
 11
131.5680518115
 21
115.365605
  0
LINE
  8
1
  6
CONTINUOUS
 62
     7
 10
126.9793268115
 20
144.351812
 11
127.5430038115
 21
143.925134
  0
LINE
  8
1
  6
CONTINUOUS
 62
     7
 10
120.8027318115
 20
118.770759
 11
120.1014618115
 21
118.6829
  0
LINE
  8
1
  6
CONTINUOUS
 62
     7
 10
115.6623528115
 20
135.25005
 11
116.3136388115
 21
135.524704
  0
LINE
  8
1
  6
CONTINUOUS
 62
     7
 10
117.8862668115
 20
120.898077
 11
117.9739418115
 21
121.599575
  0
LINE
  8
1
  6
CONTINUOUS
 62
     7
 10
126.9105768115
 20
144.36618
 11
126.9811898115
 21
144.352136
  0
LINE
  8
1
  6
CONTINUOUS
 62
     7
 10
124.0057858115
 20
116.412168
 11
123.9340358115
 21
116.143872
  0
LINE
  8
1
  6
CONTINUOUS
 62
     7
 10
138.3720468115
 20
141.295083
 11
138.3044168115
 21
141.317737
  0
LINE
  8
1
  6
CONTINUOUS
 62
     7
 10
140.4984148115
 20
120.831354
 11
140.5214068115
 21
120.899353
  0
LINE
  8
1
  6
CONTINUOUS
 62
     7
 10
131.4960408115
 20
144.36618
 11
131.4256568115
 21
144.352092
  0
LINE
  8
1
  6
CONTINUOUS
 62
     7
 10
124.4989078115
 20
115.87819
 11
123.9340358115
 21
116.143871
  0
LINE
  8
1
  6
CONTINUOUS
 62
     7
 10
142.7911468115
 20
124.802483
 11
143.0594428115
 21
124.730733
  0
LINE
  8
1
  6
CONTINUOUS
 62
     7
 10
134.4725818115
 20
116.143871
 11
134.4008318115
 21
116.412168
  0
LINE
  8
1
  6
CONTINUOUS
 62
     7
 10
143.8377098115
 20
127.635263
 11
143.5694828115
 21
127.707274
  0
LINE
  8
1
  6
CONTINUOUS
 62
     7
 10
119.8381808115
 20
141.491397
 11
119.3256578115
 21
141.135044
  0
LINE
  8
1
  6
CONTINUOUS
 62
     7
 10
131.4960408115
 20
115.633831
 11
131.5680518115
 21
115.365605
  0
LINE
  8
1
  6
CONTINUOUS
 62
     7
 10
120.0346568115
 20
141.295112
 11
119.8381808115
 21
141.491397
  0
LINE
  8
1
  6
CONTINUOUS
 62
     7
 10
114.8371158115
 20
132.292828
 11
114.8513118115
 21
132.222931
  0
LINE
  8
1
  6
CONTINUOUS
 62
     7
 10
115.6154708115
 20
124.802483
 11
115.6628638115
 21
124.748572
  0
LINE
  8
1
  6
CONTINUOUS
 62
     7
 10
143.5694828115
 20
132.292738
 11
143.8377098115
 21
132.364749
  0
LINE
  8
1
  6
CONTINUOUS
 62
     7
 10
126.8385658115
 20
115.365605
 11
126.9105768115
 21
115.633831
  0
LINE
  8
1
  6
CONTINUOUS
 62
     7
 10
118.0684168115
 20
120.122211
 11
117.7119178115
 21
120.634878
  0
LINE
  8
1
  6
CONTINUOUS
 62
     7
 10
142.7911468115
 20
135.197529
 11
142.7436888115
 21
135.25163
  0
LINE
  8
1
  6
CONTINUOUS
 62
     7
 10
134.4007628115
 20
116.412107
 11
134.4541968115
 21
116.459349
  0
LINE
  8
1
  6
CONTINUOUS
 62
     7
 10
142.7911468115
 20
124.802483
 11
142.7436778115
 21
124.748352
  0
LINE
  8
1
  6
CONTINUOUS
 62
     7
 10
117.8850588115
 20
120.899529
 11
117.9118768115
 21
120.832609
  0
LINE
  8
1
  6
CONTINUOUS
 62
     7
 10
134.4725818115
 20
116.143871
 11
133.9008798115
 21
115.875642
  0
LINE
  8
1
  6
CONTINUOUS
 62
     7
 10
119.8381808115
 20
118.508614
 11
119.3252428115
 21
118.86531
  0
LINE
  8
1
  6
CONTINUOUS
 62
     7
 10
118.0686858115
 20
139.878149
 11
117.7119178115
 21
139.365134
  0
LINE
  8
1
  6
CONTINUOUS
 62
     7
 10
143.7853598115
 20
132.986783
 11
143.8377098115
 21
132.364749
  0
LINE
  8
1
  6
CONTINUOUS
 62
     7
 10
114.6212958115
 20
127.013089
 11
114.5689078115
 21
127.635263
  0
LINE
  8
1
  6
CONTINUOUS
 62
     7
 10
140.4984148115
 20
139.168657
 11
140.5214298115
 21
139.100629
  0
LINE
  8
1
  6
CONTINUOUS
 62
     7
 10
119.8381808115
 20
118.508614
 11
120.0346568115
 21
118.7049
  0
LINE
  8
1
  6
CONTINUOUS
 62
     7
 10
143.0594428115
 20
135.269279
 11
143.3253438115
 21
134.703801
  0
LINE
  8
1
  6
CONTINUOUS
 62
     7
 10
143.0594428115
 20
135.269279
 11
142.7911468115
 21
135.197529
  0
LINE
  8
1
  6
CONTINUOUS
 62
     7
 10
120.1014868115
 20
141.317128
 11
120.8028788115
 21
141.22937
  0
LINE
  8
1
  6
CONTINUOUS
 62
     7
 10
117.8850788115
 20
139.100507
 11
117.9118768115
 21
139.167401
  0
LINE
  8
1
  6
CONTINUOUS
 62
     7
 10
131.4960408115
 20
115.633831
 11
131.4256198115
 21
115.647914
  0
LINE
  8
1
  6
CONTINUOUS
 62
     7
 10
126.8385658115
 20
115.365605
 11
126.2158978115
 21
115.418067
  0
LINE
  8
1
  6
CONTINUOUS
 62
     7
 10
117.9740638115
 20
138.40058
 11
117.8862868115
 21
139.101954
  0
LINE
  8
1
  6
CONTINUOUS
 62
     7
 10
124.0060178115
 20
116.411964
 11
123.9515658115
 21
116.459673
  0
LINE
  8
1
  6
CONTINUOUS
 62
     7
 10
134.4007628115
 20
143.587905
 11
134.4542288115
 21
143.54065
  0
LINE
  8
1
  6
CONTINUOUS
 62
     7
 10
143.3251758115
 20
125.295804
 11
143.0594428115
 21
124.730733
  0
LINE
  8
1
  6
CONTINUOUS
 62
     7
 10
143.8377098115
 20
127.635263
 11
143.7852718115
 21
127.012697
  0
LINE
  8
1
  6
CONTINUOUS
 62
     7
 10
120.1029088115
 20
141.318315
 11
120.0354978115
 21
141.291679
  0
LINE
  8
1
  6
CONTINUOUS
 62
     7
 10
117.9082028115
 20
120.831354
 11
117.7119178115
 21
120.634878
  0
LINE
  8
1
  6
CONTINUOUS
 62
     7
 10
126.9105768115
 20
144.36618
 11
126.8385658115
 21
144.634407
  0
LINE
  8
1
  6
CONTINUOUS
 62
     7
 10
123.9340358115
 20
143.85614
 11
124.5061218115
 21
144.124512
  0
LINE
  8
1
  6
CONTINUOUS
 62
     7
 10
115.2782078115
 20
131.660492
 11
114.8515518115
 21
132.224324
  0
LINE
  8
1
  6
CONTINUOUS
 62
     7
 10
126.9105768115
 20
115.633831
 11
126.9811588115
 21
115.64788
  0
LINE
  8
1
  6
CONTINUOUS
 62
     7
 10
120.0343658115
 20
118.704999
 11
120.1028838115
 21
118.681717
  0
LINE
  8
1
  6
CONTINUOUS
 62
     7
 10
143.5695428115
 20
132.293041
 11
143.5554518115
 21
132.222029
  0
LINE
  8
1
  6
CONTINUOUS
 62
     7
 10
126.2155178115
 20
144.581872
 11
126.8385658115
 21
144.634407
  0
LINE
  8
1
  6
CONTINUOUS
 62
     7
 10
117.7119178115
 20
139.365134
 11
117.9082028115
 21
139.168657
  0
LINE
  8
1
  6
CONTINUOUS
 62
     7
 10
124.0060168115
 20
143.588047
 11
123.9515958115
 21
143.54035
  0
LINE
  8
1
  6
CONTINUOUS
 62
     7
 10
143.5695428115
 20
127.706972
 11
143.5554468115
 21
127.777951
  0
LINE
  8
1
  6
CONTINUOUS
 62
     7
 10
123.9340358115
 20
143.85614
 11
124.0057858115
 21
143.587844
  0
LINE
  8
1
  6
CONTINUOUS
 62
     7
 10
115.0720598115
 20
124.073242
 11
115.0331788115
 21
124.266359
  0
ARC
  8
1
  6
CONTINUOUS
 62
     7
 10
120.2311738115
 20
141.800315
 40
0.499903
 50
127.233973
 51
218.169679
  0
LINE
  8
1
  6
CONTINUOUS
 62
     7
 10
123.2765448115
 20
144.131254
 11
123.4696618115
 21
144.170135
  0
LINE
  8
1
  6
CONTINUOUS
 62
     7
 10
143.3734128115
 20
124.266413
 11
143.3345168115
 21
124.073259
  0
LINE
  8
1
  6
CONTINUOUS
 62
     7
 10
133.9075698115
 20
144.121858
 11
134.4725818115
 21
143.85614
  0
ARC
  8
1
  6
CONTINUOUS
 62
     7
 10
120.2311788115
 20
118.199637
 40
0.499903
 50
141.825396
 51
232.761455
  0
LINE
  8
1
  6
CONTINUOUS
 62
     7
 10
138.5684368115
 20
141.491397
 11
138.3719608115
 21
141.295112
  0
ARC
  8
1
  6
CONTINUOUS
 62
     7
 10
127.0311078115
 20
141.145788
 40
4.062631
 50
86.62301800000002
 51
103.769489
  0
ARC
  8
1
  6
CONTINUOUS
 62
     7
 10
117.4032728115
 20
121.028363
 40
0.500418
 50
217.259906
 51
269.915797
  0
ARC
  8
1
  6
CONTINUOUS
 62
     7
 10
127.3333668115
 20
144.705441
 40
0.499903
 50
97.234
 51
188.169725
  0
ARC
  8
1
  6
CONTINUOUS
 62
     7
 10
114.4978258115
 20
131.869914
 40
0.499903
 50
81.82545200000001
 51
172.761493
  0
ARC
  8
1
  6
CONTINUOUS
 62
     7
 10
118.4595808115
 20
133.694246
 40
4.056983
 50
146.613262
 51
163.765084
  0
ARC
  8
1
  6
CONTINUOUS
 62
     7
 10
138.1749518115
 20
118.199969
 40
0.500418
 50
307.259907
 51
359.915797
  0
LINE
  8
1
  6
CONTINUOUS
 62
     7
 10
140.4984148115
 20
139.168657
 11
140.6946998115
 21
139.365134
  0
ARC
  8
1
  6
CONTINUOUS
 62
     7
 10
125.5076498115
 20
119.25343
 40
4.053824
 50
236.60786
 51
253.762773
  0
LINE
  8
1
  6
CONTINUOUS
 62
     7
 10
138.3719608115
 20
118.7049
 11
138.5684368115
 21
118.508614
  0
ARC
  8
1
  6
CONTINUOUS
 62
     7
 10
131.3758568115
 20
118.848741
 40
4.057178
 50
266.613572
 51
283.765005
  0
ARC
  8
1
  6
CONTINUOUS
 62
     7
 10
136.6591458115
 20
121.430893
 40
4.059442
 50
296.617724
 51
313.766488
  0
ARC
  8
1
  6
CONTINUOUS
 62
     7
 10
136.0069088115
 20
128.196034
 40
8.398748
 50
338.901584
 51
359.120491
  0
LINE
  8
1
  6
CONTINUOUS
 62
     7
 10
139.0810608115
 20
118.86507
 11
138.5684368115
 21
118.508614
  0
ARC
  8
1
  6
CONTINUOUS
 62
     7
 10
122.4044848115
 20
131.803238
 40
8.403535
 50
158.900011
 51
179.115946
  0
ARC
  8
1
  6
CONTINUOUS
 62
     7
 10
143.9087928115
 20
128.130098
 40
0.499903
 50
261.825372
 51
352.761454
  0
LINE
  8
1
  6
CONTINUOUS
 62
     7
 10
131.5680518115
 20
144.634407
 11
132.1905488115
 21
144.581979
  0
ARC
  8
1
  6
CONTINUOUS
 62
     7
 10
134.1912008115
 20
125.037706
 40
8.401563
 50
308.900651
 51
329.117786
  0
ARC
  8
1
  6
CONTINUOUS
 62
     7
 10
140.3579368115
 20
132.172759
 40
4.053833
 50
356.607865
 51
13.76281599999998
  0
LINE
  8
1
  6
CONTINUOUS
 62
     7
 10
114.5689078115
 20
132.364749
 11
114.8371348115
 21
132.292738
  0
ARC
  8
1
  6
CONTINUOUS
 62
     7
 10
135.9902238115
 20
131.836756
 40
8.40635
 50
8.899125
 51
29.11319800000001
  0
LINE
  8
1
  6
CONTINUOUS
 62
     7
 10
114.8371348115
 20
127.707274
 11
114.5689078115
 21
127.635263
  0
ARC
  8
1
  6
CONTINUOUS
 62
     7
 10
131.0068408115
 20
136.800797
 40
8.401563
 50
68.900652
 51
89.11778599999998
  0
LINE
  8
1
  6
CONTINUOUS
 62
     7
 10
140.6946998115
 20
120.634878
 11
140.4984148115
 21
120.831354
  0
ARC
  8
1
  6
CONTINUOUS
 62
     7
 10
137.7744788115
 20
137.457227
 40
4.056983
 50
26.613262
 51
43.765084
  0
ARC
  8
1
  6
CONTINUOUS
 62
     7
 10
121.7443368115
 20
138.573819
 40
4.053835
 50
116.607867
 51
133.762808
  0
CIRCLE
  8
1
  6
CONTINUOUS
 62
     7
 10
129.2033088115
 20
130.000006
 40
15.5
  0
LINE
  8
1
  6
CONTINUOUS
 62
     7
 10
115.3471748115
 20
124.730733
 11
115.0813298115
 21
125.296046
  0
LINE
  8
1
  6
CONTINUOUS
 62
     7
 10
140.3383018115
 20
139.877702
 11
140.6946998115
 21
139.365134
  0
LINE
  8
1
  6
CONTINUOUS
 62
     7
 10
114.5689078115
 20
132.364749
 11
114.6213618115
 21
132.987359
  0
LINE
  8
1
  6
CONTINUOUS
 62
     7
 10
115.0814768115
 20
134.704344
 11
115.3471748115
 21
135.269279
  0
ARC
  8
1
  6
CONTINUOUS
 62
     7
 10
139.9421328115
 20
126.308189
 40
4.06241
 50
326.622779
 51
343.769381
  0
ARC
  8
1
  6
CONTINUOUS
 62
     7
 10
122.4119108115
 20
128.161524
 40
8.40159
 50
188.900684
 51
209.117754
  0
ARC
  8
1
  6
CONTINUOUS
 62
     7
 10
138.1754388115
 20
141.800374
 40
0.499903
 50
321.825396
 51
52.76145500000001
  0
ARC
  8
1
  6
CONTINUOUS
 62
     7
 10
141.0036768115
 20
121.027876
 40
0.499903
 50
231.82543
 51
322.761506
  0
LINE
  8
1
  6
CONTINUOUS
 62
     7
 10
138.5684368115
 20
141.491397
 11
139.0814068115
 21
141.134666
  0
LINE
  8
1
  6
CONTINUOUS
 62
     7
 10
134.4008318115
 20
143.587844
 11
134.4725818115
 21
143.85614
  0
ARC
  8
1
  6
CONTINUOUS
 62
     7
 10
132.8964508115
 20
140.741487
 40
4.059463
 50
56.61776799999999
 51
73.766445
  0
ARC
  8
1
  6
CONTINUOUS
 62
     7
 10
118.0543418115
 20
127.82762
 40
4.059463
 50
176.617768
 51
193.766445
  0
ARC
  8
1
  6
CONTINUOUS
 62
     7
 10
127.4005238115
 20
123.203994
 40
8.406354
 50
248.8990959999999
 51
269.113196
  0
ARC
  8
1
  6
CONTINUOUS
 62
     7
 10
134.1643658115
 20
134.986344
 40
8.403535
 50
38.900011
 51
59.115946
  0
ARC
  8
1
  6
CONTINUOUS
 62
     7
 10
142.8735858115
 20
135.73336
 40
0.499903
 50
291.825347
 51
22.76147600000002
  0
ARC
  8
1
  6
CONTINUOUS
 62
     7
 10
134.9366628115
 20
116.329729
 40
0.499903
 50
201.82541
 51
292.761471
  0
LINE
  8
1
  6
CONTINUOUS
 62
     7
 10
115.3471748115
 20
124.730733
 11
115.6154708115
 21
124.802483
  0
ARC
  8
1
  6
CONTINUOUS
 62
     7
 10
117.4029398115
 20
138.972135
 40
0.499903
 50
51.825396
 51
142.761454
  0
ARC
  8
1
  6
CONTINUOUS
 62
     7
 10
124.2191808115
 20
134.95927
 40
8.406351
 50
128.899128
 51
149.113197
  0
ARC
  8
1
  6
CONTINUOUS
 62
     7
 10
127.3638218115
 20
136.794004
 40
8.398829
 50
98.90207000000001
 51
119.120392
  0
LINE
  8
1
  6
CONTINUOUS
 62
     7
 10
140.6946998115
 20
120.634878
 11
140.3380478115
 21
120.121993
  0
ARC
  8
1
  6
CONTINUOUS
 62
     7
 10
124.2392238115
 20
125.009902
 40
8.398748
 50
218.901584
 51
239.120491
  0
LINE
  8
1
  6
CONTINUOUS
 62
     7
 10
131.5680518115
 20
144.634407
 11
131.4960408115
 21
144.36618
  0
ARC
  8
1
  6
CONTINUOUS
 62
     7
 10
131.0732168115
 20
144.70549
 40
0.499903
 50
351.825371
 51
82.761454
  0
ARC
  8
1
  6
CONTINUOUS
 62
     7
 10
120.6366898115
 20
122.545819
 40
4.06241
 50
206.622778
 51
223.769381
  0
LINE
  8
1
  6
CONTINUOUS
 62
     7
 10
115.6154708115
 20
135.197529
 11
115.3471748115
 21
135.269279
  0
ARC
  8
1
  6
CONTINUOUS
 62
     7
 10
127.3334008115
 20
115.294523
 40
0.499903
 50
171.825451
 51
262.761492
  0
ARC
  8
1
  6
CONTINUOUS
 62
     7
 10
131.0411418115
 20
123.210249
 40
8.40334
 50
278.899978
 51
299.116175
  0
ARC
  8
1
  6
CONTINUOUS
 62
     7
 10
178.4242408592
 20
119.5838619988
 40
4.821728
 50
262.9733780000001
 51
285.5728539999999
  0
ARC
  8
1
  6
CONTINUOUS
 62
     7
 10
131.0732508115
 20
115.294571
 40
0.499903
 50
277.233968
 51
8.16965700000003
  0
ARC
  8
1
  6
CONTINUOUS
 62
     7
 10
122.9731588115
 20
123.769835
 40
6.111938
 50
216.636926
 51
233.357746
  0
ARC
  8
1
  6
CONTINUOUS
 62
     7
 10
137.6792168115
 20
132.271138
 40
6.147426
 50
6.68553
 51
23.308823
  0
LINE
  8
1
  6
CONTINUOUS
 62
     7
 10
177.8343968592
 20
115.8684989988
 11
172.3094278592
 21
116.1383449988
  0
LINE
  8
1
  6
CONTINUOUS
 62
     7
 10
172.3094278592
 20
115.0675319988
 11
177.8343968592
 21
114.7983479988
  0
ARC
  8
1
  6
CONTINUOUS
 62
     7
 10
134.9366088115
 20
143.670257
 40
0.499903
 50
67.233977
 51
158.169659
  0
ARC
  8
1
  6
CONTINUOUS
 62
     7
 10
141.0036178115
 20
138.972141
 40
0.499903
 50
37.233973
 51
128.169678
  0
ARC
  8
1
  6
CONTINUOUS
 62
     7
 10
123.4702388115
 20
116.329492
 40
0.499591
 50
269.939947
 51
338.187777
  0
ARC
  8
1
  6
CONTINUOUS
 62
     7
 10
115.5327698115
 20
124.266883
 40
0.499591
 50
111.807374
 51
180.060132
  0
ARC
  8
1
  6
CONTINUOUS
 62
     7
 10
177.8525858592
 20
147.4743209988
 40
3.343456
 50
269.68829
 51
304.491891
  0
ARC
  8
1
  6
CONTINUOUS
 62
     7
 10
122.9984988115
 20
136.20479
 40
6.147428
 50
126.685532
 51
143.308821
  0
ARC
  8
1
  6
CONTINUOUS
 62
     7
 10
131.5307238115
 20
121.313572
 40
5.931921
 50
276.460249
 51
293.549545
  0
LINE
  8
1
  6
CONTINUOUS
 62
     7
 10
172.3094278592
 20
143.8610689988
 11
177.8343968592
 21
144.1309139988
  0
ARC
  8
1
  6
CONTINUOUS
 62
     7
 10
142.8738218115
 20
124.266936
 40
0.499591
 50
359.939947
 51
68.187701
  0
ARC
  8
1
  6
CONTINUOUS
 62
     7
 10
126.9322118115
 20
121.524086
 40
6.147423
 50
246.685528
 51
263.308824
  0
ARC
  8
1
  6
CONTINUOUS
 62
     7
 10
131.4742838115
 20
138.475453
 40
6.147906
 50
66.686254
 51
83.309289
  0
LINE
  8
1
  6
CONTINUOUS
 62
     7
 10
123.4697158115
 20
115.829901
 11
123.2765618115
 21
115.868797
  0
ARC
  8
1
  6
CONTINUOUS
 62
     7
 10
120.7276528115
 20
132.271035
 40
6.147692
 50
156.685947
 51
173.3090829999999
  0
ARC
  8
1
  6
CONTINUOUS
 62
     7
 10
143.9087438115
 20
131.869948
 40
0.499903
 50
7.233968000000002
 51
98.169657
  0
ARC
  8
1
  6
CONTINUOUS
 62
     7
 10
115.5330578115
 20
135.733306
 40
0.499903
 50
157.233977
 51
248.169658
  0
LINE
  8
1
  6
CONTINUOUS
 62
     7
 10
117.7119358115
 20
120.634855
 11
117.4025368115
 21
120.527945
  0
ARC
  8
1
  6
CONTINUOUS
 62
     7
 10
114.4978738115
 20
128.130064
 40
0.499903
 50
187.233967
 51
278.169656
  0
ARC
  8
1
  6
CONTINUOUS
 62
     7
 10
120.7278728115
 20
127.729005
 40
6.14791
 50
186.686257
 51
203.309287
  0
ARC
  8
1
  6
CONTINUOUS
 62
     7
 10
123.4701858115
 20
143.670545
 40
0.499591
 50
21.807374
 51
90.06013200000002
  0
ARC
  8
1
  6
CONTINUOUS
 62
     7
 10
137.7138658115
 20
127.719625
 40
6.111943
 50
336.636929
 51
353.357743
  0
ARC
  8
1
  6
CONTINUOUS
 62
     7
 10
135.4077698115
 20
123.795566
 40
6.147912
 50
306.686259
 51
323.309285
  0
LINE
  8
1
  6
CONTINUOUS
 62
     7
 10
138.5684588115
 20
118.508632
 11
138.6753688115
 21
118.199234
  0
ARC
  8
1
  6
CONTINUOUS
 62
     7
 10
135.4079048115
 20
136.204624
 40
6.147694
 50
36.685948
 51
53.309082
  0
ARC
  8
1
  6
CONTINUOUS
 62
     7
 10
179.6222278592
 20
115.1302819988
 40
0.214107
 50
296.7807
 51
72.195604
  0
ARC
  8
1
  6
CONTINUOUS
 62
     7
 10
177.8214388592
 20
112.3425469988
 40
3.525976
 50
58.042653
 51
89.78942999999998
  0
LINE
  8
1
  6
CONTINUOUS
 62
     7
 10
177.8343968592
 20
145.2010649988
 11
172.3094278592
 21
144.9318809988
  0
ARC
  8
1
  6
CONTINUOUS
 62
     7
 10
178.4151638592
 20
139.3851879988
 40
5.844802
 50
78.157051
 51
95.702586
  0
ARC
  8
1
  6
CONTINUOUS
 62
     7
 10
126.8758818115
 20
138.686468
 40
5.931891
 50
96.46012000000003
 51
113.545657
  0
ARC
  8
1
  6
CONTINUOUS
 62
     7
 10
179.6197818592
 20
144.8915649988
 40
0.214073
 50
306.112389
 51
91.36277200000002
  0
LINE
  8
1
  6
CONTINUOUS
 62
     7
 10
181.3593658592
 20
147.5
 11
204.3593658592001
 21
147.5
  0
LINE
  8
1
  6
CONTINUOUS
 62
     7
 10
181.3593658592
 20
112.5
 11
204.3593658592001
 21
112.5
  0
ENDSEC
  0
EOF
