  0
SECTION
  2
HEADER
  9
$ACADVER
  1
AC1014
  9
$ACADMAINTVER
 70
     9
  9
$DWGCODEPAGE
  3
ANSI_932
  9
$INSBASE
 10
0.0
 20
0.0
 30
0.0
  9
$EXTMIN
 10
162.0
 20
177.2941142727273
 30
0.0
  9
$EXTMAX
 10
302.0470906136364
 20
235.5
 30
0.0
  9
$LIMMIN
 10
0.0
 20
0.0
  9
$LIMMAX
 10
12.0
 20
9.0
  9
$ORTHOMODE
 70
     0
  9
$REGENMODE
 70
     1
  9
$FILLMODE
 70
     1
  9
$QTEXTMODE
 70
     0
  9
$MIRRTEXT
 70
     1
  9
$DRAGMODE
 70
     2
  9
$LTSCALE
 40
1.0
  9
$OSMODE
 70
    37
  9
$ATTMODE
 70
     1
  9
$TEXTSIZE
 40
0.2
  9
$TRACEWID
 40
0.05
  9
$TEXTSTYLE
  7
STANDARD
  9
$CLAYER
  8
0
  9
$CELTYPE
  6
BYLAYER
  9
$CECOLOR
 62
   256
  9
$CELTSCALE
 40
1.0
  9
$DELOBJ
 70
     1
  9
$DISPSILH
 70
     0
  9
$DIMSCALE
 40
1.0
  9
$DIMASZ
 40
0.9
  9
$DIMEXO
 40
0.0625
  9
$DIMDLI
 40
0.38
  9
$DIMRND
 40
0.0
  9
$DIMDLE
 40
0.0
  9
$DIMEXE
 40
0.45
  9
$DIMTP
 40
0.0
  9
$DIMTM
 40
0.0
  9
$DIMTXT
 40
3.0
  9
$DIMCEN
 40
0.09
  9
$DIMTSZ
 40
0.0
  9
$DIMTOL
 70
     0
  9
$DIMLIM
 70
     0
  9
$DIMTIH
 70
     1
  9
$DIMTOH
 70
     1
  9
$DIMSE1
 70
     0
  9
$DIMSE2
 70
     0
  9
$DIMTAD
 70
     1
  9
$DIMZIN
 70
     0
  9
$DIMBLK
  1

  9
$DIMASO
 70
     1
  9
$DIMSHO
 70
     1
  9
$DIMPOST
  1

  9
$DIMAPOST
  1

  9
$DIMALT
 70
     0
  9
$DIMALTD
 70
     2
  9
$DIMALTF
 40
25.4
  9
$DIMLFAC
 40
1.0
  9
$DIMTOFL
 70
     0
  9
$DIMTVP
 40
0.0
  9
$DIMTIX
 70
     0
  9
$DIMSOXD
 70
     0
  9
$DIMSAH
 70
     0
  9
$DIMBLK1
  1

  9
$DIMBLK2
  1

  9
$DIMSTYLE
  2
STANDARD
  9
$DIMCLRD
 70
     0
  9
$DIMCLRE
 70
     0
  9
$DIMCLRT
 70
     0
  9
$DIMTFAC
 40
1.0
  9
$DIMGAP
 40
1.5
  9
$DIMJUST
 70
     0
  9
$DIMSD1
 70
     0
  9
$DIMSD2
 70
     0
  9
$DIMTOLJ
 70
     1
  9
$DIMTZIN
 70
     0
  9
$DIMALTZ
 70
     0
  9
$DIMALTTZ
 70
     0
  9
$DIMFIT
 70
     3
  9
$DIMUPT
 70
     0
  9
$DIMUNIT
 70
     2
  9
$DIMDEC
 70
     2
  9
$DIMTDEC
 70
     4
  9
$DIMALTU
 70
     2
  9
$DIMALTTD
 70
     2
  9
$DIMTXSTY
  7
ＭＳ_ゴシック
  9
$DIMAUNIT
 70
     0
  9
$LUNITS
 70
     2
  9
$LUPREC
 70
     4
  9
$SKETCHINC
 40
0.1
  9
$FILLETRAD
 40
0.5
  9
$AUNITS
 70
     0
  9
$AUPREC
 70
     0
  9
$MENU
  1
.
  9
$ELEVATION
 40
0.0
  9
$PELEVATION
 40
0.0
  9
$THICKNESS
 40
0.0
  9
$LIMCHECK
 70
     0
  9
$CHAMFERA
 40
0.0
  9
$CHAMFERB
 40
0.0
  9
$CHAMFERC
 40
0.0
  9
$CHAMFERD
 40
0.0
  9
$SKPOLY
 70
     0
  9
$TDCREATE
 40
2459187.572692859
  9
$TDUPDATE
 40
2459187.572693229
  9
$TDINDWG
 40
0.0000000116
  9
$TDUSRTIMER
 40
0.0000000116
  9
$USRTIMER
 70
     1
  9
$ANGBASE
 50
0.0
  9
$ANGDIR
 70
     0
  9
$PDMODE
 70
     0
  9
$PDSIZE
 40
0.0
  9
$PLINEWID
 40
0.0
  9
$COORDS
 70
     1
  9
$SPLFRAME
 70
     0
  9
$SPLINETYPE
 70
     6
  9
$SPLINESEGS
 70
     8
  9
$ATTDIA
 70
     0
  9
$ATTREQ
 70
     1
  9
$HANDLING
 70
     1
  9
$HANDSEED
  5
295
  9
$SURFTAB1
 70
     6
  9
$SURFTAB2
 70
     6
  9
$SURFTYPE
 70
     6
  9
$SURFU
 70
     6
  9
$SURFV
 70
     6
  9
$UCSNAME
  2

  9
$UCSORG
 10
0.0
 20
0.0
 30
0.0
  9
$UCSXDIR
 10
1.0
 20
0.0
 30
0.0
  9
$UCSYDIR
 10
0.0
 20
1.0
 30
0.0
  9
$PUCSNAME
  2

  9
$PUCSORG
 10
0.0
 20
0.0
 30
0.0
  9
$PUCSXDIR
 10
1.0
 20
0.0
 30
0.0
  9
$PUCSYDIR
 10
0.0
 20
1.0
 30
0.0
  9
$USERI1
 70
     0
  9
$USERI2
 70
     0
  9
$USERI3
 70
     0
  9
$USERI4
 70
     0
  9
$USERI5
 70
     0
  9
$USERR1
 40
0.0
  9
$USERR2
 40
0.0
  9
$USERR3
 40
0.0
  9
$USERR4
 40
0.0
  9
$USERR5
 40
0.0
  9
$WORLDVIEW
 70
     1
  9
$SHADEDGE
 70
     3
  9
$SHADEDIF
 70
    70
  9
$TILEMODE
 70
     1
  9
$MAXACTVP
 70
    64
  9
$PINSBASE
 10
0.0
 20
0.0
 30
0.0
  9
$PLIMCHECK
 70
     0
  9
$PEXTMIN
 10
1.000000000000000E+20
 20
1.000000000000000E+20
 30
1.000000000000000E+20
  9
$PEXTMAX
 10
-1.000000000000000E+20
 20
-1.000000000000000E+20
 30
-1.000000000000000E+20
  9
$PLIMMIN
 10
0.0
 20
0.0
  9
$PLIMMAX
 10
12.0
 20
9.0
  9
$UNITMODE
 70
     0
  9
$VISRETAIN
 70
     1
  9
$PLINEGEN
 70
     0
  9
$PSLTSCALE
 70
     1
  9
$TREEDEPTH
 70
  3020
  9
$PICKSTYLE
 70
     1
  9
$CMLSTYLE
  2
STANDARD
  9
$CMLJUST
 70
     0
  9
$CMLSCALE
 40
1.0
  9
$PROXYGRAPHICS
 70
     1
  9
$MEASUREMENT
 70
     1
  0
ENDSEC
  0
SECTION
  2
CLASSES
  0
CLASS
  1
ACDBDICTIONARYWDFLT
  2
AcDbDictionaryWithDefault
  3
ObjectDBX Classes
 90
        0
280
     0
281
     0
  0
CLASS
  1
VISUALSTYLE
  2
AcDbVisualStyle
  3
ObjectDBX Classes
 90
     4095
280
     0
281
     0
  0
CLASS
  1
MATERIAL
  2
AcDbMaterial
  3
ObjectDBX Classes
 90
     1153
280
     0
281
     0
  0
CLASS
  1
SCALE
  2
AcDbScale
  3
ObjectDBX Classes
 90
     1153
280
     0
281
     0
  0
CLASS
  1
TABLESTYLE
  2
AcDbTableStyle
  3
ObjectDBX Classes
 90
     4095
280
     0
281
     0
  0
CLASS
  1
MLEADERSTYLE
  2
AcDbMLeaderStyle
  3
ACDB_MLEADERSTYLE_CLASS
 90
     4095
280
     0
281
     0
  0
CLASS
  1
SUN
  2
AcDbSun
  3
SCENEOE
 90
     1153
280
     0
281
     0
  0
CLASS
  1
DICTIONARYVAR
  2
AcDbDictionaryVar
  3
ObjectDBX Classes
 90
        0
280
     0
281
     0
  0
CLASS
  1
XRECORD
  2
AcDbXrecord
  3
ObjectDBX Classes
 90
        0
280
     0
281
     0
  0
CLASS
  1
LWPOLYLINE
  2
AcDbPolyline
  3
ObjectDBX Classes
 90
        0
280
     0
281
     1
  0
CLASS
  1
HATCH
  2
AcDbHatch
  3
ObjectDBX Classes
 90
        0
280
     0
281
     1
  0
CLASS
  1
ACDBPLACEHOLDER
  2
AcDbPlaceHolder
  3
ObjectDBX Classes
 90
        0
280
     0
281
     0
  0
CLASS
  1
LAYOUT
  2
AcDbLayout
  3
ObjectDBX Classes
 90
        0
280
     0
281
     0
  0
ENDSEC
  0
SECTION
  2
TABLES
  0
TABLE
  2
VPORT
  5
8
102
{ACAD_XDICTIONARY
360
28A
102
}
330
0
100
AcDbSymbolTable
 70
     1
  0
VPORT
  5
29
330
8
100
AcDbSymbolTableRecord
100
AcDbViewportTableRecord
  2
*ACTIVE
 70
     0
 10
0.0
 20
0.0
 11
1.0
 21
1.0
 12
232.0235453068182
 22
206.3970571363636
 13
0.0
 23
0.0
 14
0.5
 24
0.5
 15
0.5
 25
0.5
 16
0.0
 26
0.0
 36
1.0
 17
0.0
 27
0.0
 37
0.0
 40
58.20588572727272
 41
1.6
 42
50.0
 43
0.0
 44
0.0
 50
0.0
 51
0.0
 71
     0
 72
   100
 73
     1
 74
     3
 75
     0
 76
     0
 77
     0
 78
     0
  0
ENDTAB
  0
TABLE
  2
LTYPE
  5
5
330
0
100
AcDbSymbolTable
 70
     2
  0
LTYPE
  5
14
330
5
100
AcDbSymbolTableRecord
100
AcDbLinetypeTableRecord
  2
BYBLOCK
 70
     0
  3

 72
    65
 73
     0
 40
0.0
  0
LTYPE
  5
15
330
5
100
AcDbSymbolTableRecord
100
AcDbLinetypeTableRecord
  2
BYLAYER
 70
     0
  3

 72
    65
 73
     0
 40
0.0
  0
LTYPE
  5
16
330
5
100
AcDbSymbolTableRecord
100
AcDbLinetypeTableRecord
  2
CONTINUOUS
 70
     0
  3
Solid line
 72
    65
 73
     0
 40
0.0
  0
LTYPE
  5
130
330
5
100
AcDbSymbolTableRecord
100
AcDbLinetypeTableRecord
  2
CENTER
 70
     0
  3

 72
    65
 73
     0
 40
0.0
  0
ENDTAB
  0
TABLE
  2
LAYER
  5
2
330
0
100
AcDbSymbolTable
 70
     3
  0
LAYER
  5
10
330
2
100
AcDbSymbolTableRecord
100
AcDbLayerTableRecord
  2
0
 70
     0
 62
     7
  6
CONTINUOUS
  0
LAYER
  5
6E
330
2
100
AcDbSymbolTableRecord
100
AcDbLayerTableRecord
  2
1
 70
     0
 62
     7
  6
CONTINUOUS
  0
LAYER
  5
6F
330
2
100
AcDbSymbolTableRecord
100
AcDbLayerTableRecord
  2
2
 70
     0
 62
     7
  6
CONTINUOUS
  0
ENDTAB
  0
TABLE
  2
STYLE
  5
3
330
0
100
AcDbSymbolTable
 70
     2
  0
STYLE
  5
11
330
3
100
AcDbSymbolTableRecord
100
AcDbTextStyleTableRecord
  2
STANDARD
 70
     0
 40
0.0
 41
1.0
 50
0.0
 71
     0
 42
0.2
  3
txt
  4

  0
STYLE
  5
70
330
3
100
AcDbSymbolTableRecord
100
AcDbTextStyleTableRecord
  2
ＭＳ_ゴシック
 70
     0
 40
0.0
 41
1.0
 50
0.0
 71
     0
 42
0.2
  3
ＭＳ ゴシック.shx
  4

  0
ENDTAB
  0
TABLE
  2
VIEW
  5
6
330
0
100
AcDbSymbolTable
 70
     0
  0
ENDTAB
  0
TABLE
  2
UCS
  5
7
330
0
100
AcDbSymbolTable
 70
     0
  0
ENDTAB
  0
TABLE
  2
APPID
  5
9
330
0
100
AcDbSymbolTable
 70
     2
  0
APPID
  5
12
330
9
100
AcDbSymbolTableRecord
100
AcDbRegAppTableRecord
  2
ACAD
 70
     0
  0
APPID
  5
294
330
9
100
AcDbSymbolTableRecord
100
AcDbRegAppTableRecord
  2
ACAD_MLEADERVER
 70
     0
  0
ENDTAB
  0
TABLE
  2
DIMSTYLE
  5
A
330
0
100
AcDbSymbolTable
 70
     1
  0
DIMSTYLE
105
27
330
A
100
AcDbSymbolTableRecord
100
AcDbDimStyleTableRecord
  2
STANDARD
 70
     0
  3

  4

  5

  6

  7

 40
1.0
 41
0.18
 42
0.0625
 43
0.38
 44
0.18
 45
0.0
 46
0.0
 47
0.0
 48
0.0
140
0.18
141
0.09
142
0.0
143
25.4
144
1.0
145
0.0
146
1.0
147
0.09
 71
     0
 72
     0
 73
     1
 74
     1
 75
     0
 76
     0
 77
     0
 78
     0
170
     0
171
     2
172
     0
173
     0
174
     0
175
     0
176
     0
177
     0
178
     0
270
     2
271
     4
272
     4
273
     2
274
     2
340
11
275
     0
280
     0
281
     0
282
     0
283
     1
284
     0
285
     0
286
     0
287
     3
288
     0
  0
ENDTAB
  0
TABLE
  2
BLOCK_RECORD
  5
1
330
0
100
AcDbSymbolTable
 70
     0
  0
BLOCK_RECORD
  5
1F
330
1
100
AcDbSymbolTableRecord
100
AcDbBlockTableRecord
  2
*MODEL_SPACE
  0
BLOCK_RECORD
  5
1B
330
1
100
AcDbSymbolTableRecord
100
AcDbBlockTableRecord
  2
*PAPER_SPACE
  0
ENDTAB
  0
ENDSEC
  0
SECTION
  2
BLOCKS
  0
BLOCK
  5
20
330
1F
100
AcDbEntity
  8
0
100
AcDbBlockBegin
  2
*MODEL_SPACE
 70
     0
 10
0.0
 20
0.0
 30
0.0
  3
*MODEL_SPACE
  1

  0
ENDBLK
  5
21
330
1F
100
AcDbEntity
  8
0
100
AcDbBlockEnd
  0
BLOCK
  5
1C
330
1B
100
AcDbEntity
 67
     1
  8
0
100
AcDbBlockBegin
  2
*PAPER_SPACE
 70
     0
 10
0.0
 20
0.0
 30
0.0
  3
*PAPER_SPACE
  1

  0
ENDBLK
  5
1D
330
1B
100
AcDbEntity
 67
     1
  8
0
100
AcDbBlockEnd
  0
ENDSEC
  0
SECTION
  2
ENTITIES
  0
ARC
  5
71
330
1F
100
AcDbEntity
  8
1
  6
CONTINUOUS
 62
     7
100
AcDbCircle
 10
250.874385
 20
203.125773
 30
0.0
 40
0.525615
100
AcDbArc
 50
325.9953600000001
 51
0.0
  0
ARC
  5
72
330
1F
100
AcDbEntity
  8
1
  6
CONTINUOUS
 62
     7
100
AcDbCircle
 10
250.311169
 20
203.505734
 30
0.0
 40
1.205013
100
AcDbArc
 50
311.339688
 51
325.9953600000001
  0
ARC
  5
73
330
1F
100
AcDbEntity
  8
1
  6
CONTINUOUS
 62
     7
100
AcDbCircle
 10
250.590838
 20
203.187837
 30
0.0
 40
0.781607
100
AcDbArc
 50
283.505443
 51
311.339688
  0
ARC
  5
74
330
1F
100
AcDbEntity
  8
1
  6
CONTINUOUS
 62
     7
100
AcDbCircle
 10
250.4
 20
203.982403
 30
0.0
 40
1.598769
100
AcDbArc
 50
270.0
 51
283.505443
  0
ARC
  5
75
330
1F
100
AcDbEntity
  8
1
  6
CONTINUOUS
 62
     7
100
AcDbCircle
 10
250.966353
 20
204.276067
 30
0.0
 40
0.433647
100
AcDbArc
 50
321.5836609999999
 51
0.0
  0
ARC
  5
76
330
1F
100
AcDbEntity
  8
1
  6
CONTINUOUS
 62
     7
100
AcDbCircle
 10
250.201447
 20
204.882679
 30
0.0
 40
1.409894
100
AcDbArc
 50
309.968007
 51
321.5836609999999
  0
ARC
  5
77
330
1F
100
AcDbEntity
  8
1
  6
CONTINUOUS
 62
     7
100
AcDbCircle
 10
250.627883
 20
204.373896
 30
0.0
 40
0.746036
100
AcDbArc
 50
281.047954
 51
309.968007
  0
ARC
  5
78
330
1F
100
AcDbEntity
  8
1
  6
CONTINUOUS
 62
     7
100
AcDbCircle
 10
250.4
 20
205.541039
 30
0.0
 40
1.935217
100
AcDbArc
 50
270.0
 51
281.047954
  0
ARC
  5
79
330
1F
100
AcDbEntity
  8
1
  6
CONTINUOUS
 62
     7
100
AcDbCircle
 10
250.921065
 20
214.186619
 30
0.0
 40
0.478935
100
AcDbArc
 50
323.92793
 51
0.0
  0
ARC
  5
7A
330
1F
100
AcDbEntity
  8
1
  6
CONTINUOUS
 62
     7
100
AcDbCircle
 10
250.267626
 20
214.662628
 30
0.0
 40
1.28737
100
AcDbArc
 50
310.699367
 51
323.92793
  0
ARC
  5
7B
330
1F
100
AcDbEntity
  8
1
  6
CONTINUOUS
 62
     7
100
AcDbCircle
 10
250.609609
 20
214.265027
 30
0.0
 40
0.762928
100
AcDbArc
 50
282.300216
 51
310.699367
  0
ARC
  5
7C
330
1F
100
AcDbEntity
  8
1
  6
CONTINUOUS
 62
     7
100
AcDbCircle
 10
250.4
 20
215.226363
 30
0.0
 40
1.74685
100
AcDbArc
 50
270.0
 51
282.300216
  0
ARC
  5
7D
330
1F
100
AcDbEntity
  8
1
  6
CONTINUOUS
 62
     7
100
AcDbCircle
 10
250.874385
 20
226.874227
 30
0.0
 40
0.525615
100
AcDbArc
 50
0.0
 51
34.00464000000001
  0
ARC
  5
7E
330
1F
100
AcDbEntity
  8
1
  6
CONTINUOUS
 62
     7
100
AcDbCircle
 10
250.311169
 20
226.494266
 30
0.0
 40
1.205013
100
AcDbArc
 50
34.00464000000001
 51
48.66031199999999
  0
ARC
  5
7F
330
1F
100
AcDbEntity
  8
1
  6
CONTINUOUS
 62
     7
100
AcDbCircle
 10
250.590838
 20
226.812163
 30
0.0
 40
0.781607
100
AcDbArc
 50
48.66031199999999
 51
76.494557
  0
ARC
  5
80
330
1F
100
AcDbEntity
  8
1
  6
CONTINUOUS
 62
     7
100
AcDbCircle
 10
250.4
 20
226.017597
 30
0.0
 40
1.598769
100
AcDbArc
 50
76.494557
 51
90.0
  0
LINE
  5
81
330
1F
100
AcDbEntity
  8
1
  6
CONTINUOUS
 62
     7
100
AcDbLine
 10
251.4
 20
230.440945
 30
0.0
 11
251.298723
 21
230.363947
 31
0.0
  0
ARC
  5
82
330
1F
100
AcDbEntity
  8
1
  6
CONTINUOUS
 62
     7
100
AcDbCircle
 10
250.429657
 20
232.687335
 30
0.0
 40
2.480606
100
AcDbArc
 50
269.3149780000001
 51
290.508368
  0
ARC
  5
83
330
1F
100
AcDbEntity
  8
1
  6
CONTINUOUS
 62
     7
100
AcDbCircle
 10
250.921065
 20
230.979312
 30
0.0
 40
0.478935
100
AcDbArc
 50
0.0
 51
36.07207
  0
ARC
  5
84
330
1F
100
AcDbEntity
  8
1
  6
CONTINUOUS
 62
     7
100
AcDbCircle
 10
250.267626
 20
230.503303
 30
0.0
 40
1.28737
100
AcDbArc
 50
36.07207
 51
49.300633
  0
ARC
  5
85
330
1F
100
AcDbEntity
  8
1
  6
CONTINUOUS
 62
     7
100
AcDbCircle
 10
250.609609
 20
230.900904
 30
0.0
 40
0.762928
100
AcDbArc
 50
49.300633
 51
77.699784
  0
ARC
  5
86
330
1F
100
AcDbEntity
  8
1
  6
CONTINUOUS
 62
     7
100
AcDbCircle
 10
250.4
 20
229.939568
 30
0.0
 40
1.74685
100
AcDbArc
 50
77.699784
 51
90.0
  0
ARC
  5
87
330
1F
100
AcDbEntity
  8
1
  6
CONTINUOUS
 62
     7
100
AcDbCircle
 10
250.966353
 20
225.723933
 30
0.0
 40
0.433647
100
AcDbArc
 50
0.0
 51
38.416339
  0
ARC
  5
88
330
1F
100
AcDbEntity
  8
1
  6
CONTINUOUS
 62
     7
100
AcDbCircle
 10
250.201447
 20
225.117321
 30
0.0
 40
1.409894
100
AcDbArc
 50
38.416339
 51
50.031993
  0
ARC
  5
89
330
1F
100
AcDbEntity
  8
1
  6
CONTINUOUS
 62
     7
100
AcDbCircle
 10
250.627883
 20
225.626104
 30
0.0
 40
0.746036
100
AcDbArc
 50
50.031993
 51
78.95204600000001
  0
ARC
  5
8A
330
1F
100
AcDbEntity
  8
1
  6
CONTINUOUS
 62
     7
100
AcDbCircle
 10
250.4
 20
224.458961
 30
0.0
 40
1.935217
100
AcDbArc
 50
78.95204600000001
 51
90.0
  0
ARC
  5
8B
330
1F
100
AcDbEntity
  8
1
  6
CONTINUOUS
 62
     7
100
AcDbCircle
 10
250.437019
 20
197.400088
 30
0.0
 40
2.393292
100
AcDbArc
 50
67.97040100000001
 51
90.88627199999999
  0
LINE
  5
8C
330
1F
100
AcDbEntity
  8
1
  6
CONTINUOUS
 62
     7
100
AcDbLine
 10
251.334708
 20
199.618646
 30
0.0
 11
251.4
 21
199.559055
 31
0.0
  0
ARC
  5
8D
330
1F
100
AcDbEntity
  8
1
  6
CONTINUOUS
 62
     7
100
AcDbCircle
 10
250.403048
 20
230.979312
 30
0.0
 40
0.996952
100
AcDbArc
 50
0.0
 51
22.544766
  0
ARC
  5
8E
330
1F
100
AcDbEntity
  8
1
  6
CONTINUOUS
 62
     7
100
AcDbCircle
 10
250.400048
 20
230.978066
 30
0.0
 40
1.0002
100
AcDbArc
 50
22.544766
 51
45.015353
  0
ARC
  5
8F
330
1F
100
AcDbEntity
  8
1
  6
CONTINUOUS
 62
     7
100
AcDbCircle
 10
250.401242
 20
230.979261
 30
0.0
 40
0.998511
100
AcDbArc
 50
45.015353
 51
67.544718
  0
ARC
  5
90
330
1F
100
AcDbEntity
  8
1
  6
CONTINUOUS
 62
     7
100
AcDbCircle
 10
250.4
 20
230.976256
 30
0.0
 40
1.001763
100
AcDbArc
 50
67.544718
 51
90.0
  0
ARC
  5
91
330
1F
100
AcDbEntity
  8
1
  6
CONTINUOUS
 62
     7
100
AcDbCircle
 10
250.921065
 20
199.020688
 30
0.0
 40
0.478935
100
AcDbArc
 50
323.92793
 51
0.0
  0
ARC
  5
92
330
1F
100
AcDbEntity
  8
1
  6
CONTINUOUS
 62
     7
100
AcDbCircle
 10
250.267626
 20
199.496697
 30
0.0
 40
1.28737
100
AcDbArc
 50
310.699367
 51
323.92793
  0
ARC
  5
93
330
1F
100
AcDbEntity
  8
1
  6
CONTINUOUS
 62
     7
100
AcDbCircle
 10
250.609609
 20
199.099096
 30
0.0
 40
0.762928
100
AcDbArc
 50
282.300216
 51
310.699367
  0
ARC
  5
94
330
1F
100
AcDbEntity
  8
1
  6
CONTINUOUS
 62
     7
100
AcDbCircle
 10
250.4
 20
200.060432
 30
0.0
 40
1.74685
100
AcDbArc
 50
270.0
 51
282.300216
  0
ARC
  5
95
330
1F
100
AcDbEntity
  8
2
  6
CONTINUOUS
 62
     7
100
AcDbCircle
 10
184.672557
 20
203.848737
 30
0.0
 40
4.057178
100
AcDbArc
 50
266.613572
 51
283.765005
  0
ARC
  5
96
330
1F
100
AcDbEntity
  8
2
  6
CONTINUOUS
 62
     7
100
AcDbCircle
 10
170.699973
 20
206.028359
 30
0.0
 40
0.500418
100
AcDbArc
 50
217.259906
 51
269.915797
  0
ARC
  5
97
330
1F
100
AcDbEntity
  8
2
  6
CONTINUOUS
 62
     7
100
AcDbCircle
 10
193.238833
 20
211.308185
 30
0.0
 40
4.06241
100
AcDbArc
 50
326.622779
 51
343.769381
  0
ARC
  5
98
330
1F
100
AcDbEntity
  8
2
  6
CONTINUOUS
 62
     7
100
AcDbCircle
 10
180.697224
 20
208.20399
 30
0.0
 40
8.406354
100
AcDbArc
 50
248.8990959999999
 51
269.113196
  0
ARC
  5
99
330
1F
100
AcDbEntity
  8
2
  6
CONTINUOUS
 62
     7
100
AcDbCircle
 10
191.471652
 20
203.199965
 30
0.0
 40
0.500418
100
AcDbArc
 50
307.259907
 51
359.915797
  0
ARC
  5
9A
330
1F
100
AcDbEntity
  8
2
  6
CONTINUOUS
 62
     7
100
AcDbCircle
 10
173.527879
 20
203.199633
 30
0.0
 40
0.499903
100
AcDbArc
 50
141.825396
 51
232.761455
  0
ARC
  5
9B
330
1F
100
AcDbEntity
  8
2
  6
CONTINUOUS
 62
     7
100
AcDbCircle
 10
167.794574
 20
213.13006
 30
0.0
 40
0.499903
100
AcDbArc
 50
187.233967
 51
278.169656
  0
ARC
  5
9C
330
1F
100
AcDbEntity
  8
2
  6
CONTINUOUS
 62
     7
100
AcDbCircle
 10
178.80435
 20
204.253426
 30
0.0
 40
4.053824
100
AcDbArc
 50
236.60786
 51
253.762773
  0
ARC
  5
9D
330
1F
100
AcDbEntity
  8
2
  6
CONTINUOUS
 62
     7
100
AcDbCircle
 10
196.170286
 20
220.733356
 30
0.0
 40
0.499903
100
AcDbArc
 50
291.825347
 51
22.76147600000002
  0
ARC
  5
9E
330
1F
100
AcDbEntity
  8
2
  6
CONTINUOUS
 62
     7
100
AcDbCircle
 10
180.630101
 20
200.294519
 30
0.0
 40
0.499903
100
AcDbArc
 50
171.825451
 51
262.761492
  0
LINE
  5
9F
330
1F
100
AcDbEntity
  8
2
  6
CONTINUOUS
 62
     7
100
AcDbLine
 10
168.912171
 20
220.197525
 30
0.0
 11
168.643875
 21
220.269275
 31
0.0
  0
ARC
  5
A0
330
1F
100
AcDbEntity
  8
2
  6
CONTINUOUS
 62
     7
100
AcDbCircle
 10
180.327808
 20
226.145784
 30
0.0
 40
4.062631
100
AcDbArc
 50
86.62301800000002
 51
103.769489
  0
ARC
  5
A1
330
1F
100
AcDbEntity
  8
2
  6
CONTINUOUS
 62
     7
100
AcDbCircle
 10
180.660522
 20
221.794
 30
0.0
 40
8.398829
100
AcDbArc
 50
98.90207000000001
 51
119.120392
  0
ARC
  5
A2
330
1F
100
AcDbEntity
  8
2
  6
CONTINUOUS
 62
     7
100
AcDbCircle
 10
170.69964
 20
223.972131
 30
0.0
 40
0.499903
100
AcDbArc
 50
51.825396
 51
142.761454
  0
ARC
  5
A3
330
1F
100
AcDbEntity
  8
2
  6
CONTINUOUS
 62
     7
100
AcDbCircle
 10
188.233309
 20
228.670253
 30
0.0
 40
0.499903
100
AcDbArc
 50
67.233977
 51
158.169659
  0
ARC
  5
A4
330
1F
100
AcDbEntity
  8
2
  6
CONTINUOUS
 62
     7
100
AcDbCircle
 10
175.701185
 20
216.803234
 30
0.0
 40
8.403535
100
AcDbArc
 50
158.900011
 51
179.115946
  0
ARC
  5
A5
330
1F
100
AcDbEntity
  8
2
  6
CONTINUOUS
 62
     7
100
AcDbCircle
 10
171.756281
 20
218.694242
 30
0.0
 40
4.056983
100
AcDbArc
 50
146.613262
 51
163.765084
  0
ARC
  5
A6
330
1F
100
AcDbEntity
  8
2
  6
CONTINUOUS
 62
     7
100
AcDbCircle
 10
168.829758
 20
220.733302
 30
0.0
 40
0.499903
100
AcDbArc
 50
157.233977
 51
248.169658
  0
ARC
  5
A7
330
1F
100
AcDbEntity
  8
2
  6
CONTINUOUS
 62
     7
100
AcDbCircle
 10
184.369951
 20
200.294567
 30
0.0
 40
0.499903
100
AcDbArc
 50
277.233968
 51
8.16965700000003
  0
ARC
  5
A8
330
1F
100
AcDbEntity
  8
2
  6
CONTINUOUS
 62
     7
100
AcDbCircle
 10
197.205444
 20
216.869944
 30
0.0
 40
0.499903
100
AcDbArc
 50
7.233968000000002
 51
98.169657
  0
ARC
  5
A9
330
1F
100
AcDbEntity
  8
2
  6
CONTINUOUS
 62
     7
100
AcDbCircle
 10
189.286924
 20
216.836752
 30
0.0
 40
8.40635
100
AcDbArc
 50
8.899125
 51
29.11319800000001
  0
ARC
  5
AA
330
1F
100
AcDbEntity
  8
2
  6
CONTINUOUS
 62
     7
100
AcDbCircle
 10
175.041037
 20
223.573815
 30
0.0
 40
4.053835
100
AcDbArc
 50
116.607867
 51
133.762808
  0
LINE
  5
AB
330
1F
100
AcDbEntity
  8
2
  6
CONTINUOUS
 62
     7
100
AcDbLine
 10
196.670113
 20
209.266409
 30
0.0
 11
196.631217
 21
209.073255
 31
0.0
  0
LINE
  5
AC
330
1F
100
AcDbEntity
  8
2
  6
CONTINUOUS
 62
     7
100
AcDbLine
 10
193.635002
 20
224.877698
 30
0.0
 11
193.9914
 21
224.36513
 31
0.0
  0
ARC
  5
AD
330
1F
100
AcDbEntity
  8
2
  6
CONTINUOUS
 62
     7
100
AcDbCircle
 10
189.303609
 20
213.19603
 30
0.0
 40
8.398748
100
AcDbArc
 50
338.901584
 51
359.120491
  0
ARC
  5
AE
330
1F
100
AcDbEntity
  8
2
  6
CONTINUOUS
 62
     7
100
AcDbCircle
 10
189.955846
 20
206.430889
 30
0.0
 40
4.059442
100
AcDbArc
 50
296.617724
 51
313.766488
  0
ARC
  5
AF
330
1F
100
AcDbEntity
  8
2
  6
CONTINUOUS
 62
     7
100
AcDbCircle
 10
184.369917
 20
229.705486
 30
0.0
 40
0.499903
100
AcDbArc
 50
351.825371
 51
82.761454
  0
ARC
  5
B0
330
1F
100
AcDbEntity
  8
2
  6
CONTINUOUS
 62
     7
100
AcDbCircle
 10
194.300318
 20
223.972137
 30
0.0
 40
0.499903
100
AcDbArc
 50
37.233973
 51
128.169678
  0
CIRCLE
  5
B1
330
1F
100
AcDbEntity
  8
2
  6
CONTINUOUS
 62
     7
100
AcDbCircle
 10
182.500009
 20
215.000002
 30
0.0
 40
15.5
  0
LINE
  5
B2
330
1F
100
AcDbEntity
  8
2
  6
CONTINUOUS
 62
     7
100
AcDbLine
 10
191.865137
 20
226.491393
 30
0.0
 11
192.378107
 21
226.134662
 31
0.0
  0
LINE
  5
B3
330
1F
100
AcDbEntity
  8
2
  6
CONTINUOUS
 62
     7
100
AcDbLine
 10
193.795115
 20
224.168653
 30
0.0
 11
193.9914
 21
224.36513
 31
0.0
  0
LINE
  5
B4
330
1F
100
AcDbEntity
  8
2
  6
CONTINUOUS
 62
     7
100
AcDbLine
 10
168.378177
 20
219.70434
 30
0.0
 11
168.643875
 21
220.269275
 31
0.0
  0
LINE
  5
B5
330
1F
100
AcDbEntity
  8
2
  6
CONTINUOUS
 62
     7
100
AcDbLine
 10
167.865608
 20
217.364745
 30
0.0
 11
168.133835
 21
217.292734
 31
0.0
  0
LINE
  5
B6
330
1F
100
AcDbEntity
  8
2
  6
CONTINUOUS
 62
     7
100
AcDbLine
 10
176.766416
 20
200.829897
 30
0.0
 11
176.573262
 21
200.868793
 31
0.0
  0
LINE
  5
B7
330
1F
100
AcDbEntity
  8
2
  6
CONTINUOUS
 62
     7
100
AcDbLine
 10
171.008636
 20
205.634851
 30
0.0
 11
170.699237
 21
205.527941
 31
0.0
  0
ARC
  5
B8
330
1F
100
AcDbEntity
  8
2
  6
CONTINUOUS
 62
     7
100
AcDbCircle
 10
193.654637
 20
217.172755
 30
0.0
 40
4.053833
100
AcDbArc
 50
356.607865
 51
13.76281599999998
  0
ARC
  5
B9
330
1F
100
AcDbEntity
  8
2
  6
CONTINUOUS
 62
     7
100
AcDbCircle
 10
177.535924
 20
210.009898
 30
0.0
 40
8.398748
100
AcDbArc
 50
218.901584
 51
239.120491
  0
LINE
  5
BA
330
1F
100
AcDbEntity
  8
2
  6
CONTINUOUS
 62
     7
100
AcDbLine
 10
184.864752
 20
229.634403
 30
0.0
 11
185.487249
 21
229.581975
 31
0.0
  0
ARC
  5
BB
330
1F
100
AcDbEntity
  8
2
  6
CONTINUOUS
 62
     7
100
AcDbCircle
 10
186.193151
 20
225.741483
 30
0.0
 40
4.059463
100
AcDbArc
 50
56.61776799999999
 51
73.766445
  0
ARC
  5
BC
330
1F
100
AcDbEntity
  8
2
  6
CONTINUOUS
 62
     7
100
AcDbCircle
 10
187.461066
 20
219.98634
 30
0.0
 40
8.403535
100
AcDbArc
 50
38.900011
 51
59.115946
  0
ARC
  5
BD
330
1F
100
AcDbEntity
  8
2
  6
CONTINUOUS
 62
     7
100
AcDbCircle
 10
191.071179
 20
222.457223
 30
0.0
 40
4.056983
100
AcDbArc
 50
26.613262
 51
43.765084
  0
ARC
  5
BE
330
1F
100
AcDbEntity
  8
2
  6
CONTINUOUS
 62
     7
100
AcDbCircle
 10
175.708611
 20
213.16152
 30
0.0
 40
8.40159
100
AcDbArc
 50
188.900684
 51
209.117754
  0
ARC
  5
BF
330
1F
100
AcDbEntity
  8
2
  6
CONTINUOUS
 62
     7
100
AcDbCircle
 10
184.303541
 20
221.800793
 30
0.0
 40
8.401563
100
AcDbArc
 50
68.900652
 51
89.11778599999998
  0
ARC
  5
C0
330
1F
100
AcDbEntity
  8
2
  6
CONTINUOUS
 62
     7
100
AcDbCircle
 10
188.233363
 20
201.329725
 30
0.0
 40
0.499903
100
AcDbArc
 50
201.82541
 51
292.761471
  0
LINE
  5
C1
330
1F
100
AcDbEntity
  8
2
  6
CONTINUOUS
 62
     7
100
AcDbLine
 10
167.865608
 20
217.364745
 30
0.0
 11
167.918062
 21
217.987355
 31
0.0
  0
ARC
  5
C2
330
1F
100
AcDbEntity
  8
2
  6
CONTINUOUS
 62
     7
100
AcDbCircle
 10
184.337842
 20
208.210245
 30
0.0
 40
8.40334
100
AcDbArc
 50
278.899978
 51
299.116175
  0
ARC
  5
C3
330
1F
100
AcDbEntity
  8
2
  6
CONTINUOUS
 62
     7
100
AcDbCircle
 10
173.93339
 20
207.545815
 30
0.0
 40
4.06241
100
AcDbArc
 50
206.622778
 51
223.769381
  0
ARC
  5
C4
330
1F
100
AcDbEntity
  8
2
  6
CONTINUOUS
 62
     7
100
AcDbCircle
 10
191.472139
 20
226.80037
 30
0.0
 40
0.499903
100
AcDbArc
 50
321.825396
 51
52.76145500000001
  0
ARC
  5
C5
330
1F
100
AcDbEntity
  8
2
  6
CONTINUOUS
 62
     7
100
AcDbCircle
 10
194.300377
 20
206.027872
 30
0.0
 40
0.499903
100
AcDbArc
 50
231.82543
 51
322.761506
  0
LINE
  5
C6
330
1F
100
AcDbEntity
  8
2
  6
CONTINUOUS
 62
     7
100
AcDbLine
 10
168.36876
 20
209.073238
 30
0.0
 11
168.329879
 21
209.266355
 31
0.0
  0
ARC
  5
C7
330
1F
100
AcDbEntity
  8
2
  6
CONTINUOUS
 62
     7
100
AcDbCircle
 10
173.527874
 20
226.800311
 30
0.0
 40
0.499903
100
AcDbArc
 50
127.233973
 51
218.169679
  0
LINE
  5
C8
330
1F
100
AcDbEntity
  8
2
  6
CONTINUOUS
 62
     7
100
AcDbLine
 10
191.865137
 20
226.491393
 30
0.0
 11
191.668661
 21
226.295108
 31
0.0
  0
ARC
  5
C9
330
1F
100
AcDbEntity
  8
2
  6
CONTINUOUS
 62
     7
100
AcDbCircle
 10
187.487901
 20
210.037702
 30
0.0
 40
8.401563
100
AcDbArc
 50
308.900651
 51
329.117786
  0
ARC
  5
CA
330
1F
100
AcDbEntity
  8
2
  6
CONTINUOUS
 62
     7
100
AcDbCircle
 10
197.205493
 20
213.130094
 30
0.0
 40
0.499903
100
AcDbArc
 50
261.825372
 51
352.761454
  0
ARC
  5
CB
330
1F
100
AcDbEntity
  8
2
  6
CONTINUOUS
 62
     7
100
AcDbCircle
 10
177.515881
 20
219.959266
 30
0.0
 40
8.406351
100
AcDbArc
 50
128.899128
 51
149.113197
  0
LINE
  5
CC
330
1F
100
AcDbEntity
  8
2
  6
CONTINUOUS
 62
     7
100
AcDbLine
 10
176.573245
 20
229.13125
 30
0.0
 11
176.766362
 21
229.170131
 31
0.0
  0
ARC
  5
CD
330
1F
100
AcDbEntity
  8
2
  6
CONTINUOUS
 62
     7
100
AcDbCircle
 10
171.351042
 20
212.827616
 30
0.0
 40
4.059463
100
AcDbArc
 50
176.617768
 51
193.766445
  0
ARC
  5
CE
330
1F
100
AcDbEntity
  8
2
  6
CONTINUOUS
 62
     7
100
AcDbCircle
 10
167.794526
 20
216.86991
 30
0.0
 40
0.499903
100
AcDbArc
 50
81.82545200000001
 51
172.761493
  0
ARC
  5
CF
330
1F
100
AcDbEntity
  8
2
  6
CONTINUOUS
 62
     7
100
AcDbCircle
 10
180.630067
 20
229.705437
 30
0.0
 40
0.499903
100
AcDbArc
 50
97.234
 51
188.169725
  0
ARC
  5
D0
330
1F
100
AcDbEntity
  8
2
  6
CONTINUOUS
 62
     7
100
AcDbCircle
 10
168.82947
 20
209.266879
 30
0.0
 40
0.499591
100
AcDbArc
 50
111.807374
 51
180.060132
  0
ARC
  5
D1
330
1F
100
AcDbEntity
  8
2
  6
CONTINUOUS
 62
     7
100
AcDbCircle
 10
180.228912
 20
206.524082
 30
0.0
 40
6.147423
100
AcDbArc
 50
246.685528
 51
263.308824
  0
ARC
  5
D2
330
1F
100
AcDbEntity
  8
2
  6
CONTINUOUS
 62
     7
100
AcDbCircle
 10
188.70447
 20
208.795562
 30
0.0
 40
6.147912
100
AcDbArc
 50
306.686259
 51
323.309285
  0
ARC
  5
D3
330
1F
100
AcDbEntity
  8
2
  6
CONTINUOUS
 62
     7
100
AcDbCircle
 10
176.766939
 20
201.329488
 30
0.0
 40
0.499591
100
AcDbArc
 50
269.939947
 51
338.187777
  0
ARC
  5
D4
330
1F
100
AcDbEntity
  8
2
  6
CONTINUOUS
 62
     7
100
AcDbCircle
 10
180.172582
 20
223.686464
 30
0.0
 40
5.931891
100
AcDbArc
 50
96.46012000000003
 51
113.545657
  0
ARC
  5
D5
330
1F
100
AcDbEntity
  8
2
  6
CONTINUOUS
 62
     7
100
AcDbCircle
 10
176.269859
 20
208.769831
 30
0.0
 40
6.111938
100
AcDbArc
 50
216.636926
 51
233.357746
  0
LINE
  5
D6
330
1F
100
AcDbEntity
  8
2
  6
CONTINUOUS
 62
     7
100
AcDbLine
 10
191.865159
 20
203.508628
 30
0.0
 11
191.972069
 21
203.19923
 31
0.0
  0
ARC
  5
D7
330
1F
100
AcDbEntity
  8
2
  6
CONTINUOUS
 62
     7
100
AcDbCircle
 10
184.827424
 20
206.313568
 30
0.0
 40
5.931921
100
AcDbArc
 50
276.460249
 51
293.549545
  0
ARC
  5
D8
330
1F
100
AcDbEntity
  8
2
  6
CONTINUOUS
 62
     7
100
AcDbCircle
 10
174.024573
 20
212.729001
 30
0.0
 40
6.14791
100
AcDbArc
 50
186.686257
 51
203.309287
  0
ARC
  5
D9
330
1F
100
AcDbEntity
  8
2
  6
CONTINUOUS
 62
     7
100
AcDbCircle
 10
174.024353
 20
217.271031
 30
0.0
 40
6.147692
100
AcDbArc
 50
156.685947
 51
173.3090829999999
  0
ARC
  5
DA
330
1F
100
AcDbEntity
  8
2
  6
CONTINUOUS
 62
     7
100
AcDbCircle
 10
184.770984
 20
223.475449
 30
0.0
 40
6.147906
100
AcDbArc
 50
66.686254
 51
83.309289
  0
ARC
  5
DB
330
1F
100
AcDbEntity
  8
2
  6
CONTINUOUS
 62
     7
100
AcDbCircle
 10
188.704605
 20
221.20462
 30
0.0
 40
6.147694
100
AcDbArc
 50
36.685948
 51
53.309082
  0
ARC
  5
DC
330
1F
100
AcDbEntity
  8
2
  6
CONTINUOUS
 62
     7
100
AcDbCircle
 10
196.170522
 20
209.266932
 30
0.0
 40
0.499591
100
AcDbArc
 50
359.939947
 51
68.187701
  0
ARC
  5
DD
330
1F
100
AcDbEntity
  8
2
  6
CONTINUOUS
 62
     7
100
AcDbCircle
 10
190.975917
 20
217.271134
 30
0.0
 40
6.147426
100
AcDbArc
 50
6.68553
 51
23.308823
  0
ARC
  5
DE
330
1F
100
AcDbEntity
  8
2
  6
CONTINUOUS
 62
     7
100
AcDbCircle
 10
176.766886
 20
228.670541
 30
0.0
 40
0.499591
100
AcDbArc
 50
21.807374
 51
90.06013200000002
  0
ARC
  5
DF
330
1F
100
AcDbEntity
  8
2
  6
CONTINUOUS
 62
     7
100
AcDbCircle
 10
176.295199
 20
221.204786
 30
0.0
 40
6.147428
100
AcDbArc
 50
126.685532
 51
143.308821
  0
ARC
  5
E0
330
1F
100
AcDbEntity
  8
2
  6
CONTINUOUS
 62
     7
100
AcDbCircle
 10
191.010566
 20
212.719621
 30
0.0
 40
6.111943
100
AcDbArc
 50
336.636929
 51
353.357743
  0
LINE
  5
E1
330
1F
100
AcDbEntity
  8
0
  6
CONTINUOUS
 62
     7
100
AcDbLine
 10
246.4
 20
231.5
 30
0.0
 11
246.4
 21
198.5
 31
0.0
  0
LINE
  5
E2
330
1F
100
AcDbEntity
  8
0
  6
CONTINUOUS
 62
     7
100
AcDbLine
 10
246.4
 20
231.5
 30
0.0
 11
248.4
 21
231.5
 31
0.0
  0
LINE
  5
E3
330
1F
100
AcDbEntity
  8
1
  6
CONTINUOUS
 62
     7
100
AcDbLine
 10
236.4
 20
228.2205
 30
0.0
 11
236.06
 21
228.2205
 31
0.0
  0
LINE
  5
E4
330
1F
100
AcDbEntity
  8
0
  6
CONTINUOUS
 62
     7
100
AcDbLine
 10
246.4
 20
198.5
 30
0.0
 11
248.4
 21
198.5
 31
0.0
  0
LINE
  5
E5
330
1F
100
AcDbEntity
  8
1
  6
CONTINUOUS
 62
     7
100
AcDbLine
 10
236.06
 20
201.7795
 30
0.0
 11
236.4
 21
201.7795
 31
0.0
  0
POINT
  5
E6
330
1F
100
AcDbEntity
  8
1
 62
     7
100
AcDbPoint
 10
182.5
 20
215.0
 30
0.0
  0
POINT
  5
E7
330
1F
100
AcDbEntity
  8
1
 62
     7
100
AcDbPoint
 10
252.5
 20
215.0
 30
0.0
  0
POINT
  5
E8
330
1F
100
AcDbEntity
  8
2
 62
     7
100
AcDbPoint
 10
182.500009
 20
215.000295
 30
0.0
  0
POINT
  5
E9
330
1F
100
AcDbEntity
  8
2
 62
     7
100
AcDbPoint
 10
182.500009
 20
215.000295
 30
0.0
  0
POINT
  5
EA
330
1F
100
AcDbEntity
  8
2
 62
     7
100
AcDbPoint
 10
182.500009
 20
215.000295
 30
0.0
  0
LINE
  5
EB
330
1F
100
AcDbEntity
  8
1
  6
CONTINUOUS
 62
     7
100
AcDbLine
 10
265.9
 20
198.356511
 30
0.0
 11
274.9
 21
198.356511
 31
0.0
  0
LINE
  5
EC
330
1F
100
AcDbEntity
  8
1
  6
CONTINUOUS
 62
     7
100
AcDbLine
 10
265.9
 20
197.534532
 30
0.0
 11
274.9
 21
197.534532
 31
0.0
  0
LINE
  5
ED
330
1F
100
AcDbEntity
  8
1
  6
CONTINUOUS
 62
     7
100
AcDbLine
 10
265.9
 20
198.728911
 30
0.0
 11
274.9
 21
198.728911
 31
0.0
  0
ARC
  5
EE
330
1F
100
AcDbEntity
  8
1
  6
CONTINUOUS
 62
     7
100
AcDbCircle
 10
250.232849
 20
224.798324
 30
0.0
 40
1.17865
100
AcDbArc
 50
278.152899
 51
8.010131999999999
  0
LINE
  5
EF
330
1F
100
AcDbEntity
  8
1
  6
CONTINUOUS
 62
     7
100
AcDbLine
 10
236.06
 20
228.2205
 30
0.0
 11
236.06
 21
201.7795
 31
0.0
  0
ARC
  5
F0
330
1F
100
AcDbEntity
  8
1
  6
CONTINUOUS
 62
     7
100
AcDbCircle
 10
250.111368
 20
213.302592
 30
0.0
 40
1.334187
100
AcDbArc
 50
282.4939089999999
 51
344.9844640167
  0
LINE
  5
F1
330
1F
100
AcDbEntity
  8
1
  6
CONTINUOUS
 62
     7
100
AcDbLine
 10
265.9
 20
232.362007
 30
0.0
 11
274.9
 21
232.362007
 31
0.0
  0
LINE
  5
F2
330
1F
100
AcDbEntity
  8
1
  6
CONTINUOUS
 62
     7
100
AcDbLine
 10
265.9
 20
202.243049
 30
0.0
 11
274.9
 21
202.243049
 31
0.0
  0
LINE
  5
F3
330
1F
100
AcDbEntity
  8
1
  6
CONTINUOUS
 62
     7
100
AcDbLine
 10
265.9
 20
226.979574
 30
0.0
 11
274.9
 21
226.979574
 31
0.0
  0
LINE
  5
F4
330
1F
100
AcDbEntity
  8
1
  6
CONTINUOUS
 62
     7
100
AcDbLine
 10
265.9
 20
203.020426
 30
0.0
 11
274.9
 21
203.020426
 31
0.0
  0
LINE
  5
F5
330
1F
100
AcDbEntity
  8
1
  6
CONTINUOUS
 62
     7
100
AcDbLine
 10
265.9
 20
231.643489
 30
0.0
 11
274.9
 21
231.643489
 31
0.0
  0
ARC
  5
F6
330
1F
100
AcDbEntity
  8
1
  6
CONTINUOUS
 62
     7
100
AcDbCircle
 10
250.180355
 20
205.162235
 30
0.0
 40
1.226014
100
AcDbArc
 50
354.157456
 51
79.67951299999999
  0
LINE
  5
F7
330
1F
100
AcDbEntity
  8
1
  6
CONTINUOUS
 62
     7
100
AcDbLine
 10
265.9
 20
197.809973
 30
0.0
 11
274.9
 21
197.809973
 31
0.0
  0
LINE
  5
F8
330
1F
100
AcDbEntity
  8
1
  6
CONTINUOUS
 62
     7
100
AcDbLine
 10
265.9
 20
227.756951
 30
0.0
 11
274.9
 21
227.756951
 31
0.0
  0
LINE
  5
F9
330
1F
100
AcDbEntity
  8
1
  6
CONTINUOUS
 62
     7
100
AcDbLine
 10
234.9
 20
202.9395
 30
0.0
 11
234.9
 21
227.0605
 31
0.0
  0
LINE
  5
FA
330
1F
100
AcDbEntity
  8
1
  6
CONTINUOUS
 62
     7
100
AcDbLine
 10
265.9
 20
199.165527
 30
0.0
 11
274.9
 21
199.165527
 31
0.0
  0
LINE
  5
FB
330
1F
100
AcDbEntity
  8
1
  6
CONTINUOUS
 62
     7
100
AcDbLine
 10
265.9
 20
199.664633
 30
0.0
 11
274.9
 21
199.664633
 31
0.0
  0
LINE
  5
FC
330
1F
100
AcDbEntity
  8
1
  6
CONTINUOUS
 62
     7
100
AcDbLine
 10
265.9
 20
229.157797
 30
0.0
 11
274.9
 21
229.157797
 31
0.0
  0
LINE
  5
FD
330
1F
100
AcDbEntity
  8
1
  6
CONTINUOUS
 62
     7
100
AcDbLine
 10
265.9
 20
197.637993
 30
0.0
 11
274.9
 21
197.637993
 31
0.0
  0
LINE
  5
FE
330
1F
100
AcDbEntity
  8
1
  6
CONTINUOUS
 62
     7
100
AcDbLine
 10
265.9
 20
232.465468
 30
0.0
 11
274.9
 21
232.465468
 31
0.0
  0
LINE
  5
FF
330
1F
100
AcDbEntity
  8
1
  6
CONTINUOUS
 62
     7
100
AcDbLine
 10
263.9
 20
199.0
 30
0.0
 11
263.9
 21
231.0
 31
0.0
  0
LINE
  5
100
330
1F
100
AcDbEntity
  8
1
  6
CONTINUOUS
 62
     7
100
AcDbLine
 10
265.9
 20
228.483982
 30
0.0
 11
274.9
 21
228.483982
 31
0.0
  0
LINE
  5
101
330
1F
100
AcDbEntity
  8
1
  6
CONTINUOUS
 62
     7
100
AcDbLine
 10
265.9
 20
201.516018
 30
0.0
 11
274.9
 21
201.516018
 31
0.0
  0
LINE
  5
102
330
1F
100
AcDbEntity
  8
1
  6
CONTINUOUS
 62
     7
100
AcDbLine
 10
265.9
 20
231.271089
 30
0.0
 11
274.9
 21
231.271089
 31
0.0
  0
LINE
  5
103
330
1F
100
AcDbEntity
  8
1
  6
CONTINUOUS
 62
     7
100
AcDbLine
 10
265.9
 20
198.049795
 30
0.0
 11
274.9
 21
198.049795
 31
0.0
  0
LINE
  5
104
330
1F
100
AcDbEntity
  8
1
  6
CONTINUOUS
 62
     7
100
AcDbLine
 10
265.9
 20
229.775739
 30
0.0
 11
274.9
 21
229.775739
 31
0.0
  0
LINE
  5
105
330
1F
100
AcDbEntity
  8
1
  6
CONTINUOUS
 62
     7
100
AcDbLine
 10
265.9
 20
230.335367
 30
0.0
 11
274.9
 21
230.335367
 31
0.0
  0
LINE
  5
106
330
1F
100
AcDbEntity
  8
1
  6
CONTINUOUS
 62
     7
100
AcDbLine
 10
265.9
 20
232.190027
 30
0.0
 11
274.9
 21
232.190027
 31
0.0
  0
LINE
  5
107
330
1F
100
AcDbEntity
  8
1
  6
CONTINUOUS
 62
     7
100
AcDbLine
 10
265.9
 20
200.224261
 30
0.0
 11
274.9
 21
200.224261
 31
0.0
  0
LINE
  5
108
330
1F
100
AcDbEntity
  8
1
  6
CONTINUOUS
 62
     7
100
AcDbLine
 10
265.9
 20
230.834473
 30
0.0
 11
274.9
 21
230.834473
 31
0.0
  0
LINE
  5
109
330
1F
100
AcDbEntity
  8
1
  6
CONTINUOUS
 62
     7
100
AcDbLine
 10
265.9
 20
231.950205
 30
0.0
 11
274.9
 21
231.950205
 31
0.0
  0
LINE
  5
10A
330
1F
100
AcDbEntity
  8
1
  6
CONTINUOUS
 62
     7
100
AcDbLine
 10
265.9
 20
200.842203
 30
0.0
 11
274.9
 21
200.842203
 31
0.0
  0
LINE
  5
10B
330
1F
100
AcDbEntity
  8
1
  6
CONTINUOUS
 62
     7
100
AcDbLine
 10
280.9
 20
228.75
 30
0.0
 11
280.9
 21
201.25
 31
0.0
  0
LINE
  5
10C
330
1F
100
AcDbEntity
  8
1
  6
CONTINUOUS
 62
     7
100
AcDbLine
 10
197.706906
 20
218.0
 30
0.0
 11
199.186419
 21
216.520488
 31
0.0
  0
LINE
  5
10D
330
1F
100
AcDbEntity
  8
1
  6
CONTINUOUS
 62
     7
100
AcDbLine
 10
234.9
 20
202.9395
 30
0.0
 11
236.06
 21
201.7795
 31
0.0
  0
ARC
  5
10E
330
1F
100
AcDbEntity
  8
1
  6
CONTINUOUS
 62
     7
100
AcDbCircle
 10
265.4
 20
231.0
 30
0.0
 40
1.5
100
AcDbArc
 50
90.0
 51
180.0
  0
ARC
  5
10F
330
1F
100
AcDbEntity
  8
1
  6
CONTINUOUS
 62
     7
100
AcDbCircle
 10
250.4
 20
226.874227
 30
0.0
 40
1.0
100
AcDbArc
 50
0.0
 51
90.0
  0
ARC
  5
110
330
1F
100
AcDbEntity
  8
1
  6
CONTINUOUS
 62
     7
100
AcDbCircle
 10
275.9
 20
199.5
 30
0.0
 40
2.0
100
AcDbArc
 50
270.0
 51
0.0
  0
ARC
  5
111
330
1F
100
AcDbEntity
  8
1
  6
CONTINUOUS
 62
     7
100
AcDbCircle
 10
275.9
 20
230.5
 30
0.0
 40
2.0
100
AcDbArc
 50
0.0
 51
90.0
  0
ARC
  5
112
330
1F
100
AcDbEntity
  8
1
  6
CONTINUOUS
 62
     7
100
AcDbCircle
 10
251.4
 20
229.5
 30
0.0
 40
1.0
100
AcDbArc
 50
0.0
 51
90.0
  0
ARC
  5
113
330
1F
100
AcDbEntity
  8
1
  6
CONTINUOUS
 62
     7
100
AcDbCircle
 10
279.4
 20
230.25
 30
0.0
 40
1.5
100
AcDbArc
 50
180.0
 51
270.0
  0
ARC
  5
114
330
1F
100
AcDbEntity
  8
1
  6
CONTINUOUS
 62
     7
100
AcDbCircle
 10
265.4
 20
199.0
 30
0.0
 40
1.5
100
AcDbArc
 50
180.0
 51
270.0
  0
ARC
  5
115
330
1F
100
AcDbEntity
  8
1
  6
CONTINUOUS
 62
     7
100
AcDbCircle
 10
262.4
 20
199.75
 30
0.0
 40
1.5
100
AcDbArc
 50
0.0
 51
90.0
  0
LINE
  5
116
330
1F
100
AcDbEntity
  8
1
  6
CONTINUOUS
 62
     7
100
AcDbLine
 10
252.4
 20
201.25
 30
0.0
 11
262.4
 21
201.25
 31
0.0
  0
LINE
  5
117
330
1F
100
AcDbEntity
  8
1
  6
CONTINUOUS
 62
     7
100
AcDbLine
 10
234.9
 20
227.0585
 30
0.0
 11
233.9
 21
227.0585
 31
0.0
  0
ARC
  5
118
330
1F
100
AcDbEntity
  8
1
  6
CONTINUOUS
 62
     7
100
AcDbCircle
 10
251.4
 20
200.5
 30
0.0
 40
1.0
100
AcDbArc
 50
270.0
 51
0.0
  0
LINE
  5
119
330
1F
100
AcDbEntity
  8
1
  6
CONTINUOUS
 62
     7
100
AcDbLine
 10
179.5
 20
230.206906
 30
0.0
 11
180.979512
 21
231.686419
 31
0.0
  0
LINE
  5
11A
330
1F
100
AcDbEntity
  8
1
  6
CONTINUOUS
 62
     7
100
AcDbLine
 10
185.5
 20
199.793094
 30
0.0
 11
184.020488
 21
198.313581
 31
0.0
  0
LINE
  5
11B
330
1F
100
AcDbEntity
  8
1
  6
CONTINUOUS
 62
     7
100
AcDbLine
 10
167.293094
 20
212.0
 30
0.0
 11
165.813581
 21
213.479512
 31
0.0
  0
LINE
  5
11C
330
1F
100
AcDbEntity
  8
1
  6
CONTINUOUS
 62
     7
100
AcDbLine
 10
184.020488
 20
231.686419
 30
0.0
 11
185.5
 21
230.206906
 31
0.0
  0
LINE
  5
11D
330
1F
100
AcDbEntity
  8
1
  6
CONTINUOUS
 62
     7
100
AcDbLine
 10
199.186419
 20
213.479512
 30
0.0
 11
197.706906
 21
212.0
 31
0.0
  0
LINE
  5
11E
330
1F
100
AcDbEntity
  8
1
  6
CONTINUOUS
 62
     7
100
AcDbLine
 10
280.9
 20
228.75
 30
0.0
 11
279.4
 21
228.75
 31
0.0
  0
LINE
  5
11F
330
1F
100
AcDbEntity
  8
1
  6
CONTINUOUS
 62
     7
100
AcDbLine
 10
180.979512
 20
198.313581
 30
0.0
 11
179.5
 21
199.793094
 31
0.0
  0
LINE
  5
120
330
1F
100
AcDbEntity
  8
1
  6
CONTINUOUS
 62
     7
100
AcDbLine
 10
195.374227
 20
225.723933
 30
0.0
 11
195.374227
 21
223.631586
 31
0.0
  0
LINE
  5
121
330
1F
100
AcDbEntity
  8
1
  6
CONTINUOUS
 62
     7
100
AcDbLine
 10
193.223933
 20
202.125773
 30
0.0
 11
191.131586
 21
202.125773
 31
0.0
  0
ARC
  5
122
330
1F
100
AcDbEntity
  8
1
  6
CONTINUOUS
 62
     7
100
AcDbCircle
 10
193.223933
 20
203.125773
 30
0.0
 40
1.0
100
AcDbArc
 50
270.0
 51
312.0860390000001
  0
ARC
  5
123
330
1F
100
AcDbEntity
  8
1
  6
CONTINUOUS
 62
     7
100
AcDbCircle
 10
262.4
 20
230.25
 30
0.0
 40
1.5
100
AcDbArc
 50
270.0
 51
0.0
  0
LINE
  5
124
330
1F
100
AcDbEntity
  8
1
  6
CONTINUOUS
 62
     7
100
AcDbLine
 10
236.06
 20
228.2205
 30
0.0
 11
234.9
 21
227.0605
 31
0.0
  0
LINE
  5
125
330
1F
100
AcDbEntity
  8
1
  6
CONTINUOUS
 62
     7
100
AcDbLine
 10
165.813581
 20
216.520488
 30
0.0
 11
167.293094
 21
218.0
 31
0.0
  0
LINE
  5
126
330
1F
100
AcDbEntity
  8
1
  6
CONTINUOUS
 62
     7
100
AcDbLine
 10
233.9
 20
202.9415
 30
0.0
 11
234.9
 21
202.9415
 31
0.0
  0
ARC
  5
127
330
1F
100
AcDbEntity
  8
1
  6
CONTINUOUS
 62
     7
100
AcDbCircle
 10
279.4
 20
199.75
 30
0.0
 40
1.5
100
AcDbArc
 50
90.0
 51
180.0
  0
LINE
  5
128
330
1F
100
AcDbEntity
  8
1
  6
CONTINUOUS
 62
     7
100
AcDbLine
 10
262.4
 20
228.75
 30
0.0
 11
252.4
 21
228.75
 31
0.0
  0
ARC
  5
129
330
1F
100
AcDbEntity
  8
1
  6
CONTINUOUS
 62
     7
100
AcDbCircle
 10
250.4
 20
203.125773
 30
0.0
 40
1.0
100
AcDbArc
 50
270.0
 51
0.0
  0
ARC
  5
12A
330
1F
100
AcDbEntity
  8
1
  6
CONTINUOUS
 62
     7
100
AcDbCircle
 10
250.4
 20
199.0
 30
0.0
 40
1.0
100
AcDbArc
 50
270.0
 51
0.0
  0
LINE
  5
12B
330
1F
100
AcDbEntity
  8
1
  6
CONTINUOUS
 62
     7
100
AcDbLine
 10
279.4
 20
201.25
 30
0.0
 11
280.9
 21
201.25
 31
0.0
  0
ARC
  5
12C
330
1F
100
AcDbEntity
  8
1
  6
CONTINUOUS
 62
     7
100
AcDbCircle
 10
166.520688
 20
214.186619
 30
0.0
 40
1.0
100
AcDbArc
 50
182.913961
 51
225.0
  0
CIRCLE
  5
12D
330
1F
100
AcDbEntity
  8
1
  6
CONTINUOUS
 62
     7
100
AcDbCircle
 10
182.5
 20
215.0
 30
0.0
 40
12.0605
  0
ARC
  5
12E
330
1F
100
AcDbEntity
  8
1
  6
CONTINUOUS
 62
     7
100
AcDbCircle
 10
181.686619
 20
230.979312
 30
0.0
 40
1.0
100
AcDbArc
 50
92.913961
 51
135.0
  0
LINE
  5
12F
330
1F
100
AcDbEntity
  8
1
  6
CENTER
 62
     1
100
AcDbLine
 10
221.1
 20
215.0
 30
0.0
 11
283.9
 21
215.0
 31
0.0
  0
LINE
  5
131
330
1F
100
AcDbEntity
  8
1
  6
CONTINUOUS
 62
     7
100
AcDbLine
 10
248.4
 20
198.0
 30
0.0
 11
250.4
 21
198.0
 31
0.0
  0
ARC
  5
132
330
1F
100
AcDbEntity
  8
1
  6
CONTINUOUS
 62
     7
100
AcDbCircle
 10
182.5
 20
215.0
 30
0.0
 40
16.0
100
AcDbArc
 50
233.575424
 51
261.424576
  0
LINE
  5
133
330
1F
100
AcDbEntity
  8
1
  6
CONTINUOUS
 62
     7
100
AcDbLine
 10
250.4
 20
232.0
 30
0.0
 11
248.4
 21
232.0
 31
0.0
  0
ARC
  5
134
330
1F
100
AcDbEntity
  8
1
  6
CONTINUOUS
 62
     7
100
AcDbCircle
 10
171.776067
 20
203.125773
 30
0.0
 40
1.0
100
AcDbArc
 50
227.913961
 51
270.0
  0
ARC
  5
135
330
1F
100
AcDbEntity
  8
1
  6
CONTINUOUS
 62
     7
100
AcDbCircle
 10
183.313381
 20
199.020688
 30
0.0
 40
1.0
100
AcDbArc
 50
272.913961
 51
315.0
  0
ARC
  5
136
330
1F
100
AcDbEntity
  8
1
  6
CONTINUOUS
 62
     7
100
AcDbCircle
 10
198.479312
 20
214.186619
 30
0.0
 40
1.0
100
AcDbArc
 50
315.0
 51
357.086039
  0
ARC
  5
137
330
1F
100
AcDbEntity
  8
1
  6
CONTINUOUS
 62
     7
100
AcDbCircle
 10
166.520688
 20
215.813381
 30
0.0
 40
1.0
100
AcDbArc
 50
135.0
 51
177.086039
  0
ARC
  5
138
330
1F
100
AcDbEntity
  8
1
  6
CONTINUOUS
 62
     7
100
AcDbCircle
 10
170.625773
 20
225.723933
 30
0.0
 40
1.0
100
AcDbArc
 50
137.913961
 51
180.0
  0
ARC
  5
139
330
1F
100
AcDbEntity
  8
1
  6
CONTINUOUS
 62
     7
100
AcDbCircle
 10
170.625773
 20
204.276067
 30
0.0
 40
1.0
100
AcDbArc
 50
180.0
 51
222.086039
  0
CIRCLE
  5
13A
330
1F
100
AcDbEntity
  8
1
  6
CONTINUOUS
 62
     7
100
AcDbCircle
 10
182.5
 20
215.0
 30
0.0
 40
12.0585
  0
CIRCLE
  5
13B
330
1F
100
AcDbEntity
  8
1
  6
CONTINUOUS
 62
     7
100
AcDbCircle
 10
182.5
 20
215.0
 30
0.0
 40
13.2205
  0
ARC
  5
13C
330
1F
100
AcDbEntity
  8
1
  6
CONTINUOUS
 62
     7
100
AcDbCircle
 10
181.686619
 20
199.020688
 30
0.0
 40
1.0
100
AcDbArc
 50
225.0
 51
267.086039
  0
LINE
  5
13D
330
1F
100
AcDbEntity
  8
1
  6
CONTINUOUS
 62
     7
100
AcDbLine
 10
171.776067
 20
227.874227
 30
0.0
 11
173.868414
 21
227.874227
 31
0.0
  0
LINE
  5
13E
330
1F
100
AcDbEntity
  8
1
  6
CENTER
 62
     1
100
AcDbLine
 10
162.0
 20
215.0
 30
0.0
 11
203.0
 21
215.0
 31
0.0
  0
LINE
  5
13F
330
1F
100
AcDbEntity
  8
1
  6
CONTINUOUS
 62
     7
100
AcDbLine
 10
248.4
 20
198.313581
 30
0.0
 11
250.4
 21
198.313581
 31
0.0
  0
ARC
  5
140
330
1F
100
AcDbEntity
  8
1
  6
CONTINUOUS
 62
     7
100
AcDbCircle
 10
182.5
 20
215.0
 30
0.0
 40
17.0
100
AcDbArc
 50
267.086039
 51
272.913961
  0
LINE
  5
141
330
1F
100
AcDbEntity
  8
1
  6
CONTINUOUS
 62
     7
100
AcDbLine
 10
173.868414
 20
202.125773
 30
0.0
 11
171.776067
 21
202.125773
 31
0.0
  0
ARC
  5
142
330
1F
100
AcDbEntity
  8
1
  6
CONTINUOUS
 62
     7
100
AcDbCircle
 10
182.5
 20
215.0
 30
0.0
 40
16.0
100
AcDbArc
 50
53.57542399999999
 51
81.424576
  0
ARC
  5
143
330
1F
100
AcDbEntity
  8
1
  6
CONTINUOUS
 62
     7
100
AcDbCircle
 10
182.5
 20
215.0
 30
0.0
 40
17.0
100
AcDbArc
 50
177.086039
 51
182.913961
  0
ARC
  5
144
330
1F
100
AcDbEntity
  8
1
  6
CONTINUOUS
 62
     7
100
AcDbCircle
 10
182.5
 20
215.0
 30
0.0
 40
16.0
100
AcDbArc
 50
143.575424
 51
171.424576
  0
ARC
  5
145
330
1F
100
AcDbEntity
  8
1
  6
CONTINUOUS
 62
     7
100
AcDbCircle
 10
171.776067
 20
226.874227
 30
0.0
 40
1.0
100
AcDbArc
 50
90.0
 51
132.086039
  0
ARC
  5
146
330
1F
100
AcDbEntity
  8
1
  6
CONTINUOUS
 62
     7
100
AcDbCircle
 10
182.5
 20
215.0
 30
0.0
 40
16.0
100
AcDbArc
 50
8.575424
 51
36.424576
  0
LINE
  5
147
330
1F
100
AcDbEntity
  8
1
  6
CENTER
 62
     1
100
AcDbLine
 10
182.5
 20
194.5
 30
0.0
 11
182.5
 21
235.5
 31
0.0
  0
ARC
  5
148
330
1F
100
AcDbEntity
  8
1
  6
CONTINUOUS
 62
     7
100
AcDbCircle
 10
182.5
 20
215.0
 30
0.0
 40
16.0
100
AcDbArc
 50
188.575424
 51
216.424576
  0
LINE
  5
149
330
1F
100
AcDbEntity
  8
1
  6
CONTINUOUS
 62
     7
100
AcDbLine
 10
250.4
 20
230.206906
 30
0.0
 11
248.4
 21
230.206906
 31
0.0
  0
LINE
  5
14A
330
1F
100
AcDbEntity
  8
1
  6
CONTINUOUS
 62
     7
100
AcDbLine
 10
250.4
 20
199.793094
 30
0.0
 11
248.4
 21
199.793094
 31
0.0
  0
ARC
  5
14B
330
1F
100
AcDbEntity
  8
1
  6
CONTINUOUS
 62
     7
100
AcDbCircle
 10
182.5
 20
215.0
 30
0.0
 40
16.0
100
AcDbArc
 50
98.575424
 51
126.424576
  0
LINE
  5
14C
330
1F
100
AcDbEntity
  8
1
  6
CONTINUOUS
 62
     7
100
AcDbLine
 10
250.4
 20
202.125773
 30
0.0
 11
248.4
 21
202.125773
 31
0.0
  0
ARC
  5
14D
330
1F
100
AcDbEntity
  8
1
  6
CONTINUOUS
 62
     7
100
AcDbCircle
 10
182.5
 20
215.0
 30
0.0
 40
17.0
100
AcDbArc
 50
312.0860390000001
 51
317.9139609999999
  0
LINE
  5
14E
330
1F
100
AcDbEntity
  8
1
  6
CONTINUOUS
 62
     7
100
AcDbLine
 10
191.131586
 20
227.874227
 30
0.0
 11
193.223933
 21
227.874227
 31
0.0
  0
LINE
  5
14F
330
1F
100
AcDbEntity
  8
1
  6
CONTINUOUS
 62
     7
100
AcDbLine
 10
195.374227
 20
206.368414
 30
0.0
 11
195.374227
 21
204.276067
 31
0.0
  0
ARC
  5
150
330
1F
100
AcDbEntity
  8
1
  6
CONTINUOUS
 62
     7
100
AcDbCircle
 10
198.479312
 20
215.813381
 30
0.0
 40
1.0
100
AcDbArc
 50
2.913961
 51
45.0
  0
LINE
  5
151
330
1F
100
AcDbEntity
  8
1
  6
CONTINUOUS
 62
     7
100
AcDbLine
 10
169.625773
 20
204.276067
 30
0.0
 11
169.625773
 21
206.368414
 31
0.0
  0
LINE
  5
152
330
1F
100
AcDbEntity
  8
1
  6
CONTINUOUS
 62
     7
100
AcDbLine
 10
265.4
 20
197.5
 30
0.0
 11
275.9
 21
197.5
 31
0.0
  0
LINE
  5
153
330
1F
100
AcDbEntity
  8
1
  6
CONTINUOUS
 62
     7
100
AcDbLine
 10
251.4
 20
231.0
 30
0.0
 11
251.4
 21
199.0
 31
0.0
  0
ARC
  5
154
330
1F
100
AcDbEntity
  8
1
  6
CONTINUOUS
 62
     7
100
AcDbCircle
 10
183.313381
 20
230.979312
 30
0.0
 40
1.0
100
AcDbArc
 50
45.0
 51
87.086039
  0
ARC
  5
155
330
1F
100
AcDbEntity
  8
1
  6
CONTINUOUS
 62
     7
100
AcDbCircle
 10
194.374227
 20
204.276067
 30
0.0
 40
1.0
100
AcDbArc
 50
317.9139609999999
 51
0.0
  0
ARC
  5
156
330
1F
100
AcDbEntity
  8
1
  6
CONTINUOUS
 62
     7
100
AcDbCircle
 10
182.5
 20
215.0
 30
0.0
 40
16.0
100
AcDbArc
 50
278.575424
 51
306.424576
  0
LINE
  5
157
330
1F
100
AcDbEntity
  8
1
  6
CONTINUOUS
 62
     7
100
AcDbLine
 10
250.4
 20
231.686419
 30
0.0
 11
248.4
 21
231.686419
 31
0.0
  0
LINE
  5
158
330
1F
100
AcDbEntity
  8
1
  6
CONTINUOUS
 62
     7
100
AcDbLine
 10
248.4
 20
227.874227
 30
0.0
 11
250.4
 21
227.874227
 31
0.0
  0
LINE
  5
159
330
1F
100
AcDbEntity
  8
1
  6
CONTINUOUS
 62
     7
100
AcDbLine
 10
248.4
 20
232.0
 30
0.0
 11
248.4
 21
198.0
 31
0.0
  0
ARC
  5
15A
330
1F
100
AcDbEntity
  8
1
  6
CONTINUOUS
 62
     7
100
AcDbCircle
 10
182.5
 20
215.0
 30
0.0
 40
16.0
100
AcDbArc
 50
323.575424
 51
351.4245760000001
  0
LINE
  5
15B
330
1F
100
AcDbEntity
  8
1
  6
CONTINUOUS
 62
     7
100
AcDbLine
 10
233.9
 20
202.9415
 30
0.0
 11
233.9
 21
227.0585
 31
0.0
  0
LINE
  5
15C
330
1F
100
AcDbEntity
  8
1
  6
CONTINUOUS
 62
     7
100
AcDbLine
 10
248.4
 20
202.383634
 30
0.0
 11
250.4
 21
202.383634
 31
0.0
  0
LINE
  5
15D
330
1F
100
AcDbEntity
  8
1
  6
CONTINUOUS
 62
     7
100
AcDbLine
 10
250.4
 20
227.616366
 30
0.0
 11
248.4
 21
227.616366
 31
0.0
  0
LINE
  5
15E
330
1F
100
AcDbEntity
  8
1
  6
CONTINUOUS
 62
     7
100
AcDbLine
 10
250.4
 20
203.605821
 30
0.0
 11
248.4
 21
203.605821
 31
0.0
  0
LINE
  5
15F
330
1F
100
AcDbEntity
  8
1
  6
CONTINUOUS
 62
     7
100
AcDbLine
 10
248.4
 20
226.394179
 30
0.0
 11
250.4
 21
226.394179
 31
0.0
  0
LINE
  5
160
330
1F
100
AcDbEntity
  8
1
  6
CONTINUOUS
 62
     7
100
AcDbLine
 10
250.4
 20
206.368414
 30
0.0
 11
248.4
 21
206.368414
 31
0.0
  0
LINE
  5
161
330
1F
100
AcDbEntity
  8
1
  6
CONTINUOUS
 62
     7
100
AcDbLine
 10
275.9
 20
232.5
 30
0.0
 11
265.4
 21
232.5
 31
0.0
  0
ARC
  5
162
330
1F
100
AcDbEntity
  8
1
  6
CONTINUOUS
 62
     7
100
AcDbCircle
 10
182.5
 20
215.0
 30
0.0
 40
17.0
100
AcDbArc
 50
42.08603900000001
 51
47.91396100000001
  0
ARC
  5
163
330
1F
100
AcDbEntity
  8
1
  6
CONTINUOUS
 62
     7
100
AcDbCircle
 10
182.5
 20
215.0
 30
0.0
 40
17.0
100
AcDbArc
 50
87.086039
 51
92.913961
  0
ARC
  5
164
330
1F
100
AcDbEntity
  8
1
  6
CONTINUOUS
 62
     7
100
AcDbCircle
 10
182.5
 20
215.0
 30
0.0
 40
17.0
100
AcDbArc
 50
132.086039
 51
137.913961
  0
LINE
  5
165
330
1F
100
AcDbEntity
  8
1
  6
CONTINUOUS
 62
     7
100
AcDbLine
 10
169.625773
 20
223.631586
 30
0.0
 11
169.625773
 21
225.723933
 31
0.0
  0
ARC
  5
166
330
1F
100
AcDbEntity
  8
1
  6
CONTINUOUS
 62
     7
100
AcDbCircle
 10
194.374227
 20
225.723933
 30
0.0
 40
1.0
100
AcDbArc
 50
0.0
 51
42.08603900000001
  0
ARC
  5
167
330
1F
100
AcDbEntity
  8
1
  6
CONTINUOUS
 62
     7
100
AcDbCircle
 10
193.223933
 20
226.874227
 30
0.0
 40
1.0
100
AcDbArc
 50
47.91396100000001
 51
90.0
  0
ARC
  5
168
330
1F
100
AcDbEntity
  8
1
  6
CONTINUOUS
 62
     7
100
AcDbCircle
 10
182.5
 20
215.0
 30
0.0
 40
17.0
100
AcDbArc
 50
222.086039
 51
227.913961
  0
LINE
  5
169
330
1F
100
AcDbEntity
  8
1
  6
CONTINUOUS
 62
     7
100
AcDbLine
 10
265.9
 20
218.279173
 30
0.0
 11
274.9
 21
218.279173
 31
0.0
  0
LINE
  5
16A
330
1F
100
AcDbEntity
  8
1
  6
CONTINUOUS
 62
     7
100
AcDbLine
 10
265.9
 20
215.0
 30
0.0
 11
274.9
 21
215.0
 31
0.0
  0
LINE
  5
16B
330
1F
100
AcDbEntity
  8
1
  6
CONTINUOUS
 62
     7
100
AcDbLine
 10
265.9
 20
219.352073
 30
0.0
 11
274.9
 21
219.352073
 31
0.0
  0
LINE
  5
16C
330
1F
100
AcDbEntity
  8
1
  6
CONTINUOUS
 62
     7
100
AcDbLine
 10
265.9
 20
220.407797
 30
0.0
 11
274.9
 21
220.407797
 31
0.0
  0
LINE
  5
16D
330
1F
100
AcDbEntity
  8
1
  6
CONTINUOUS
 62
     7
100
AcDbLine
 10
265.9
 20
222.451138
 30
0.0
 11
274.9
 21
222.451138
 31
0.0
  0
LINE
  5
16E
330
1F
100
AcDbEntity
  8
1
  6
CONTINUOUS
 62
     7
100
AcDbLine
 10
265.9
 20
223.430689
 30
0.0
 11
274.9
 21
223.430689
 31
0.0
  0
LINE
  5
16F
330
1F
100
AcDbEntity
  8
1
  6
CONTINUOUS
 62
     7
100
AcDbLine
 10
265.9
 20
208.55782
 30
0.0
 11
274.9
 21
208.55782
 31
0.0
  0
LINE
  5
170
330
1F
100
AcDbEntity
  8
1
  6
CONTINUOUS
 62
     7
100
AcDbLine
 10
265.9
 20
205.623031
 30
0.0
 11
274.9
 21
205.623031
 31
0.0
  0
LINE
  5
171
330
1F
100
AcDbEntity
  8
1
  6
CONTINUOUS
 62
     7
100
AcDbLine
 10
265.9
 20
224.376969
 30
0.0
 11
274.9
 21
224.376969
 31
0.0
  0
LINE
  5
172
330
1F
100
AcDbEntity
  8
1
  6
CONTINUOUS
 62
     7
100
AcDbLine
 10
265.9
 20
209.592203
 30
0.0
 11
274.9
 21
209.592203
 31
0.0
  0
LINE
  5
173
330
1F
100
AcDbEntity
  8
1
  6
CONTINUOUS
 62
     7
100
AcDbLine
 10
265.9
 20
210.647927
 30
0.0
 11
274.9
 21
210.647927
 31
0.0
  0
LINE
  5
174
330
1F
100
AcDbEntity
  8
1
  6
CONTINUOUS
 62
     7
100
AcDbLine
 10
265.9
 20
221.44218
 30
0.0
 11
274.9
 21
221.44218
 31
0.0
  0
LINE
  5
175
330
1F
100
AcDbEntity
  8
1
  6
CONTINUOUS
 62
     7
100
AcDbLine
 10
265.9
 20
206.569311
 30
0.0
 11
274.9
 21
206.569311
 31
0.0
  0
LINE
  5
176
330
1F
100
AcDbEntity
  8
1
  6
CONTINUOUS
 62
     7
100
AcDbLine
 10
265.9
 20
204.713758
 30
0.0
 11
274.9
 21
204.713758
 31
0.0
  0
LINE
  5
177
330
1F
100
AcDbEntity
  8
1
  6
CONTINUOUS
 62
     7
100
AcDbLine
 10
265.9
 20
225.286242
 30
0.0
 11
274.9
 21
225.286242
 31
0.0
  0
LINE
  5
178
330
1F
100
AcDbEntity
  8
1
  6
CONTINUOUS
 62
     7
100
AcDbLine
 10
265.9
 20
203.84508
 30
0.0
 11
274.9
 21
203.84508
 31
0.0
  0
LINE
  5
179
330
1F
100
AcDbEntity
  8
1
  6
CONTINUOUS
 62
     7
100
AcDbLine
 10
265.9
 20
226.15492
 30
0.0
 11
274.9
 21
226.15492
 31
0.0
  0
LINE
  5
17A
330
1F
100
AcDbEntity
  8
1
  6
CONTINUOUS
 62
     7
100
AcDbLine
 10
265.9
 20
207.548862
 30
0.0
 11
274.9
 21
207.548862
 31
0.0
  0
LINE
  5
17B
330
1F
100
AcDbEntity
  8
1
  6
CONTINUOUS
 62
     7
100
AcDbLine
 10
265.9
 20
216.098834
 30
0.0
 11
274.9
 21
216.098834
 31
0.0
  0
LINE
  5
17C
330
1F
100
AcDbEntity
  8
1
  6
CONTINUOUS
 62
     7
100
AcDbLine
 10
265.9
 20
213.901166
 30
0.0
 11
274.9
 21
213.901166
 31
0.0
  0
LINE
  5
17D
330
1F
100
AcDbEntity
  8
1
  6
CONTINUOUS
 62
     7
100
AcDbLine
 10
265.9
 20
212.806668
 30
0.0
 11
274.9
 21
212.806668
 31
0.0
  0
LINE
  5
17E
330
1F
100
AcDbEntity
  8
1
  6
CONTINUOUS
 62
     7
100
AcDbLine
 10
265.9
 20
211.720827
 30
0.0
 11
274.9
 21
211.720827
 31
0.0
  0
LINE
  5
17F
330
1F
100
AcDbEntity
  8
1
  6
CONTINUOUS
 62
     7
100
AcDbLine
 10
265.9
 20
217.193332
 30
0.0
 11
274.9
 21
217.193332
 31
0.0
  0
LINE
  5
180
330
1F
100
AcDbEntity
  8
1
  6
CONTINUOUS
 62
     7
100
AcDbLine
 10
277.9
 20
230.5
 30
0.0
 11
277.9
 21
199.5
 31
0.0
  0
CIRCLE
  5
181
330
1F
100
AcDbEntity
  8
0
  6
CONTINUOUS
 62
     7
100
AcDbCircle
 10
182.5
 20
215.0
 30
0.0
 40
8.0
  0
LINE
  5
182
330
1F
100
AcDbEntity
  8
2
  6
CONTINUOUS
 62
     7
100
AcDbLine
 10
177.302718
 20
201.41196
 30
0.0
 11
177.248266
 21
201.459669
 31
0.0
  0
LINE
  5
183
330
1F
100
AcDbEntity
  8
2
  6
CONTINUOUS
 62
     7
100
AcDbLine
 10
184.792741
 20
200.633827
 30
0.0
 11
184.864752
 21
200.365601
 31
0.0
  0
LINE
  5
184
330
1F
100
AcDbEntity
  8
2
  6
CONTINUOUS
 62
     7
100
AcDbLine
 10
173.134881
 20
203.50861
 30
0.0
 11
173.331357
 21
203.704896
 31
0.0
  0
LINE
  5
185
330
1F
100
AcDbEntity
  8
2
  6
CONTINUOUS
 62
     7
100
AcDbLine
 10
180.207277
 20
229.366176
 30
0.0
 11
180.135266
 21
229.634403
 31
0.0
  0
LINE
  5
186
330
1F
100
AcDbEntity
  8
2
  6
CONTINUOUS
 62
     7
100
AcDbLine
 10
184.864752
 20
229.634403
 30
0.0
 11
184.792741
 21
229.366176
 31
0.0
  0
LINE
  5
187
330
1F
100
AcDbEntity
  8
2
  6
CONTINUOUS
 62
     7
100
AcDbLine
 10
196.356143
 20
220.269275
 30
0.0
 11
196.622044
 21
219.703797
 31
0.0
  0
LINE
  5
188
330
1F
100
AcDbEntity
  8
2
  6
CONTINUOUS
 62
     7
100
AcDbLine
 10
180.135266
 20
200.365601
 30
0.0
 11
180.207277
 21
200.633827
 31
0.0
  0
LINE
  5
189
330
1F
100
AcDbEntity
  8
2
  6
CONTINUOUS
 62
     7
100
AcDbLine
 10
177.230736
 20
228.856136
 30
0.0
 11
177.802822
 21
229.124508
 31
0.0
  0
LINE
  5
18A
330
1F
100
AcDbEntity
  8
2
  6
CONTINUOUS
 62
     7
100
AcDbLine
 10
173.134881
 20
226.491393
 30
0.0
 11
172.622358
 21
226.13504
 31
0.0
  0
LINE
  5
18B
330
1F
100
AcDbEntity
  8
2
  6
CONTINUOUS
 62
     7
100
AcDbLine
 10
168.643875
 20
209.730729
 30
0.0
 11
168.37803
 21
210.296042
 31
0.0
  0
LINE
  5
18C
330
1F
100
AcDbEntity
  8
2
  6
CONTINUOUS
 62
     7
100
AcDbLine
 10
193.9914
 20
205.634874
 30
0.0
 11
193.795115
 21
205.83135
 31
0.0
  0
LINE
  5
18D
330
1F
100
AcDbEntity
  8
2
  6
CONTINUOUS
 62
     7
100
AcDbLine
 10
193.795115
 20
205.83135
 30
0.0
 11
193.818107
 21
205.899349
 31
0.0
  0
LINE
  5
18E
330
1F
100
AcDbEntity
  8
2
  6
CONTINUOUS
 62
     7
100
AcDbLine
 10
168.912171
 20
209.802479
 30
0.0
 11
168.959564
 21
209.748568
 31
0.0
  0
LINE
  5
18F
330
1F
100
AcDbEntity
  8
2
  6
CONTINUOUS
 62
     7
100
AcDbLine
 10
180.207277
 20
229.366176
 30
0.0
 11
180.27789
 21
229.352132
 31
0.0
  0
LINE
  5
190
330
1F
100
AcDbEntity
  8
2
  6
CONTINUOUS
 62
     7
100
AcDbLine
 10
177.302486
 20
201.412164
 30
0.0
 11
177.230736
 21
201.143868
 31
0.0
  0
LINE
  5
191
330
1F
100
AcDbEntity
  8
2
  6
CONTINUOUS
 62
     7
100
AcDbLine
 10
180.135266
 20
200.365601
 30
0.0
 11
179.512598
 21
200.418063
 31
0.0
  0
LINE
  5
192
330
1F
100
AcDbEntity
  8
2
  6
CONTINUOUS
 62
     7
100
AcDbLine
 10
171.181779
 20
224.100503
 30
0.0
 11
171.208577
 21
224.167397
 31
0.0
  0
LINE
  5
193
330
1F
100
AcDbEntity
  8
2
  6
CONTINUOUS
 62
     7
100
AcDbLine
 10
173.399609
 20
226.318311
 30
0.0
 11
173.332198
 21
226.291675
 31
0.0
  0
LINE
  5
194
330
1F
100
AcDbEntity
  8
2
  6
CONTINUOUS
 62
     7
100
AcDbLine
 10
187.769282
 20
201.143867
 30
0.0
 11
187.697532
 21
201.412164
 31
0.0
  0
LINE
  5
195
330
1F
100
AcDbEntity
  8
2
  6
CONTINUOUS
 62
     7
100
AcDbLine
 10
196.621876
 20
210.2958
 30
0.0
 11
196.356143
 21
209.730729
 31
0.0
  0
LINE
  5
196
330
1F
100
AcDbEntity
  8
2
  6
CONTINUOUS
 62
     7
100
AcDbLine
 10
197.13441
 20
212.635259
 30
0.0
 11
197.081972
 21
212.012693
 31
0.0
  0
LINE
  5
197
330
1F
100
AcDbEntity
  8
2
  6
CONTINUOUS
 62
     7
100
AcDbLine
 10
196.866183
 20
217.292734
 30
0.0
 11
197.13441
 21
217.364745
 31
0.0
  0
LINE
  5
198
330
1F
100
AcDbEntity
  8
2
  6
CONTINUOUS
 62
     7
100
AcDbLine
 10
185.487832
 20
200.418135
 30
0.0
 11
184.864752
 21
200.365601
 31
0.0
  0
LINE
  5
199
330
1F
100
AcDbEntity
  8
2
  6
CONTINUOUS
 62
     7
100
AcDbLine
 10
173.331357
 20
226.295108
 30
0.0
 11
173.134881
 21
226.491393
 31
0.0
  0
LINE
  5
19A
330
1F
100
AcDbEntity
  8
2
  6
CONTINUOUS
 62
     7
100
AcDbLine
 10
196.866243
 20
212.706968
 30
0.0
 11
196.852147
 21
212.777947
 31
0.0
  0
LINE
  5
19B
330
1F
100
AcDbEntity
  8
2
  6
CONTINUOUS
 62
     7
100
AcDbLine
 10
171.008618
 20
224.36513
 30
0.0
 11
171.204903
 21
224.168653
 31
0.0
  0
LINE
  5
19C
330
1F
100
AcDbEntity
  8
2
  6
CONTINUOUS
 62
     7
100
AcDbLine
 10
197.13441
 20
212.635259
 30
0.0
 11
196.866183
 21
212.70727
 31
0.0
  0
LINE
  5
19D
330
1F
100
AcDbEntity
  8
2
  6
CONTINUOUS
 62
     7
100
AcDbLine
 10
168.133835
 20
212.70727
 30
0.0
 11
167.865608
 21
212.635259
 31
0.0
  0
LINE
  5
19E
330
1F
100
AcDbEntity
  8
2
  6
CONTINUOUS
 62
     7
100
AcDbLine
 10
196.087847
 20
209.802479
 30
0.0
 11
196.356143
 21
209.730729
 31
0.0
  0
LINE
  5
19F
330
1F
100
AcDbEntity
  8
2
  6
CONTINUOUS
 62
     7
100
AcDbLine
 10
191.668661
 20
203.704896
 30
0.0
 11
191.865137
 21
203.50861
 31
0.0
  0
LINE
  5
1A0
330
1F
100
AcDbEntity
  8
2
  6
CONTINUOUS
 62
     7
100
AcDbLine
 10
187.697463
 20
201.412103
 30
0.0
 11
187.750897
 21
201.459345
 31
0.0
  0
LINE
  5
1A1
330
1F
100
AcDbEntity
  8
2
  6
CONTINUOUS
 62
     7
100
AcDbLine
 10
196.087847
 20
209.802479
 30
0.0
 11
196.040378
 21
209.748348
 31
0.0
  0
LINE
  5
1A2
330
1F
100
AcDbEntity
  8
2
  6
CONTINUOUS
 62
     7
100
AcDbLine
 10
168.133816
 20
212.707179
 30
0.0
 11
168.148007
 21
212.77711
 31
0.0
  0
LINE
  5
1A3
330
1F
100
AcDbEntity
  8
2
  6
CONTINUOUS
 62
     7
100
AcDbLine
 10
197.08206
 20
217.986779
 30
0.0
 11
197.13441
 21
217.364745
 31
0.0
  0
LINE
  5
1A4
330
1F
100
AcDbEntity
  8
2
  6
CONTINUOUS
 62
     7
100
AcDbLine
 10
171.181759
 20
205.899525
 30
0.0
 11
171.208577
 21
205.832605
 31
0.0
  0
LINE
  5
1A5
330
1F
100
AcDbEntity
  8
2
  6
CONTINUOUS
 62
     7
100
AcDbLine
 10
191.668747
 20
226.295079
 30
0.0
 11
191.601117
 21
226.317733
 31
0.0
  0
LINE
  5
1A6
330
1F
100
AcDbEntity
  8
2
  6
CONTINUOUS
 62
     7
100
AcDbLine
 10
177.795608
 20
200.878186
 30
0.0
 11
177.230736
 21
201.143867
 31
0.0
  0
LINE
  5
1A7
330
1F
100
AcDbEntity
  8
2
  6
CONTINUOUS
 62
     7
100
AcDbLine
 10
171.365117
 20
205.122207
 30
0.0
 11
171.008618
 21
205.634874
 31
0.0
  0
LINE
  5
1A8
330
1F
100
AcDbEntity
  8
2
  6
CONTINUOUS
 62
     7
100
AcDbLine
 10
177.230736
 20
228.856136
 30
0.0
 11
177.302486
 21
228.58784
 31
0.0
  0
LINE
  5
1A9
330
1F
100
AcDbEntity
  8
2
  6
CONTINUOUS
 62
     7
100
AcDbLine
 10
167.917996
 20
212.013085
 30
0.0
 11
167.865608
 21
212.635259
 31
0.0
  0
LINE
  5
1AA
330
1F
100
AcDbEntity
  8
2
  6
CONTINUOUS
 62
     7
100
AcDbLine
 10
196.356143
 20
220.269275
 30
0.0
 11
196.087847
 21
220.197525
 31
0.0
  0
LINE
  5
1AB
330
1F
100
AcDbEntity
  8
2
  6
CONTINUOUS
 62
     7
100
AcDbLine
 10
184.792741
 20
229.366176
 30
0.0
 11
184.722357
 21
229.352088
 31
0.0
  0
LINE
  5
1AC
330
1F
100
AcDbEntity
  8
2
  6
CONTINUOUS
 62
     7
100
AcDbLine
 10
168.643875
 20
209.730729
 30
0.0
 11
168.912171
 21
209.802479
 31
0.0
  0
LINE
  5
1AD
330
1F
100
AcDbEntity
  8
2
  6
CONTINUOUS
 62
     7
100
AcDbLine
 10
192.377761
 20
203.865066
 30
0.0
 11
191.865137
 21
203.50861
 31
0.0
  0
LINE
  5
1AE
330
1F
100
AcDbEntity
  8
2
  6
CONTINUOUS
 62
     7
100
AcDbLine
 10
193.9914
 20
205.634874
 30
0.0
 11
193.634748
 21
205.121989
 31
0.0
  0
LINE
  5
1AF
330
1F
100
AcDbEntity
  8
2
  6
CONTINUOUS
 62
     7
100
AcDbLine
 10
196.087847
 20
220.197525
 30
0.0
 11
196.040389
 21
220.251626
 31
0.0
  0
LINE
  5
1B0
330
1F
100
AcDbEntity
  8
2
  6
CONTINUOUS
 62
     7
100
AcDbLine
 10
177.302717
 20
228.588043
 30
0.0
 11
177.248296
 21
228.540346
 31
0.0
  0
LINE
  5
1B1
330
1F
100
AcDbEntity
  8
2
  6
CONTINUOUS
 62
     7
100
AcDbLine
 10
193.795115
 20
224.168653
 30
0.0
 11
193.81813
 21
224.100625
 31
0.0
  0
LINE
  5
1B2
330
1F
100
AcDbEntity
  8
2
  6
CONTINUOUS
 62
     7
100
AcDbLine
 10
187.20427
 20
229.121854
 30
0.0
 11
187.769282
 21
228.856136
 31
0.0
  0
LINE
  5
1B3
330
1F
100
AcDbEntity
  8
2
  6
CONTINUOUS
 62
     7
100
AcDbLine
 10
187.697463
 20
228.587901
 30
0.0
 11
187.750929
 21
228.540646
 31
0.0
  0
LINE
  5
1B4
330
1F
100
AcDbEntity
  8
2
  6
CONTINUOUS
 62
     7
100
AcDbLine
 10
187.769282
 20
201.143867
 30
0.0
 11
187.19758
 21
200.875638
 31
0.0
  0
LINE
  5
1B5
330
1F
100
AcDbEntity
  8
2
  6
CONTINUOUS
 62
     7
100
AcDbLine
 10
179.512218
 20
229.581868
 30
0.0
 11
180.135266
 21
229.634403
 31
0.0
  0
LINE
  5
1B6
330
1F
100
AcDbEntity
  8
2
  6
CONTINUOUS
 62
     7
100
AcDbLine
 10
173.398187
 20
226.317124
 30
0.0
 11
174.099579
 21
226.229366
 31
0.0
  0
LINE
  5
1B7
330
1F
100
AcDbEntity
  8
2
  6
CONTINUOUS
 62
     7
100
AcDbLine
 10
196.866243
 20
217.293037
 30
0.0
 11
196.852152
 21
217.222025
 31
0.0
  0
LINE
  5
1B8
330
1F
100
AcDbEntity
  8
2
  6
CONTINUOUS
 62
     7
100
AcDbLine
 10
184.792741
 20
200.633827
 30
0.0
 11
184.72232
 21
200.64791
 31
0.0
  0
LINE
  5
1B9
330
1F
100
AcDbEntity
  8
2
  6
CONTINUOUS
 62
     7
100
AcDbLine
 10
171.365386
 20
224.878145
 30
0.0
 11
171.008618
 21
224.36513
 31
0.0
  0
LINE
  5
1BA
330
1F
100
AcDbEntity
  8
2
  6
CONTINUOUS
 62
     7
100
AcDbLine
 10
168.912171
 20
220.197525
 30
0.0
 11
168.959577
 21
220.25147
 31
0.0
  0
LINE
  5
1BB
330
1F
100
AcDbEntity
  8
2
  6
CONTINUOUS
 62
     7
100
AcDbLine
 10
191.668748
 20
203.704925
 30
0.0
 11
191.601091
 21
203.682249
 31
0.0
  0
LINE
  5
1BC
330
1F
100
AcDbEntity
  8
2
  6
CONTINUOUS
 62
     7
100
AcDbLine
 10
171.204903
 20
205.83135
 30
0.0
 11
171.008618
 21
205.634874
 31
0.0
  0
LINE
  5
1BD
330
1F
100
AcDbEntity
  8
2
  6
CONTINUOUS
 62
     7
100
AcDbLine
 10
173.134881
 20
203.50861
 30
0.0
 11
172.621943
 21
203.865306
 31
0.0
  0
LINE
  5
1BE
330
1F
100
AcDbEntity
  8
2
  6
CONTINUOUS
 62
     7
100
AcDbLine
 10
187.697532
 20
228.58784
 30
0.0
 11
187.769282
 21
228.856136
 31
0.0
  0
LINE
  5
1BF
330
1F
100
AcDbEntity
  8
2
  6
CONTINUOUS
 62
     7
100
AcDbLine
 10
173.331066
 20
203.704995
 30
0.0
 11
173.399584
 21
203.681713
 31
0.0
  0
LINE
  5
1C0
330
1F
100
AcDbEntity
  8
2
  6
CONTINUOUS
 62
     7
100
AcDbLine
 10
168.133816
 20
217.292824
 30
0.0
 11
168.148012
 21
217.222927
 31
0.0
  0
LINE
  5
1C1
330
1F
100
AcDbEntity
  8
2
  6
CONTINUOUS
 62
     7
100
AcDbLine
 10
180.207277
 20
200.633827
 30
0.0
 11
180.277859
 21
200.647876
 31
0.0
  0
ARC
  5
1C2
330
1F
100
AcDbEntity
  8
1
  6
CONTINUOUS
 62
     7
100
AcDbCircle
 10
250.267626
 20
215.337372
 30
0.0
 40
1.28737
100
AcDbArc
 50
36.07207
 51
49.300633
  0
ARC
  5
1C3
330
1F
100
AcDbEntity
  8
1
  6
CONTINUOUS
 62
     7
100
AcDbCircle
 10
250.111368
 20
216.697408
 30
0.0
 40
1.334187
100
AcDbArc
 50
15.0155359833
 51
77.506091
  0
LINE
  5
1C4
330
1F
100
AcDbEntity
  8
2
  6
CONTINUOUS
 62
     7
100
AcDbLine
 10
237.350062
 20
216.859438
 30
0.0
 11
242.875031
 21
216.93289
 31
0.0
  0
LINE
  5
1C5
330
1F
100
AcDbEntity
  8
1
  6
CONTINUOUS
 62
     7
100
AcDbLine
 10
248.4
 20
216.520488
 30
0.0
 11
250.4
 21
216.520488
 31
0.0
  0
LINE
  5
1C6
330
1F
100
AcDbEntity
  8
1
  6
CONTINUOUS
 62
     7
100
AcDbLine
 10
265.9
 20
197.5
 30
0.0
 11
265.9
 21
232.5
 31
0.0
  0
LINE
  5
1C7
330
1F
100
AcDbEntity
  8
2
  6
CONTINUOUS
 62
     7
100
AcDbLine
 10
237.350062
 20
228.861362
 30
0.0
 11
242.875031
 21
229.131207
 31
0.0
  0
ARC
  5
1C8
330
1F
100
AcDbEntity
  8
1
  6
CONTINUOUS
 62
     7
100
AcDbCircle
 10
250.921065
 20
215.813381
 30
0.0
 40
0.478935
100
AcDbArc
 50
0.0
 51
36.07207
  0
LINE
  5
1C9
330
1F
100
AcDbEntity
  8
1
  6
CONTINUOUS
 62
     7
100
AcDbLine
 10
274.9
 20
232.5
 30
0.0
 11
274.9
 21
197.5
 31
0.0
  0
LINE
  5
1CA
330
1F
100
AcDbEntity
  8
2
  6
CONTINUOUS
 62
     7
100
AcDbLine
 10
242.875031
 20
227.198317
 30
0.0
 11
237.350062
 21
227.001923
 31
0.0
  0
ARC
  5
1CB
330
1F
100
AcDbEntity
  8
2
  6
CONTINUOUS
 62
     7
100
AcDbCircle
 10
242.886272
 20
226.374699
 30
0.0
 40
2.100118000000012
100
AcDbArc
 50
269.693316
 51
337.771358
  0
ARC
  5
1CC
330
1F
100
AcDbEntity
  8
1
  6
CONTINUOUS
 62
     7
100
AcDbCircle
 10
250.609609
 20
215.734973
 30
0.0
 40
0.762928
100
AcDbArc
 50
49.300633
 51
77.699784
  0
ARC
  5
1CD
330
1F
100
AcDbEntity
  8
2
  6
CONTINUOUS
 62
     7
100
AcDbCircle
 10
242.89322
 20
232.474614
 30
0.0
 40
3.343455999999994
100
AcDbArc
 50
269.68829
 51
304.491891
  0
ARC
  5
1CE
330
1F
100
AcDbEntity
  8
2
  6
CONTINUOUS
 62
     7
100
AcDbCircle
 10
243.037686
 20
224.624652
 30
0.0
 40
2.578799999999992
100
AcDbArc
 50
66.085747
 51
93.616265
  0
ARC
  5
1CF
330
1F
100
AcDbEntity
  8
2
  6
CONTINUOUS
 62
     7
100
AcDbCircle
 10
242.846214
 20
218.954935
 30
0.0
 40
2.022250000000003
100
AcDbArc
 50
270.816482
 51
49.73301099999997
  0
LINE
  5
1D0
330
1F
100
AcDbEntity
  8
2
  6
CONTINUOUS
 62
     7
100
AcDbLine
 10
242.875031
 20
213.067109
 30
0.0
 11
237.350062
 21
213.140561
 31
0.0
  0
LINE
  5
1D1
330
1F
100
AcDbEntity
  8
1
  6
CONTINUOUS
 62
     7
100
AcDbLine
 10
250.4
 20
213.479512
 30
0.0
 11
248.4
 21
213.479512
 31
0.0
  0
ARC
  5
1D2
330
1F
100
AcDbEntity
  8
2
  6
CONTINUOUS
 62
     7
100
AcDbCircle
 10
242.919767
 20
211.046202
 30
0.0
 40
1.973457000000012
100
AcDbArc
 50
268.7010540000001
 51
56.36055399999999
  0
LINE
  5
1D3
330
1F
100
AcDbEntity
  8
2
  6
CONTINUOUS
 62
     7
100
AcDbLine
 10
242.875031
 20
205.725388
 30
0.0
 11
237.350062
 21
205.923592
 31
0.0
  0
ARC
  5
1D4
330
1F
100
AcDbEntity
  8
2
  6
CONTINUOUS
 62
     7
100
AcDbCircle
 10
243.589688
 20
204.12905
 30
0.0
 40
1.276844999999999
100
AcDbArc
 50
333.0895650000001
 51
56.83302199999996
  0
LINE
  5
1D5
330
1F
100
AcDbEntity
  8
2
  6
CONTINUOUS
 62
     7
100
AcDbLine
 10
242.875031
 20
200.868792
 30
0.0
 11
237.350062
 21
201.138638
 31
0.0
  0
CIRCLE
  5
1D6
330
1F
100
AcDbEntity
  8
1
  6
CONTINUOUS
 62
     7
100
AcDbCircle
 10
182.5
 20
215.0
 30
0.0
 40
15.5
  0
LINE
  5
1D7
330
1F
100
AcDbEntity
  8
1
  6
CONTINUOUS
 62
     7
100
AcDbLine
 10
252.4
 20
229.5
 30
0.0
 11
252.4
 21
200.5
 31
0.0
  0
ARC
  5
1D8
330
1F
100
AcDbEntity
  8
2
  6
CONTINUOUS
 62
     7
100
AcDbCircle
 10
237.254153
 20
214.624013
 30
0.0
 40
2.237482000000013
100
AcDbArc
 50
87.54327200000002
 51
112.017305
  0
LINE
  5
1D9
330
1F
100
AcDbEntity
  8
2
  6
CONTINUOUS
 62
     7
100
AcDbLine
 10
242.875031
 20
230.201358
 30
0.0
 11
237.350062
 21
229.932174
 31
0.0
  0
LINE
  5
1DA
330
1F
100
AcDbEntity
  8
2
  6
CONTINUOUS
 62
     7
100
AcDbLine
 10
236.4
 20
216.665339
 30
0.0
 11
236.4
 21
213.33481
 31
0.0
  0
LINE
  5
1DB
330
1F
100
AcDbEntity
  8
1
  6
CONTINUOUS
 62
     7
100
AcDbLine
 10
250.4
 20
212.0
 30
0.0
 11
248.4
 21
212.0
 31
0.0
  0
LINE
  5
1DC
330
1F
100
AcDbEntity
  8
2
  6
CONTINUOUS
 62
     7
100
AcDbLine
 10
242.875031
 20
220.926747
 30
0.0
 11
237.350062
 21
220.855766
 31
0.0
  0
LINE
  5
1DD
330
1F
100
AcDbEntity
  8
2
  6
CONTINUOUS
 62
     7
100
AcDbLine
 10
236.4
 20
213.33481
 30
0.0
 11
236.415482
 21
213.301685
 31
0.0
  0
LINE
  5
1DE
330
1F
100
AcDbEntity
  8
2
  6
CONTINUOUS
 62
     7
100
AcDbLine
 10
236.399993
 20
213.339695
 30
0.0
 11
236.399993
 21
209.475469
 31
0.0
  0
LINE
  5
1DF
330
1F
100
AcDbEntity
  8
2
  6
CONTINUOUS
 62
     7
100
AcDbLine
 10
237.350062
 20
202.998076
 30
0.0
 11
242.875031
 21
202.801682
 31
0.0
  0
LINE
  5
1E0
330
1F
100
AcDbEntity
  8
2
  6
CONTINUOUS
 62
     7
100
AcDbLine
 10
236.416373
 20
209.408142
 30
0.0
 11
236.4
 21
209.467377
 31
0.0
  0
LINE
  5
1E1
330
1F
100
AcDbEntity
  8
2
  6
CONTINUOUS
 62
     7
100
AcDbLine
 10
236.415351
 20
216.698317
 30
0.0
 11
236.4
 21
216.665339
 31
0.0
  0
ARC
  5
1E2
330
1F
100
AcDbEntity
  8
2
  6
CONTINUOUS
 62
     7
100
AcDbCircle
 10
237.238799
 20
210.572418
 30
0.0
 40
1.432511999999997
100
AcDbArc
 50
235.430765
 51
274.454641
  0
LINE
  5
1E3
330
1F
100
AcDbEntity
  8
2
  6
CONTINUOUS
 62
     7
100
AcDbLine
 10
236.42599
 20
209.392829
 30
0.0
 11
236.416373
 21
209.408142
 31
0.0
  0
LINE
  5
1E4
330
1F
100
AcDbEntity
  8
2
  6
CONTINUOUS
 62
     7
100
AcDbLine
 10
236.405437
 20
220.495137
 30
0.0
 11
236.399993
 21
220.524698
 31
0.0
  0
ARC
  5
1E5
330
1F
100
AcDbEntity
  8
1
  6
CONTINUOUS
 62
     7
100
AcDbCircle
 10
250.4
 20
214.773637
 30
0.0
 40
1.74685
100
AcDbArc
 50
77.699784
 51
90.0
  0
ARC
  5
1E6
330
1F
100
AcDbEntity
  8
2
  6
CONTINUOUS
 62
     7
100
AcDbCircle
 10
237.214314
 20
219.55182
 30
0.0
 40
1.31099300000001
100
AcDbArc
 50
84.056588
 51
127.49103
  0
LINE
  5
1E7
330
1F
100
AcDbEntity
  8
2
  6
CONTINUOUS
 62
     7
100
AcDbLine
 10
236.4
 20
220.53276
 30
0.0
 11
236.416395
 21
220.592026
 31
0.0
  0
LINE
  5
1E8
330
1F
100
AcDbEntity
  8
2
  6
CONTINUOUS
 62
     7
100
AcDbLine
 10
236.4
 20
206.583045
 30
0.0
 11
236.415642
 21
206.467487
 31
0.0
  0
LINE
  5
1E9
330
1F
100
AcDbEntity
  8
2
  6
CONTINUOUS
 62
     7
100
AcDbLine
 10
236.399993
 20
220.524696
 30
0.0
 11
236.399993
 21
216.660483
 31
0.0
  0
LINE
  5
1EA
330
1F
100
AcDbEntity
  8
2
  6
CONTINUOUS
 62
     7
100
AcDbLine
 10
236.4
 20
209.467377
 30
0.0
 11
236.4
 21
206.583045
 31
0.0
  0
LINE
  5
1EB
330
1F
100
AcDbEntity
  8
2
  6
CONTINUOUS
 62
     7
100
AcDbLine
 10
237.350062
 20
209.144233
 30
0.0
 11
242.875031
 21
209.073253
 31
0.0
  0
LINE
  5
1EC
330
1F
100
AcDbEntity
  8
1
  6
CONTINUOUS
 62
     7
100
AcDbLine
 10
250.4
 20
218.0
 30
0.0
 11
248.4
 21
218.0
 31
0.0
  0
CIRCLE
  5
1ED
330
1F
100
AcDbEntity
  8
1
  6
CONTINUOUS
 62
     7
100
AcDbCircle
 10
182.5
 20
215.0
 30
0.0
 40
17.5
  0
ARC
  5
1EE
330
1F
100
AcDbEntity
  8
2
  6
CONTINUOUS
 62
     7
100
AcDbCircle
 10
243.464875
 20
204.584155
 30
0.0
 40
4.821727999999998
100
AcDbArc
 50
262.9733780000001
 51
285.5728539999999
  0
ARC
  5
1EF
330
1F
100
AcDbEntity
  8
2
  6
CONTINUOUS
 62
     7
100
AcDbCircle
 10
242.862073
 20
197.34284
 30
0.0
 40
3.525975999999986
100
AcDbArc
 50
58.042653
 51
89.78942999999998
  0
ARC
  5
1F0
330
1F
100
AcDbEntity
  8
2
  6
CONTINUOUS
 62
     7
100
AcDbCircle
 10
242.939302
 20
218.998504
 30
0.0
 40
1.929313999999988
100
AcDbArc
 50
51.006221
 51
91.90904699999999
  0
ARC
  5
1F1
330
1F
100
AcDbEntity
  8
2
  6
CONTINUOUS
 62
     7
100
AcDbCircle
 10
244.660416
 20
229.891858
 30
0.0
 40
0.2140730000000091
100
AcDbArc
 50
306.112389
 51
91.36277200000002
  0
ARC
  5
1F2
330
1F
100
AcDbEntity
  8
2
  6
CONTINUOUS
 62
     7
100
AcDbCircle
 10
244.662862
 20
200.130575
 30
0.0
 40
0.2141069999999912
100
AcDbArc
 50
296.7807
 51
72.195604
  0
LINE
  5
1F3
330
1F
100
AcDbEntity
  8
2
  6
CONTINUOUS
 62
     7
100
AcDbLine
 10
237.350062
 20
200.067825
 30
0.0
 11
242.875031
 21
199.798641
 31
0.0
  0
ARC
  5
1F4
330
1F
100
AcDbEntity
  8
2
  6
CONTINUOUS
 62
     7
100
AcDbCircle
 10
242.874909
 20
211.164537
 30
0.0
 40
1.902572999999991
100
AcDbArc
 50
53.260245
 51
89.99633500000003
  0
ARC
  5
1F5
330
1F
100
AcDbEntity
  8
2
  6
CONTINUOUS
 62
     7
100
AcDbCircle
 10
243.116796
 20
204.869878
 30
0.0
 40
2.082278999999992
100
AcDbArc
 50
263.3325849999999
 51
320.705362
  0
ARC
  5
1F6
330
1F
100
AcDbEntity
  8
2
  6
CONTINUOUS
 62
     7
100
AcDbCircle
 10
243.455798
 20
224.385481
 30
0.0
 40
5.844801999999982
100
AcDbArc
 50
78.157051
 51
95.702586
  0
ARC
  5
1F7
330
1F
100
AcDbEntity
  8
2
  6
CONTINUOUS
 62
     7
100
AcDbCircle
 10
242.835354
 20
203.462395
 30
0.0
 40
2.263341000000002
100
AcDbArc
 50
50.065251
 51
88.99552700000001
  0
ARC
  5
1F8
330
1F
100
AcDbEntity
  8
2
  6
CONTINUOUS
 62
     7
100
AcDbCircle
 10
237.255021
 20
215.380314
 30
0.0
 40
2.241768000000005
100
AcDbArc
 50
248.00666
 51
272.429813
  0
LINE
  5
1F9
330
1F
100
AcDbEntity
  8
2
  6
CONTINUOUS
 62
     7
100
AcDbLine
 10
237.350062
 20
224.076408
 30
0.0
 11
242.875031
 21
224.274611
 31
0.0
  0
LINE
  5
1FA
330
1F
100
AcDbEntity
  8
2
  6
CONTINUOUS
 62
     7
100
AcDbLine
 10
236.399993
 20
209.475474
 30
0.0
 11
236.405753
 21
209.503857
 31
0.0
  0
ARC
  5
1FB
330
1F
100
AcDbEntity
  8
1
  6
CONTINUOUS
 62
     7
100
AcDbCircle
 10
182.5
 20
215.0
 30
0.0
 40
17.0
100
AcDbArc
 50
357.086039
 51
2.913960999999972
  0
LINE
  5
1FC
330
1F
100
AcDbEntity
  8
1
  6
CONTINUOUS
 62
     7
100
AcDbLine
 10
250.4
 20
223.631586
 30
0.0
 11
248.4
 21
223.631586
 31
0.0
  0
ARC
  5
1FD
330
1F
100
AcDbEntity
  8
2
  6
CONTINUOUS
 62
     7
100
AcDbCircle
 10
243.731168
 20
225.894406
 30
0.0
 40
1.143168999999999
100
AcDbArc
 50
344.047482
 51
72.07242900000001
  0
ARC
  5
1FE
330
1F
100
AcDbEntity
  8
2
  6
CONTINUOUS
 62
     7
100
AcDbCircle
 10
182.500009
 20
215.000002
 30
0.0
 40
14.048751
100
AcDbArc
 50
53.19214900000001
 51
66.807236
  0
ARC
  5
1FF
330
1F
100
AcDbEntity
  8
2
  6
CONTINUOUS
 62
     7
100
AcDbCircle
 10
182.500009
 20
215.000002
 30
0.0
 40
14.048751
100
AcDbArc
 50
23.192146
 51
36.807239
  0
LINE
  5
200
330
1F
100
AcDbEntity
  8
2
  6
CONTINUOUS
 62
     7
100
AcDbLine
 10
236.4
 20
223.417075
 30
0.0
 11
236.4
 21
220.53276
 31
0.0
  0
LINE
  5
201
330
1F
100
AcDbEntity
  8
2
  6
CONTINUOUS
 62
     7
100
AcDbLine
 10
196.449707
 20
213.334662
 30
0.0
 11
196.548761
 21
215.000002
 31
0.0
  0
ARC
  5
202
330
1F
100
AcDbEntity
  8
2
  6
CONTINUOUS
 62
     7
100
AcDbCircle
 10
182.5
 20
215.0
 30
0.0
 40
14.023773
100
AcDbArc
 50
6.799337
 51
23.199928
  0
LINE
  5
203
330
1F
100
AcDbEntity
  8
2
  6
CONTINUOUS
 62
     7
100
AcDbLine
 10
196.54876
 20
215.000002
 30
0.0
 11
196.449724
 21
216.665192
 31
0.0
  0
ARC
  5
204
330
1F
100
AcDbEntity
  8
2
  6
CONTINUOUS
 62
     7
100
AcDbCircle
 10
237.299034
 20
223.089277
 30
0.0
 40
0.9884490000000024
100
AcDbArc
 50
87.040851
 51
153.335966
  0
ARC
  5
205
330
1F
100
AcDbEntity
  8
2
  6
CONTINUOUS
 62
     7
100
AcDbCircle
 10
237.299221
 20
206.910867
 30
0.0
 40
0.9885829999999873
100
AcDbArc
 50
206.647473
 51
272.9479230000001
  0
LINE
  5
206
330
1F
100
AcDbEntity
  8
2
  6
CONTINUOUS
 62
     7
100
AcDbLine
 10
236.4
 20
203.630301
 30
0.0
 11
236.4
 21
202.086597
 31
0.0
  0
LINE
  5
207
330
1F
100
AcDbEntity
  8
2
  6
CONTINUOUS
 62
     7
100
AcDbLine
 10
236.399997
 20
201.905097
 30
0.0
 11
236.399997
 21
201.07489
 31
0.0
  0
ARC
  5
208
330
1F
100
AcDbEntity
  8
2
  6
CONTINUOUS
 62
     7
100
AcDbCircle
 10
237.384785
 20
227.870443
 30
0.0
 40
0.9915259999999926
100
AcDbArc
 50
92.00691200000001
 51
167.959205
  0
LINE
  5
209
330
1F
100
AcDbEntity
  8
2
  6
CONTINUOUS
 62
     7
100
AcDbLine
 10
236.399997
 20
201.074896
 30
0.0
 11
236.404404
 21
201.015808
 31
0.0
  0
LINE
  5
20A
330
1F
100
AcDbEntity
  8
2
  6
CONTINUOUS
 62
     7
100
AcDbLine
 10
236.419326
 20
200.857679
 30
0.0
 11
236.4
 21
201.050303
 31
0.0
  0
ARC
  5
20B
330
1F
100
AcDbEntity
  8
2
  6
CONTINUOUS
 62
     7
100
AcDbCircle
 10
237.392317
 20
201.060918
 30
0.0
 40
0.9939909999999996
100
AcDbArc
 50
191.798342
 51
267.563577
  0
LINE
  5
20C
330
1F
100
AcDbEntity
  8
2
  6
CONTINUOUS
 62
     7
100
AcDbLine
 10
236.399994
 20
203.770753
 30
0.0
 11
236.404327
 21
203.751202
 31
0.0
  0
LINE
  5
20D
330
1F
100
AcDbEntity
  8
2
  6
CONTINUOUS
 62
     7
100
AcDbLine
 10
236.403667
 20
228.984313
 30
0.0
 11
236.421739
 21
229.153373
 31
0.0
  0
LINE
  5
20E
330
1F
100
AcDbEntity
  8
2
  6
CONTINUOUS
 62
     7
100
AcDbLine
 10
236.4
 20
227.913462
 30
0.0
 11
236.4
 21
226.2294091205
 31
0.0
  0
LINE
  5
20F
330
1F
100
AcDbEntity
  8
2
  6
CONTINUOUS
 62
     7
100
AcDbLine
 10
236.416151
 20
203.61443
 30
0.0
 11
236.4147
 21
203.622425
 31
0.0
  0
LINE
  5
210
330
1F
100
AcDbEntity
  8
2
  6
CONTINUOUS
 62
     7
100
AcDbLine
 10
236.403603
 20
228.984229
 30
0.0
 11
236.421545
 21
229.15288
 31
0.0
  0
LINE
  5
211
330
1F
100
AcDbEntity
  8
2
  6
CONTINUOUS
 62
     7
100
AcDbLine
 10
196.54876
 20
215.000002
 30
0.0
 11
197.547512
 21
215.000002
 31
0.0
  0
ARC
  5
212
330
1F
100
AcDbEntity
  8
2
  6
CONTINUOUS
 62
     7
100
AcDbCircle
 10
182.500009
 20
215.000002
 30
0.0
 40
14.048751
100
AcDbArc
 50
83.19214899999999
 51
96.807238
  0
LINE
  5
213
330
1F
100
AcDbEntity
  8
2
  6
CONTINUOUS
 62
     7
100
AcDbLine
 10
236.415044
 20
226.379157
 30
0.0
 11
236.416189
 21
226.385436
 31
0.0
  0
LINE
  5
214
330
1F
100
AcDbEntity
  8
2
  6
CONTINUOUS
 62
     7
100
AcDbLine
 10
236.4
 20
228.949715
 30
0.0
 11
236.419387
 21
229.142641
 31
0.0
  0
LINE
  5
215
330
1F
100
AcDbEntity
  8
2
  6
CONTINUOUS
 62
     7
100
AcDbLine
 10
236.404855
 20
220.495105
 30
0.0
 11
236.414378
 21
220.58815
 31
0.0
  0
ARC
  5
216
330
1F
100
AcDbEntity
  8
2
  6
CONTINUOUS
 62
     7
100
AcDbCircle
 10
182.500007
 20
214.999993
 30
0.0
 40
14.023764
100
AcDbArc
 50
66.79934000000002
 51
83.199938
  0
ARC
  5
217
330
1F
100
AcDbEntity
  8
2
  6
CONTINUOUS
 62
     7
100
AcDbCircle
 10
182.5
 20
215.000004
 30
0.0
 40
14.023773
100
AcDbArc
 50
336.79933
 51
353.199921
  0
LINE
  5
218
330
1F
100
AcDbEntity
  8
2
  6
CONTINUOUS
 62
     7
100
AcDbLine
 10
236.399994
 20
206.59957
 30
0.0
 11
236.399994
 21
206.479244
 31
0.0
  0
LINE
  5
219
330
1F
100
AcDbEntity
  8
2
  6
CONTINUOUS
 62
     7
100
AcDbLine
 10
236.4
 20
226.248212
 30
0.0
 11
236.416378
 21
226.384866
 31
0.0
  0
ARC
  5
21A
330
1F
100
AcDbEntity
  8
2
  6
CONTINUOUS
 62
     7
100
AcDbCircle
 10
182.500009
 20
215.000002
 30
0.0
 40
14.048751
100
AcDbArc
 50
323.192149
 51
336.807238
  0
ARC
  5
21B
330
1F
100
AcDbEntity
  8
2
  6
CONTINUOUS
 62
     7
100
AcDbCircle
 10
182.500003
 20
215.000008
 30
0.0
 40
14.02377
100
AcDbArc
 50
306.799344
 51
323.199942
  0
LINE
  5
21C
330
1F
100
AcDbEntity
  8
2
  6
CONTINUOUS
 62
     7
100
AcDbLine
 10
236.399989
 20
228.062197
 30
0.0
 11
236.399989
 21
227.889736
 31
0.0
  0
LINE
  5
21D
330
1F
100
AcDbEntity
  8
2
  6
CONTINUOUS
 62
     7
100
AcDbLine
 10
236.4
 20
203.751878
 30
0.0
 11
236.4
 21
203.630301
 31
0.0
  0
LINE
  5
21E
330
1F
100
AcDbEntity
  8
2
  6
CONTINUOUS
 62
     7
100
AcDbLine
 10
236.399997
 20
202.11033
 30
0.0
 11
236.399997
 21
202.063517
 31
0.0
  0
LINE
  5
21F
330
1F
100
AcDbEntity
  8
2
  6
CONTINUOUS
 62
     7
100
AcDbLine
 10
236.415073
 20
228.077284
 30
0.0
 11
236.4
 21
227.913462
 31
0.0
  0
ARC
  5
220
330
1F
100
AcDbEntity
  8
2
  6
CONTINUOUS
 62
     7
100
AcDbCircle
 10
237.309031
 20
226.04909
 30
0.0
 40
0.9537159999999933
100
AcDbArc
 50
87.534257
 51
159.385912
  0
LINE
  5
221
330
1F
100
AcDbEntity
  8
2
  6
CONTINUOUS
 62
     7
100
AcDbLine
 10
236.4
 20
202.086597
 30
0.0
 11
236.415041
 21
201.922948
 31
0.0
  0
LINE
  5
222
330
1F
100
AcDbEntity
  8
2
  6
CONTINUOUS
 62
     7
100
AcDbLine
 10
246.4
 20
199.5
 30
0.0
 11
237.349832
 21
199.952508
 31
0.0
  0
LINE
  5
223
330
1F
100
AcDbEntity
  8
2
  6
CONTINUOUS
 62
     7
100
AcDbLine
 10
236.39999
 20
223.543212
 30
0.0
 11
236.39999
 21
223.400575
 31
0.0
  0
ARC
  5
224
330
1F
100
AcDbEntity
  8
2
  6
CONTINUOUS
 62
     7
100
AcDbCircle
 10
237.309048
 20
203.950872
 30
0.0
 40
0.9536780000000133
100
AcDbArc
 50
200.601294
 51
272.464826
  0
ARC
  5
225
330
1F
100
AcDbEntity
  8
2
  6
CONTINUOUS
 62
     7
100
AcDbCircle
 10
237.4
 20
200.951249
 30
0.0
 40
1.000000000000001
100
AcDbArc
 50
180.0
 51
267.130641
  0
LINE
  5
226
330
1F
100
AcDbEntity
  8
2
  6
CONTINUOUS
 62
     7
100
AcDbLine
 10
236.399989
 20
228.925125
 30
0.0
 11
236.399989
 21
228.094388
 31
0.0
  0
LINE
  5
227
330
1F
100
AcDbEntity
  8
2
  6
CONTINUOUS
 62
     7
100
AcDbLine
 10
236.4147
 20
203.622425
 30
0.0
 11
236.403536
 21
203.751187
 31
0.0
  0
ARC
  5
228
330
1F
100
AcDbEntity
  8
2
  6
CONTINUOUS
 62
     7
100
AcDbCircle
 10
237.4
 20
229.048751
 30
0.0
 40
1.000000000000001
100
AcDbArc
 50
92.869359
 51
180.0
  0
ARC
  5
229
330
1F
100
AcDbEntity
  8
2
  6
CONTINUOUS
 62
     7
100
AcDbCircle
 10
182.500003
 20
214.999996
 30
0.0
 40
14.023773
100
AcDbArc
 50
36.799343
 51
53.199937
  0
LINE
  5
22A
330
1F
100
AcDbEntity
  8
2
  6
CONTINUOUS
 62
     7
100
AcDbLine
 10
236.399994
 20
206.479244
 30
0.0
 11
236.399994
 21
203.770747
 31
0.0
  0
LINE
  5
22B
330
1F
100
AcDbEntity
  8
2
  6
CONTINUOUS
 62
     7
100
AcDbLine
 10
236.4
 20
229.022553
 30
0.0
 11
236.4
 21
228.949715
 31
0.0
  0
ARC
  5
22C
330
1F
100
AcDbEntity
  8
2
  6
CONTINUOUS
 62
     7
100
AcDbCircle
 10
237.392303
 20
228.939092
 30
0.0
 40
0.9939800000000054
100
AcDbArc
 50
92.435613
 51
168.183259
  0
LINE
  5
22D
330
1F
100
AcDbEntity
  8
2
  6
CONTINUOUS
 62
     7
100
AcDbLine
 10
236.415579
 20
209.406504
 30
0.0
 11
236.414302
 21
209.412124
 31
0.0
  0
LINE
  5
22E
330
1F
100
AcDbEntity
  8
2
  6
CONTINUOUS
 62
     7
100
AcDbLine
 10
236.39999
 20
226.22936
 30
0.0
 11
236.39999
 21
223.543212
 31
0.0
  0
LINE
  5
22F
330
1F
100
AcDbEntity
  8
2
  6
CONTINUOUS
 62
     7
100
AcDbLine
 10
236.399997
 20
202.063517
 30
0.0
 11
236.399997
 21
201.905097
 31
0.0
  0
LINE
  5
230
330
1F
100
AcDbEntity
  8
2
  6
CONTINUOUS
 62
     7
100
AcDbLine
 10
236.404304
 20
226.248829
 30
0.0
 11
236.39999
 21
226.229364
 31
0.0
  0
LINE
  5
231
330
1F
100
AcDbEntity
  8
2
  6
CONTINUOUS
 62
     7
100
AcDbLine
 10
237.349832
 20
230.047491
 30
0.0
 11
246.415173
 21
230.500758
 31
0.0
  0
LINE
  5
232
330
1F
100
AcDbEntity
  8
2
  6
CONTINUOUS
 62
     7
100
AcDbLine
 10
236.399989
 20
228.094388
 30
0.0
 11
236.399989
 21
228.062197
 31
0.0
  0
LINE
  5
233
330
1F
100
AcDbEntity
  8
2
  6
CONTINUOUS
 62
     7
100
AcDbLine
 10
236.414302
 20
209.412124
 30
0.0
 11
236.404842
 21
209.503939
 31
0.0
  0
LINE
  5
234
330
1F
100
AcDbEntity
  8
2
  6
CONTINUOUS
 62
     7
100
AcDbLine
 10
236.415704
 20
223.532852
 30
0.0
 11
236.4
 21
223.417075
 31
0.0
  0
CIRCLE
  5
235
330
1F
100
AcDbEntity
  8
2
  6
CONTINUOUS
 62
     7
100
AcDbCircle
 10
182.500009
 20
215.000002
 30
0.0
 40
13.2205
  0
LINE
  5
236
330
1F
100
AcDbEntity
  8
2
  6
CONTINUOUS
 62
     7
100
AcDbLine
 10
236.415245
 20
216.694593
 30
0.0
 11
236.415412
 21
216.698272
 31
0.0
  0
ARC
  5
237
330
1F
100
AcDbEntity
  8
2
  6
CONTINUOUS
 62
     7
100
AcDbCircle
 10
237.384866
 20
202.129631
 30
0.0
 40
0.991604000000007
100
AcDbArc
 50
192.030527
 51
267.988612
  0
ARC
  5
238
330
1F
100
AcDbEntity
  8
2
  6
CONTINUOUS
 62
     7
100
AcDbCircle
 10
182.500009
 20
215.000002
 30
0.0
 40
14.048751
100
AcDbArc
 50
113.192146
 51
126.807238
  0
ARC
  5
239
330
1F
100
AcDbEntity
  8
2
  6
CONTINUOUS
 62
     7
100
AcDbCircle
 10
182.500011
 20
214.999993
 30
0.0
 40
14.023764
100
AcDbArc
 50
96.799336
 51
113.199928
  0
LINE
  5
23A
330
1F
100
AcDbEntity
  8
2
  6
CONTINUOUS
 62
     7
100
AcDbLine
 10
236.404401
 20
228.984237
 30
0.0
 11
236.399989
 21
228.925128
 31
0.0
  0
LINE
  5
23B
330
1F
100
AcDbEntity
  8
2
  6
CONTINUOUS
 62
     7
100
AcDbLine
 10
236.416357
 20
203.615308
 30
0.0
 11
236.4
 21
203.751878
 31
0.0
  0
LINE
  5
23C
330
1F
100
AcDbEntity
  8
2
  6
CONTINUOUS
 62
     7
100
AcDbLine
 10
236.4
 20
201.050303
 30
0.0
 11
236.4
 21
200.977453
 31
0.0
  0
LINE
  5
23D
330
1F
100
AcDbEntity
  8
2
  6
CONTINUOUS
 62
     7
100
AcDbLine
 10
236.414378
 20
220.58815
 30
0.0
 11
236.415609
 21
220.593552
 31
0.0
  0
LINE
  5
23E
330
1F
100
AcDbEntity
  8
2
  6
CONTINUOUS
 62
     7
100
AcDbLine
 10
169.610274
 20
209.475476
 30
0.0
 11
168.959006
 21
209.750085
 31
0.0
  0
LINE
  5
23F
330
1F
100
AcDbEntity
  8
2
  6
CONTINUOUS
 62
     7
100
AcDbLine
 10
168.148248
 20
212.775709
 30
0.0
 11
168.574878
 21
213.339698
 31
0.0
  0
LINE
  5
240
330
1F
100
AcDbEntity
  8
2
  6
CONTINUOUS
 62
     7
100
AcDbLine
 10
176.975484
 20
227.889734
 30
0.0
 11
177.25003
 21
228.540981
 31
0.0
  0
ARC
  5
241
330
1F
100
AcDbEntity
  8
2
  6
CONTINUOUS
 62
     7
100
AcDbCircle
 10
182.500009
 20
215.000002
 30
0.0
 40
14.048751
100
AcDbArc
 50
293.192148
 51
306.807236
  0
ARC
  5
242
330
1F
100
AcDbEntity
  8
2
  6
CONTINUOUS
 62
     7
100
AcDbCircle
 10
182.500007
 20
215.00001
 30
0.0
 40
14.02377
100
AcDbArc
 50
276.799341
 51
293.199935
  0
ARC
  5
243
330
1F
100
AcDbEntity
  8
2
  6
CONTINUOUS
 62
     7
100
AcDbCircle
 10
182.500009
 20
215.000002
 30
0.0
 40
14.048751
100
AcDbArc
 50
203.192149
 51
216.807238
  0
LINE
  5
244
330
1F
100
AcDbEntity
  8
2
  6
CONTINUOUS
 62
     7
100
AcDbLine
 10
184.723816
 20
200.648165
 30
0.0
 11
184.160316
 21
201.074868
 31
0.0
  0
LINE
  5
245
330
1F
100
AcDbEntity
  8
2
  6
CONTINUOUS
 62
     7
100
AcDbLine
 10
184.160494
 20
228.9251
 30
0.0
 11
184.723946
 21
229.351811
 31
0.0
  0
ARC
  5
246
330
1F
100
AcDbEntity
  8
2
  6
CONTINUOUS
 62
     7
100
AcDbCircle
 10
182.500018
 20
215.000004
 30
0.0
 40
14.023767
100
AcDbArc
 50
186.79933
 51
203.199927
  0
LINE
  5
247
330
1F
100
AcDbEntity
  8
2
  6
CONTINUOUS
 62
     7
100
AcDbLine
 10
196.425116
 20
213.339512
 30
0.0
 11
196.851839
 21
212.776124
 31
0.0
  0
LINE
  5
248
330
1F
100
AcDbEntity
  8
2
  6
CONTINUOUS
 62
     7
100
AcDbLine
 10
187.749592
 20
228.541136
 30
0.0
 11
188.024706
 21
227.889669
 31
0.0
  0
LINE
  5
249
330
1F
100
AcDbEntity
  8
2
  6
CONTINUOUS
 62
     7
100
AcDbLine
 10
188.024538
 20
202.110265
 30
0.0
 11
187.749573
 21
201.458855
 31
0.0
  0
LINE
  5
24A
330
1F
100
AcDbEntity
  8
2
  6
CONTINUOUS
 62
     7
100
AcDbLine
 10
193.817162
 20
224.101795
 30
0.0
 11
193.729377
 21
223.400438
 31
0.0
  0
LINE
  5
24B
330
1F
100
AcDbEntity
  8
2
  6
CONTINUOUS
 62
     7
100
AcDbLine
 10
180.839521
 20
201.074898
 30
0.0
 11
180.276002
 21
200.648194
 31
0.0
  0
ARC
  5
24C
330
1F
100
AcDbEntity
  8
2
  6
CONTINUOUS
 62
     7
100
AcDbCircle
 10
182.500009
 20
215.000002
 30
0.0
 40
14.048751
100
AcDbArc
 50
263.1921459999999
 51
276.8072379999999
  0
LINE
  5
24D
330
1F
100
AcDbEntity
  8
2
  6
CONTINUOUS
 62
     7
100
AcDbLine
 10
195.38975
 20
220.524531
 30
0.0
 11
196.041045
 21
220.249861
 31
0.0
  0
ARC
  5
24E
330
1F
100
AcDbEntity
  8
2
  6
CONTINUOUS
 62
     7
100
AcDbCircle
 10
182.500018
 20
215.0
 30
0.0
 40
14.023767
100
AcDbArc
 50
156.799339
 51
173.199933
  0
ARC
  5
24F
330
1F
100
AcDbEntity
  8
2
  6
CONTINUOUS
 62
     7
100
AcDbCircle
 10
182.500015
 20
214.999996
 30
0.0
 40
14.023765
100
AcDbArc
 50
126.799331
 51
143.199922
  0
LINE
  5
250
330
1F
100
AcDbEntity
  8
2
  6
CONTINUOUS
 62
     7
100
AcDbLine
 10
193.729261
 20
206.599428
 30
0.0
 11
193.817076
 21
205.898109
 31
0.0
  0
LINE
  5
251
330
1F
100
AcDbEntity
  8
2
  6
CONTINUOUS
 62
     7
100
AcDbLine
 10
180.276027
 20
229.351808
 30
0.0
 11
180.839704
 21
228.92513
 31
0.0
  0
LINE
  5
252
330
1F
100
AcDbEntity
  8
2
  6
CONTINUOUS
 62
     7
100
AcDbLine
 10
174.099432
 20
203.770755
 30
0.0
 11
173.398162
 21
203.682896
 31
0.0
  0
LINE
  5
253
330
1F
100
AcDbEntity
  8
2
  6
CONTINUOUS
 62
     7
100
AcDbLine
 10
171.270764
 20
223.400576
 30
0.0
 11
171.182987
 21
224.10195
 31
0.0
  0
ARC
  5
254
330
1F
100
AcDbEntity
  8
2
  6
CONTINUOUS
 62
     7
100
AcDbCircle
 10
182.500009
 20
215.000002
 30
0.0
 40
14.048751
100
AcDbArc
 50
233.192146
 51
246.807238
  0
LINE
  5
255
330
1F
100
AcDbEntity
  8
2
  6
CONTINUOUS
 62
     7
100
AcDbLine
 10
196.041036
 20
209.750119
 30
0.0
 11
195.389684
 21
209.475299
 31
0.0
  0
LINE
  5
256
330
1F
100
AcDbEntity
  8
2
  6
CONTINUOUS
 62
     7
100
AcDbLine
 10
196.851843
 20
217.223852
 30
0.0
 11
196.425146
 21
216.660308
 31
0.0
  0
ARC
  5
257
330
1F
100
AcDbEntity
  8
2
  6
CONTINUOUS
 62
     7
100
AcDbCircle
 10
182.500009
 20
215.000002
 30
0.0
 40
14.048751
100
AcDbArc
 50
143.192146
 51
156.807239
  0
LINE
  5
258
330
1F
100
AcDbEntity
  8
2
  6
CONTINUOUS
 62
     7
100
AcDbLine
 10
191.602187
 20
203.683159
 30
0.0
 11
190.900444
 21
203.770636
 31
0.0
  0
ARC
  5
259
330
1F
100
AcDbEntity
  8
2
  6
CONTINUOUS
 62
     7
100
AcDbCircle
 10
182.500015
 20
215.000008
 30
0.0
 40
14.023768
100
AcDbArc
 50
216.7993260000001
 51
233.199918
  0
LINE
  5
25A
330
1F
100
AcDbEntity
  8
2
  6
CONTINUOUS
 62
     7
100
AcDbLine
 10
171.182967
 20
205.898073
 30
0.0
 11
171.270642
 21
206.599571
 31
0.0
  0
ARC
  5
25B
330
1F
100
AcDbEntity
  8
2
  6
CONTINUOUS
 62
     7
100
AcDbCircle
 10
182.500009
 20
215.000002
 30
0.0
 40
14.048751
100
AcDbArc
 50
173.19215
 51
186.807236
  0
ARC
  5
25C
330
1F
100
AcDbEntity
  8
2
  6
CONTINUOUS
 62
     7
100
AcDbCircle
 10
182.500011
 20
215.00001
 30
0.0
 40
14.02377
100
AcDbArc
 50
246.799334
 51
263.1999260000001
  0
LINE
  5
25D
330
1F
100
AcDbEntity
  8
2
  6
CONTINUOUS
 62
     7
100
AcDbLine
 10
190.900585
 20
226.229255
 30
0.0
 11
191.602205
 21
226.316833
 31
0.0
  0
LINE
  5
25E
330
1F
100
AcDbEntity
  8
2
  6
CONTINUOUS
 62
     7
100
AcDbLine
 10
177.250003
 20
201.459027
 30
0.0
 11
176.975308
 21
202.110329
 31
0.0
  0
LINE
  5
25F
330
1F
100
AcDbEntity
  8
2
  6
CONTINUOUS
 62
     7
100
AcDbLine
 10
168.574908
 20
216.660488
 30
0.0
 11
168.148252
 21
217.22432
 31
0.0
  0
LINE
  5
260
330
1F
100
AcDbEntity
  8
2
  6
CONTINUOUS
 62
     7
100
AcDbLine
 10
168.959053
 20
220.250046
 30
0.0
 11
169.610339
 21
220.5247
 31
0.0
  0
MTEXT
  5
261
330
1F
100
AcDbEntity
  8
1
 62
     7
100
AcDbMText
 10
262.6806516590909
 20
181.7486597272727
 30
0.0
 40
5.0
 41
0.0
 71
     1
 72
     1
  1
{\fＭＳ ゴシック;\W0.873927;ＦＰＫ－１６ＹＰ}
  0
ENDSEC
  0
SECTION
  2
OBJECTS
  0
DICTIONARY
  5
C
330
0
100
AcDbDictionary
  3
ACAD_GROUP
350
D
  3
ACAD_LAYOUT
350
1A
  3
ACAD_MATERIAL
350
43
  3
ACAD_MLEADERSTYLE
350
6B
  3
ACAD_MLINESTYLE
350
17
  3
ACAD_PLOTSETTINGS
350
19
  3
ACAD_SCALELIST
350
47
  3
ACAD_VISUALSTYLE
350
2A
  3
ACDBHEADERROUNDTRIPXREC
350
262
  3
ACDBVARIABLEDICTIONARY
350
283
  0
DICTIONARY
  5
28A
330
8
100
AcDbDictionary
280
     1
  3
ACAD_XREC_ROUNDTRIP
360
28B
  0
DICTIONARY
  5
D
102
{ACAD_REACTORS
330
C
102
}
330
C
100
AcDbDictionary
  0
DICTIONARY
  5
1A
102
{ACAD_REACTORS
330
C
102
}
330
C
100
AcDbDictionary
  0
DICTIONARY
  5
43
102
{ACAD_REACTORS
330
C
102
}
330
C
100
AcDbDictionary
  3
BYBLOCK
350
45
  3
BYLAYER
350
44
  3
GLOBAL
350
46
  0
DICTIONARY
  5
6B
102
{ACAD_REACTORS
330
C
102
}
330
C
100
AcDbDictionary
  3
STANDARD
350
6C
  0
DICTIONARY
  5
17
102
{ACAD_REACTORS
330
C
102
}
330
C
100
AcDbDictionary
  3
STANDARD
350
18
  0
DICTIONARY
  5
19
102
{ACAD_REACTORS
330
C
102
}
330
C
100
AcDbDictionary
  0
DICTIONARY
  5
47
102
{ACAD_REACTORS
330
C
102
}
330
C
100
AcDbDictionary
  3
A0
350
48
  3
A1
350
49
  3
A2
350
4A
  3
A3
350
4B
  3
A4
350
4C
  3
A5
350
4D
  3
A6
350
4E
  3
A7
350
4F
  3
A8
350
50
  3
A9
350
51
  3
B0
350
52
  3
B1
350
53
  3
B2
350
54
  3
B3
350
55
  3
B4
350
56
  3
B5
350
57
  3
B6
350
58
  3
B7
350
59
  3
B8
350
5A
  3
B9
350
5B
  3
C0
350
5C
  3
C1
350
5D
  3
C2
350
5E
  3
C3
350
5F
  3
C4
350
60
  3
C5
350
61
  3
C6
350
62
  3
C7
350
63
  3
C8
350
64
  3
C9
350
65
  3
D0
350
66
  3
D1
350
67
  3
D2
350
68
  0
DICTIONARY
  5
2A
102
{ACAD_REACTORS
330
C
102
}
330
C
100
AcDbDictionary
  3
2DWIREFRAME
350
2F
  3
BASIC
350
32
  3
BRIGHTEN
350
36
  3
COLORCHANGE
350
3A
  3
CONCEPTUAL
350
34
  3
DIM
350
35
  3
EDGECOLOROFF
350
3D
  3
FACEPATTERN
350
39
  3
FLAT
350
2B
  3
FLATWITHEDGES
350
2C
  3
GOURAUD
350
2D
  3
GOURAUDWITHEDGES
350
2E
  3
HIDDEN
350
31
  3
JITTEROFF
350
3B
  3
LINEPATTERN
350
38
  3
OVERHANGOFF
350
3C
  3
REALISTIC
350
33
  3
SHADED
350
42
  3
SHADED_WITH_EDGES
350
41
  3
SHADES_OF_GRAY
350
3E
  3
SKETCHY
350
3F
  3
THICKEN
350
37
  3
WIREFRAME
350
30
  3
X-RAY
350
40
  0
DICTIONARY
  5
262
102
{ACAD_REACTORS
330
C
102
}
330
C
100
AcDbDictionary
  3
CEPSNID
350
26C
  3
CEPSNTYPE
350
26B
  3
DIMSTYLEDATA
350
282
  3
FINGERPRINTGUID
350
26D
  3
HYPERLINKBASE
350
265
  3
INSUNITS
350
26A
  3
LAYOUTDICT
350
267
  3
LWETCUNION
350
269
  3
PLOTSETDICT
350
268
  3
PSVPSCALE
350
26F
  3
PUCSBASE
350
272
  3
PUCSORGBACK
350
278
  3
PUCSORGBOTTOM
350
274
  3
PUCSORGFRONT
350
277
  3
PUCSORGLEFT
350
275
  3
PUCSORGRIGHT
350
276
  3
PUCSORGTOP
350
273
  3
PUCSORTHOREF
350
270
  3
PUCSORTHOVIEW
350
271
  3
STYLESHEET
350
266
  3
TSTACKALIGN
350
263
  3
TSTACKSIZE
350
264
  3
UCSBASE
350
27B
  3
UCSORGBACK
350
281
  3
UCSORGBOTTOM
350
27D
  3
UCSORGFRONT
350
280
  3
UCSORGLEFT
350
27E
  3
UCSORGRIGHT
350
27F
  3
UCSORGTOP
350
27C
  3
UCSORTHOREF
350
279
  3
UCSORTHOVIEW
350
27A
  3
VERSIONGUID
350
26E
  0
DICTIONARY
  5
283
102
{ACAD_REACTORS
330
C
102
}
330
C
100
AcDbDictionary
  3
CANNOSCALE
350
28C
  3
CMLEADERSTYLE
350
285
  3
CTABLESTYLE
350
284
  3
DIMASSOC
350
288
  3
HIDETEXT
350
289
  3
MSLTSCALE
350
28D
  0
XRECORD
  5
28B
102
{ACAD_REACTORS
330
28A
102
}
330
28A
100
AcDbXrecord
102
VTR_0.000_0.000_1.000_1.000_VISUALSTYLE
340
2F
102
VTR_0.000_0.000_1.000_1.000_GRIDDISPLAY
 70
     3
102
VTR_0.000_0.000_1.000_1.000_GRIDMAJOR
 70
     5
102
VTR_0.000_0.000_1.000_1.000_DEFAULTLIGHTING
280
     1
102
VTR_0.000_0.000_1.000_1.000_DEFAULTLIGHTINGTYPE
 70
     1
102
VTR_0.000_0.000_1.000_1.000_BRIGHTNESS
141
0.0
102
VTR_0.000_0.000_1.000_1.000_CONTRAST
142
0.0
  0
MATERIAL
  5
45
102
{ACAD_REACTORS
330
43
102
}
102
{ACAD_XDICTIONARY
360
290
102
}
330
43
100
AcDbMaterial
  1
BYBLOCK
  0
MATERIAL
  5
44
102
{ACAD_REACTORS
330
43
102
}
102
{ACAD_XDICTIONARY
360
28E
102
}
330
43
100
AcDbMaterial
  1
BYLAYER
  0
MATERIAL
  5
46
102
{ACAD_REACTORS
330
43
102
}
102
{ACAD_XDICTIONARY
360
292
102
}
330
43
100
AcDbMaterial
  1
GLOBAL
  0
ACAD_PROXY_OBJECT
  5
6C
102
{ACAD_REACTORS
330
6B
102
}
330
6B
100
AcDbProxyObject
 90
      499
 91
      505
 93
      610
310
40901902A4063FBFFFFFE056BD1B81E855B9FC0AD7A3703D0AD73F4214DD185B99185C9900AD7A3703D0AC73F90141901A02B5E8DC0F42B1CFC02B5E8DC0F42B1CFE5764000000000000300FC0
340
14
340
0
340
11
340
0
 94
        0
1001
ACAD_MLEADERVER
1070
     2
  0
MLINESTYLE
  5
18
102
{ACAD_REACTORS
330
17
102
}
330
17
100
AcDbMlineStyle
  2
Standard
 70
     0
  3

 62
   256
 51
90.0
 52
90.0
 71
     2
 49
0.5
 62
   256
  6
BYLAYER
 49
-0.5
 62
   256
  6
BYLAYER
  0
ACAD_PROXY_OBJECT
  5
48
102
{ACAD_REACTORS
330
47
102
}
330
47
100
AcDbProxyObject
 90
      499
 91
      503
 93
       41
310
903313A31580
  0
ACAD_PROXY_OBJECT
  5
49
102
{ACAD_REACTORS
330
47
102
}
330
47
100
AcDbProxyObject
 90
      499
 91
      503
 93
      105
310
903313A324000000000000004000
  0
ACAD_PROXY_OBJECT
  5
4A
102
{ACAD_REACTORS
330
47
102
}
330
47
100
AcDbProxyObject
 90
      499
 91
      503
 93
      105
310
903313A344000000000000104000
  0
ACAD_PROXY_OBJECT
  5
4B
102
{ACAD_REACTORS
330
47
102
}
330
47
100
AcDbProxyObject
 90
      499
 91
      503
 93
      105
310
903313A354000000000000144000
  0
ACAD_PROXY_OBJECT
  5
4C
102
{ACAD_REACTORS
330
47
102
}
330
47
100
AcDbProxyObject
 90
      499
 91
      503
 93
      105
310
903313A384000000000000204000
  0
ACAD_PROXY_OBJECT
  5
4D
102
{ACAD_REACTORS
330
47
102
}
330
47
100
AcDbProxyObject
 90
      499
 91
      503
 93
      113
310
904313A31304000000000000244000
  0
ACAD_PROXY_OBJECT
  5
4E
102
{ACAD_REACTORS
330
47
102
}
330
47
100
AcDbProxyObject
 90
      499
 91
      503
 93
      113
310
904313A31364000000000000304000
  0
ACAD_PROXY_OBJECT
  5
4F
102
{ACAD_REACTORS
330
47
102
}
330
47
100
AcDbProxyObject
 90
      499
 91
      503
 93
      113
310
904313A32304000000000000344000
  0
ACAD_PROXY_OBJECT
  5
50
102
{ACAD_REACTORS
330
47
102
}
330
47
100
AcDbProxyObject
 90
      499
 91
      503
 93
      113
310
904313A333040000000000003E4000
  0
ACAD_PROXY_OBJECT
  5
51
102
{ACAD_REACTORS
330
47
102
}
330
47
100
AcDbProxyObject
 90
      499
 91
      503
 93
      113
310
904313A34304000000000000444000
  0
ACAD_PROXY_OBJECT
  5
52
102
{ACAD_REACTORS
330
47
102
}
330
47
100
AcDbProxyObject
 90
      499
 91
      503
 93
      113
310
904313A35304000000000000494000
  0
ACAD_PROXY_OBJECT
  5
53
102
{ACAD_REACTORS
330
47
102
}
330
47
100
AcDbProxyObject
 90
      499
 91
      503
 93
      121
310
905313A3130304000000000000594000
  0
ACAD_PROXY_OBJECT
  5
54
102
{ACAD_REACTORS
330
47
102
}
330
47
100
AcDbProxyObject
 90
      499
 91
      503
 93
      105
310
903323A310000000000000010100
  0
ACAD_PROXY_OBJECT
  5
55
102
{ACAD_REACTORS
330
47
102
}
330
47
100
AcDbProxyObject
 90
      499
 91
      503
 93
      105
310
903343A310000000000000410100
  0
ACAD_PROXY_OBJECT
  5
56
102
{ACAD_REACTORS
330
47
102
}
330
47
100
AcDbProxyObject
 90
      499
 91
      503
 93
      105
310
903383A310000000000000810100
  0
ACAD_PROXY_OBJECT
  5
57
102
{ACAD_REACTORS
330
47
102
}
330
47
100
AcDbProxyObject
 90
      499
 91
      503
 93
      113
310
90431303A310000000000000910100
  0
ACAD_PROXY_OBJECT
  5
58
102
{ACAD_REACTORS
330
47
102
}
330
47
100
AcDbProxyObject
 90
      499
 91
      503
 93
      121
310
9053130303A310000000000001650100
  0
ACAD_PROXY_OBJECT
  5
59
102
{ACAD_REACTORS
330
47
102
}
330
47
100
AcDbProxyObject
 90
      499
 91
      503
 93
      257
310
90E312F31323822203D2031272D3022000000000000200FC000000000000284000
  0
ACAD_PROXY_OBJECT
  5
5A
102
{ACAD_REACTORS
330
47
102
}
330
47
100
AcDbProxyObject
 90
      499
 91
      503
 93
      249
310
90D312F363422203D2031272D3022000000000000240FC000000000000284000
  0
ACAD_PROXY_OBJECT
  5
5B
102
{ACAD_REACTORS
330
47
102
}
330
47
100
AcDbProxyObject
 90
      499
 91
      503
 93
      249
310
90D312F333222203D2031272D3022000000000000280FC000000000000284000
  0
ACAD_PROXY_OBJECT
  5
5C
102
{ACAD_REACTORS
330
47
102
}
330
47
100
AcDbProxyObject
 90
      499
 91
      503
 93
      249
310
90D312F313622203D2031272D30220000000000002C0FC000000000000284000
  0
ACAD_PROXY_OBJECT
  5
5D
102
{ACAD_REACTORS
330
47
102
}
330
47
100
AcDbProxyObject
 90
      499
 91
      503
 93
      249
310
90D332F333222203D2031272D30220000000000002E0FC000000000000284000
  0
ACAD_PROXY_OBJECT
  5
5E
102
{ACAD_REACTORS
330
47
102
}
330
47
100
AcDbProxyObject
 90
      499
 91
      503
 93
      241
310
90C312F3822203D2031272D3022000000000000300FC000000000000284000
  0
ACAD_PROXY_OBJECT
  5
5F
102
{ACAD_REACTORS
330
47
102
}
330
47
100
AcDbProxyObject
 90
      499
 91
      503
 93
      249
310
90D332F313622203D2031272D3022000000000000320FC000000000000284000
  0
ACAD_PROXY_OBJECT
  5
60
102
{ACAD_REACTORS
330
47
102
}
330
47
100
AcDbProxyObject
 90
      499
 91
      503
 93
      241
310
90C312F3422203D2031272D3022000000000000340FC000000000000284000
  0
ACAD_PROXY_OBJECT
  5
61
102
{ACAD_REACTORS
330
47
102
}
330
47
100
AcDbProxyObject
 90
      499
 91
      503
 93
      241
310
90C332F3822203D2031272D3022000000000000360FC000000000000284000
  0
ACAD_PROXY_OBJECT
  5
62
102
{ACAD_REACTORS
330
47
102
}
330
47
100
AcDbProxyObject
 90
      499
 91
      503
 93
      241
310
90C312F3222203D2031272D3022000000000000380FC000000000000284000
  0
ACAD_PROXY_OBJECT
  5
63
102
{ACAD_REACTORS
330
47
102
}
330
47
100
AcDbProxyObject
 90
      499
 91
      503
 93
      241
310
90C332F3422203D2031272D30220000000000003A0FC000000000000284000
  0
ACAD_PROXY_OBJECT
  5
64
102
{ACAD_REACTORS
330
47
102
}
330
47
100
AcDbProxyObject
 90
      499
 91
      503
 93
      161
310
90A3122203D2031272D30224000000000000284000
  0
ACAD_PROXY_OBJECT
  5
65
102
{ACAD_REACTORS
330
47
102
}
330
47
100
AcDbProxyObject
 90
      499
 91
      503
 93
      257
310
90E312D312F3222203D2031272D30220000000000003E0FC000000000000284000
  0
ACAD_PROXY_OBJECT
  5
66
102
{ACAD_REACTORS
330
47
102
}
330
47
100
AcDbProxyObject
 90
      499
 91
      503
 93
      225
310
90A3322203D2031272D302200000000000002100000000000000284000
  0
ACAD_PROXY_OBJECT
  5
67
102
{ACAD_REACTORS
330
47
102
}
330
47
100
AcDbProxyObject
 90
      499
 91
      503
 93
      225
310
90A3622203D2031272D302200000000000006100000000000000284000
  0
ACAD_PROXY_OBJECT
  5
68
102
{ACAD_REACTORS
330
47
102
}
330
47
100
AcDbProxyObject
 90
      499
 91
      503
 93
      249
310
90D31272D3022203D2031272D30220000000000000A100000000000000284000
  0
ACAD_PROXY_OBJECT
  5
2F
102
{ACAD_REACTORS
330
2A
102
}
330
2A
100
AcDbProxyObject
 90
      499
 91
      501
 93
      436
310
42CC9915DA5C99599C985B595049028333333333333E33F0000000000000F90107901411070040501600405405064090741402480A0340
1001
ACAD
1000
AcDbSavedByObjectVersion
1070
     0
  0
ACAD_PROXY_OBJECT
  5
32
102
{ACAD_REACTORS
330
2A
102
}
330
2A
100
AcDbProxyObject
 90
      499
 91
      501
 93
      388
310
4150985CDA58D07406404333333333333E33F0000000000000F90107A41107004050150841D405064090741402480A0350
1001
ACAD
1000
AcDbSavedByObjectVersion
1070
     0
  0
ACAD_PROXY_OBJECT
  5
36
102
{ACAD_REACTORS
330
2A
102
}
330
2A
100
AcDbProxyObject
 90
      499
 91
      501
 93
      428
310
42109C9A59DA1D195B90C409028333333333333E33F0000000000000F9010790141107004050150841D405064090741402480A029950
1001
ACAD
1000
AcDbSavedByObjectVersion
1070
     0
  0
ACAD_PROXY_OBJECT
  5
3A
102
{ACAD_REACTORS
330
2A
102
}
330
2A
100
AcDbProxyObject
 90
      499
 91
      501
 93
      452
310
42D0DBDB1BDC90DA185B99D95104090240C333333333333E33F0000000000000F90108901411070040501508421405064090741402480A0350
1001
ACAD
1000
AcDbSavedByObjectVersion
1070
     0
  0
ACAD_PROXY_OBJECT
  5
34
102
{ACAD_REACTORS
330
2A
102
}
330
2A
100
AcDbProxyObject
 90
      499
 91
      501
 93
      500
310
4290DBDB98D95C1D1D585B10940D028333333333333E33F0000000000000F90107902409070040501000000000018199010841D405064090740C02480A0340
1001
ACAD
1000
AcDbSavedByObjectVersion
1070
     0
  0
ACAD_PROXY_OBJECT
  5
35
102
{ACAD_REACTORS
330
2A
102
}
330
2A
100
AcDbProxyObject
 90
      499
 91
      501
 93
      412
310
40D11A5B50B409028333333333333E33F0000000000000F9010790141107004050150841D405064090741402480A02677FFFFFD0
1001
ACAD
1000
AcDbSavedByObjectVersion
1070
     0
  0
ACAD_PROXY_OBJECT
  5
3D
102
{ACAD_REACTORS
330
2A
102
}
330
2A
100
AcDbProxyObject
 90
      499
 91
      501
 93
      452
310
43115919D950DBDB1BDC93D999916409028333333333333E33F0000000000000F9010790141107004050150841D405064090741402480A0350
1001
ACAD
1000
AcDbSavedByObjectVersion
1070
     0
  0
ACAD_PROXY_OBJECT
  5
39
102
{ACAD_REACTORS
330
2A
102
}
330
2A
100
AcDbProxyObject
 90
      499
 91
      501
 93
      444
310
42D19858D95C185D1D195C9B90F409028333333333333E33F0000000000000F9010790141107004050150841D405064090741402480A0350
1001
ACAD
1000
AcDbSavedByObjectVersion
1070
     0
  0
ACAD_PROXY_OBJECT
  5
2B
102
{ACAD_REACTORS
330
2A
102
}
330
2A
100
AcDbProxyObject
 90
      499
 91
      501
 93
      380
310
41119B185D240901404333333333333E33F0000000000000F9010740A907004050150841D405064090741402480A1B50
1001
ACAD
1000
AcDbSavedByObjectVersion
1070
     0
  0
ACAD_PROXY_OBJECT
  5
2C
102
{ACAD_REACTORS
330
2A
102
}
330
2A
100
AcDbProxyObject
 90
      499
 91
      501
 93
      468
310
43519B185D15DA5D1A115919D95CD0140901404333333333333E33F0000000000000F90107409019070040501600405405064090741402480A1B50
1001
ACAD
1000
AcDbSavedByObjectVersion
1070
     0
  0
ACAD_PROXY_OBJECT
  5
2D
102
{ACAD_REACTORS
330
2A
102
}
330
2A
100
AcDbProxyObject
 90
      499
 91
      501
 93
      404
310
41D1DBDD5C985D5910240902404333333333333E33F0000000000000F9010740A9070040501641D405064090741402480A1B50
1001
ACAD
1000
AcDbSavedByObjectVersion
1070
     0
  0
ACAD_PROXY_OBJECT
  5
2E
102
{ACAD_REACTORS
330
2A
102
}
330
2A
100
AcDbProxyObject
 90
      499
 91
      501
 93
      492
310
4411DBDD5C985D5915DA5D1A115919D95CD0340902404333333333333E33F0000000000000F90107409019070040501600405405064090741402480A1B50
1001
ACAD
1000
AcDbSavedByObjectVersion
1070
     0
  0
ACAD_PROXY_OBJECT
  5
31
102
{ACAD_REACTORS
330
2A
102
}
330
2A
100
AcDbProxyObject
 90
      499
 91
      501
 93
      476
310
41921A5919195B90640502408333333333333E33F0000000000000F901079024090700405020000000000001110200405405064090740C02480A0340
1001
ACAD
1000
AcDbSavedByObjectVersion
1070
     0
  0
ACAD_PROXY_OBJECT
  5
3B
102
{ACAD_REACTORS
330
2A
102
}
330
2A
100
AcDbProxyObject
 90
      499
 91
      501
 93
      428
310
42529A5D1D195C93D999914409028333333333333E33F0000000000000F9010790141107004050150A41D405064090741402480A0350
1001
ACAD
1000
AcDbSavedByObjectVersion
1070
     0
  0
ACAD_PROXY_OBJECT
  5
38
102
{ACAD_REACTORS
330
2A
102
}
330
2A
100
AcDbProxyObject
 90
      499
 91
      501
 93
      444
310
42D31A5B995C185D1D195C9B90E409028333333333333E33F0000000000000F9010790141107004050750841D405064090741402483A0350
1001
ACAD
1000
AcDbSavedByObjectVersion
1070
     0
  0
ACAD_PROXY_OBJECT
  5
3C
102
{ACAD_REACTORS
330
2A
102
}
330
2A
100
AcDbProxyObject
 90
      499
 91
      501
 93
      444
310
42D3DD995C9A185B99D3D999915409028333333333333E33F0000000000000F9010790141107004050150941D405064090741402480A0350
1001
ACAD
1000
AcDbSavedByObjectVersion
1070
     0
  0
ACAD_PROXY_OBJECT
  5
33
102
{ACAD_REACTORS
330
2A
102
}
330
2A
100
AcDbProxyObject
 90
      499
 91
      501
 93
      428
310
425499585B1A5CDD1A58D08409038333333333333E33F0000000000000F9010740A907004050150800405405064090740C02480A1B40
1001
ACAD
1000
AcDbSavedByObjectVersion
1070
     0
  0
ACAD_PROXY_OBJECT
  5
42
102
{ACAD_REACTORS
330
2A
102
}
330
2A
100
AcDbProxyObject
 90
      499
 91
      501
 93
      420
310
4194DA1859195911B40902404333333333333E33F0000000000000F9010740A41107004050150800405405064090840C02480A0B40
1001
ACAD
1000
AcDbSavedByObjectVersion
1070
     0
  0
ACAD_PROXY_OBJECT
  5
41
102
{ACAD_REACTORS
330
2A
102
}
330
2A
100
AcDbProxyObject
 90
      499
 91
      501
 93
      516
310
4454DA18591959081DDA5D1A08195919D95CD1A40902404333333333333E33F0000000000000F901074090142907004050250800405405064090740C02480A0B40
1001
ACAD
1000
AcDbSavedByObjectVersion
1070
     0
  0
ACAD_PROXY_OBJECT
  5
3E
102
{ACAD_REACTORS
330
2A
102
}
330
2A
100
AcDbProxyObject
 90
      499
 91
      501
 93
      532
310
4394DA1859195CC81BD98811DC985E5174090240C333333333333E33F0000000000000F901079024090741D01000000000000111010841D405064090740C02480A0340
1001
ACAD
1000
AcDbSavedByObjectVersion
1070
     0
  0
ACAD_PROXY_OBJECT
  5
3F
102
{ACAD_REACTORS
330
2A
102
}
330
2A
100
AcDbProxyObject
 90
      499
 91
      501
 93
      476
310
41D4DAD95D18DA1E51840502408333333333333E33F0000000000000F901079024090741D01000000000000111010B41D405064090741802480A0340
1001
ACAD
1000
AcDbSavedByObjectVersion
1070
     0
  0
ACAD_PROXY_OBJECT
  5
37
102
{ACAD_REACTORS
330
2A
102
}
330
2A
100
AcDbProxyObject
 90
      499
 91
      501
 93
      412
310
41D51A1A58DAD95B90D409028333333333333E33F0000000000000F9010790141107004050150C41D405064090741402480A0350
1001
ACAD
1000
AcDbSavedByObjectVersion
1070
     0
  0
ACAD_PROXY_OBJECT
  5
30
102
{ACAD_REACTORS
330
2A
102
}
330
2A
100
AcDbProxyObject
 90
      499
 91
      501
 93
      420
310
4255DA5C99599C985B595059028333333333333E33F0000000000000F90107901411070040501600405405064090740C02480A0340
1001
ACAD
1000
AcDbSavedByObjectVersion
1070
     0
  0
ACAD_PROXY_OBJECT
  5
40
102
{ACAD_REACTORS
330
2A
102
}
330
2A
100
AcDbProxyObject
 90
      499
 91
      501
 93
      404
310
41560B54985E51940902404000000000000E03F0000000000000F9010740501907004050150841D405064090740C02480A1B40
1001
ACAD
1000
AcDbSavedByObjectVersion
1070
     0
  0
XRECORD
  5
26C
102
{ACAD_REACTORS
330
262
102
}
330
262
100
AcDbXrecord
340
0
  0
XRECORD
  5
26B
102
{ACAD_REACTORS
330
262
102
}
330
262
100
AcDbXrecord
 90
        0
  0
XRECORD
  5
282
102
{ACAD_REACTORS
330
262
102
}
330
262
100
AcDbXrecord
1000
DSTYLE
1002
{
1070
   179
 70
     2
1070
   171
 70
     2
1070
   143
 40
25.4
1070
   274
 70
     2
1070
    41
 40
0.9
1070
   141
 40
0.09
1070
    43
 40
0.38
1070
   278
 70
    46
1070
    44
 40
0.45
1070
    42
 40
0.0625
1070
   147
 40
1.5
1070
   272
 70
     4
1070
    73
 70
     1
1070
   172
 70
     0
1070
    74
 70
     1
1070
   283
 70
     1
1070
   340
340
70
1070
   140
 40
3.0
1070
   284
 70
     0
1070
    78
 70
     0
1002
}
  0
XRECORD
  5
26D
102
{ACAD_REACTORS
330
262
102
}
330
262
100
AcDbXrecord
  1
{4F62886A-66B0-4F24-A80B-6A458155CC02}
  0
XRECORD
  5
265
102
{ACAD_REACTORS
330
262
102
}
330
262
100
AcDbXrecord
  1

  0
XRECORD
  5
26A
102
{ACAD_REACTORS
330
262
102
}
330
262
100
AcDbXrecord
 90
        4
  0
XRECORD
  5
267
102
{ACAD_REACTORS
330
262
102
}
330
262
100
AcDbXrecord
340
1A
  0
XRECORD
  5
269
102
{ACAD_REACTORS
330
262
102
}
330
262
100
AcDbXrecord
 90
    10269
  0
XRECORD
  5
268
102
{ACAD_REACTORS
330
262
102
}
330
262
100
AcDbXrecord
340
19
  0
XRECORD
  5
26F
102
{ACAD_REACTORS
330
262
102
}
330
262
100
AcDbXrecord
 40
0.0
  0
XRECORD
  5
272
102
{ACAD_REACTORS
330
262
102
}
330
262
100
AcDbXrecord
340
0
  0
XRECORD
  5
278
102
{ACAD_REACTORS
330
262
102
}
330
262
100
AcDbXrecord
 10
0.0
 20
0.0
 30
0.0
  0
XRECORD
  5
274
102
{ACAD_REACTORS
330
262
102
}
330
262
100
AcDbXrecord
 10
0.0
 20
0.0
 30
0.0
  0
XRECORD
  5
277
102
{ACAD_REACTORS
330
262
102
}
330
262
100
AcDbXrecord
 10
0.0
 20
0.0
 30
0.0
  0
XRECORD
  5
275
102
{ACAD_REACTORS
330
262
102
}
330
262
100
AcDbXrecord
 10
0.0
 20
0.0
 30
0.0
  0
XRECORD
  5
276
102
{ACAD_REACTORS
330
262
102
}
330
262
100
AcDbXrecord
 10
0.0
 20
0.0
 30
0.0
  0
XRECORD
  5
273
102
{ACAD_REACTORS
330
262
102
}
330
262
100
AcDbXrecord
 10
0.0
 20
0.0
 30
0.0
  0
XRECORD
  5
270
102
{ACAD_REACTORS
330
262
102
}
330
262
100
AcDbXrecord
340
0
  0
XRECORD
  5
271
102
{ACAD_REACTORS
330
262
102
}
330
262
100
AcDbXrecord
 70
     0
  0
XRECORD
  5
266
102
{ACAD_REACTORS
330
262
102
}
330
262
100
AcDbXrecord
  1

  0
XRECORD
  5
263
102
{ACAD_REACTORS
330
262
102
}
330
262
100
AcDbXrecord
 90
        1
  0
XRECORD
  5
264
102
{ACAD_REACTORS
330
262
102
}
330
262
100
AcDbXrecord
 90
       70
  0
XRECORD
  5
27B
102
{ACAD_REACTORS
330
262
102
}
330
262
100
AcDbXrecord
340
0
  0
XRECORD
  5
281
102
{ACAD_REACTORS
330
262
102
}
330
262
100
AcDbXrecord
 10
0.0
 20
0.0
 30
0.0
  0
XRECORD
  5
27D
102
{ACAD_REACTORS
330
262
102
}
330
262
100
AcDbXrecord
 10
0.0
 20
0.0
 30
0.0
  0
XRECORD
  5
280
102
{ACAD_REACTORS
330
262
102
}
330
262
100
AcDbXrecord
 10
0.0
 20
0.0
 30
0.0
  0
XRECORD
  5
27E
102
{ACAD_REACTORS
330
262
102
}
330
262
100
AcDbXrecord
 10
0.0
 20
0.0
 30
0.0
  0
XRECORD
  5
27F
102
{ACAD_REACTORS
330
262
102
}
330
262
100
AcDbXrecord
 10
0.0
 20
0.0
 30
0.0
  0
XRECORD
  5
27C
102
{ACAD_REACTORS
330
262
102
}
330
262
100
AcDbXrecord
 10
0.0
 20
0.0
 30
0.0
  0
XRECORD
  5
279
102
{ACAD_REACTORS
330
262
102
}
330
262
100
AcDbXrecord
340
0
  0
XRECORD
  5
27A
102
{ACAD_REACTORS
330
262
102
}
330
262
100
AcDbXrecord
 70
     0
  0
XRECORD
  5
26E
102
{ACAD_REACTORS
330
262
102
}
330
262
100
AcDbXrecord
  1
{FAEB1C32-E019-11D5-929B-00C0DF256EC4}
  0
DICTIONARYVAR
  5
28C
102
{ACAD_REACTORS
330
283
102
}
330
283
100
DictionaryVariables
280
     0
  1
1:1
  0
DICTIONARYVAR
  5
285
102
{ACAD_REACTORS
330
283
102
}
330
283
100
DictionaryVariables
280
     0
  1
Standard
  0
DICTIONARYVAR
  5
284
102
{ACAD_REACTORS
330
283
102
}
330
283
100
DictionaryVariables
280
     0
  1
Standard
  0
DICTIONARYVAR
  5
288
102
{ACAD_REACTORS
330
283
102
}
330
283
100
DictionaryVariables
280
     0
  1
2
  0
DICTIONARYVAR
  5
289
102
{ACAD_REACTORS
330
283
102
}
330
283
100
DictionaryVariables
280
     0
  1
1
  0
DICTIONARYVAR
  5
28D
102
{ACAD_REACTORS
330
283
102
}
330
283
100
DictionaryVariables
280
     0
  1
1
  0
DICTIONARY
  5
290
330
45
100
AcDbDictionary
280
     1
  3
ACAD_XREC_ROUNDTRIP
360
291
  0
DICTIONARY
  5
28E
330
44
100
AcDbDictionary
280
     1
  3
ACAD_XREC_ROUNDTRIP
360
28F
  0
DICTIONARY
  5
292
330
46
100
AcDbDictionary
280
     1
  3
ACAD_XREC_ROUNDTRIP
360
293
  0
XRECORD
  5
291
102
{ACAD_REACTORS
330
290
102
}
330
290
100
AcDbXrecord
102
MATERIAL
148
0.0
149
0.0
149
0.0
 93
        0
 94
      127
282
     0
 72
     1
 77
     1
171
     1
175
     1
179
     1
273
     0
  0
XRECORD
  5
28F
102
{ACAD_REACTORS
330
28E
102
}
330
28E
100
AcDbXrecord
102
MATERIAL
148
0.0
149
0.0
149
0.0
 93
        0
 94
      127
282
     0
 72
     1
 77
     1
171
     1
175
     1
179
     1
273
     0
  0
XRECORD
  5
293
102
{ACAD_REACTORS
330
292
102
}
330
292
100
AcDbXrecord
102
MATERIAL
148
0.0
149
0.0
149
0.0
 93
        0
 94
      127
282
     0
 72
     1
 77
     1
171
     1
175
     1
179
     1
273
     0
  0
ENDSEC
  0
EOF
