  0
SECTION
  2
HEADER
  9
$ACADVER
  1
AC1004
  9
$INSBASE
 10
0.0
 20
0.0
  9
$EXTMIN
 10
0.0
 20
0.0
  9
$EXTMAX
 10
120.2321023377
 20
146.4523286059
  9
$LIMMIN
 10
0.0
 20
0.0
  9
$LIMMAX
 10
12.0
 20
9.0
  9
$ORTHOMODE
 70
     0
  9
$REGENMODE
 70
     1
  9
$FILLMODE
 70
     1
  9
$QTEXTMODE
 70
     0
  9
$DRAGMODE
 70
     2
  9
$LTSCALE
 40
1.0
  9
$OSMODE
 70
    37
  9
$ATTMODE
 70
     1
  9
$TEXTSIZE
 40
0.2
  9
$TRACEWID
 40
0.05
  9
$TEXTSTYLE
  7
STANDARD
  9
$CLAYER
  8
0
  9
$CELTYPE
  6
BYLAYER
  9
$CECOLOR
 62
   256
  9
$DIMSCALE
 40
1.0
  9
$DIMASZ
 40
1.5
  9
$DIMEXO
 40
0.0625
  9
$DIMDLI
 40
0.38
  9
$DIMRND
 40
0.0
  9
$DIMDLE
 40
0.0
  9
$DIMEXE
 40
0.75
  9
$DIMTP
 40
0.0
  9
$DIMTM
 40
0.0
  9
$DIMTXT
 40
3.5
  9
$DIMCEN
 40
0.09
  9
$DIMTSZ
 40
0.0
  9
$DIMTOL
 70
     0
  9
$DIMLIM
 70
     0
  9
$DIMTIH
 70
     1
  9
$DIMTOH
 70
     1
  9
$DIMSE1
 70
     0
  9
$DIMSE2
 70
     0
  9
$DIMTAD
 70
     1
  9
$DIMZIN
 70
     0
  9
$DIMBLK
  1

  9
$DIMASO
 70
     1
  9
$DIMSHO
 70
     1
  9
$DIMPOST
  1

  9
$DIMAPOST
  1

  9
$DIMALT
 70
     0
  9
$DIMALTD
 70
     2
  9
$DIMALTF
 40
25.4
  9
$DIMLFAC
 40
1.0
  9
$DIMTOFL
 70
     0
  9
$DIMTVP
 40
0.0
  9
$DIMTIX
 70
     0
  9
$DIMSOXD
 70
     0
  9
$DIMSAH
 70
     0
  9
$DIMBLK1
  1

  9
$DIMBLK2
  1

  9
$LUNITS
 70
     2
  9
$LUPREC
 70
     4
  9
$SKETCHINC
 40
0.1
  9
$FILLETRAD
 40
0.5
  9
$AUNITS
 70
     0
  9
$AUPREC
 70
     0
  9
$MENU
  1
.
  9
$ELEVATION
 40
0.0
  9
$THICKNESS
 40
0.0
  9
$LIMCHECK
 70
     0
  9
$CHAMFERA
 40
0.0
  9
$CHAMFERB
 40
0.0
  9
$SKPOLY
 70
     0
  9
$TDCREATE
 40
2459048.483206423
  9
$TDUPDATE
 40
2459048.483206609
  9
$TDINDWG
 40
0.0000000116
  9
$TDUSRTIMER
 40
0.0000000116
  9
$USRTIMER
 70
     1
  9
$ANGBASE
 50
0.0
  9
$ANGDIR
 70
     0
  9
$PDMODE
 70
     0
  9
$PDSIZE
 40
0.0
  9
$PLINEWID
 40
0.0
  9
$COORDS
 70
     1
  9
$SPLFRAME
 70
     0
  9
$SPLINETYPE
 70
     6
  9
$SPLINESEGS
 70
     8
  9
$ATTDIA
 70
     0
  9
$ATTREQ
 70
     1
  9
$SURFTAB1
 70
     6
  9
$SURFTAB2
 70
     6
  9
$SURFTYPE
 70
     6
  9
$SURFU
 70
     6
  9
$SURFV
 70
     6
  9
$UCSNAME
  2

  9
$UCSORG
 10
0.0
 20
0.0
 30
0.0
  9
$UCSXDIR
 10
1.0
 20
0.0
 30
0.0
  9
$UCSYDIR
 10
0.0
 20
1.0
 30
0.0
  9
$USERI1
 70
     0
  9
$USERI2
 70
     0
  9
$USERI3
 70
     0
  9
$USERI4
 70
     0
  9
$USERI5
 70
     0
  9
$USERR1
 40
0.0
  9
$USERR2
 40
0.0
  9
$USERR3
 40
0.0
  9
$USERR4
 40
0.0
  9
$USERR5
 40
0.0
  9
$WORLDVIEW
 70
     1
  0
ENDSEC
  0
SECTION
  2
TABLES
  0
TABLE
  2
LTYPE
 70
     2
  0
LTYPE
  2
CONTINUOUS
 70
     0
  3
Solid line
 72
    65
 73
     0
 40
0.0
  0
LTYPE
  2
CENTER
 70
     0
  3

 72
    65
 73
     0
 40
0.0
  0
ENDTAB
  0
TABLE
  2
LAYER
 70
     2
  0
LAYER
  2
0
 70
     0
 62
     7
  6
CONTINUOUS
  0
LAYER
  2
1
 70
     0
 62
     7
  6
CONTINUOUS
  0
ENDTAB
  0
TABLE
  2
STYLE
 70
     2
  0
STYLE
  2
STANDARD
 70
     0
 40
0.0
 41
1.0
 50
0.0
 71
     0
 42
0.2
  3
txt
  4

  0
STYLE
  2
ＭＳ_ゴシック
 70
     0
 40
0.0
 41
1.0
 50
0.0
 71
     0
 42
0.2
  3
ＭＳ ゴシック.shx
  4

  0
ENDTAB
  0
TABLE
  2
VIEW
 70
     0
  0
ENDTAB
  0
ENDSEC
  0
SECTION
  2
BLOCKS
  0
ENDSEC
  0
SECTION
  2
ENTITIES
  0
ARC
  8
1
  6
CONTINUOUS
 62
     7
 10
18.980429191
 20
118.2742262059
 40
8.398748
 50
218.901584
 51
239.120491
  0
ARC
  8
1
  6
CONTINUOUS
 62
     7
 10
32.916644191
 20
135.0646982059
 40
0.499903
 50
321.825396
 51
52.76145500000001
  0
ARC
  8
1
  6
CONTINUOUS
 62
     7
 10
35.099142191
 20
125.4370832059
 40
4.053833
 50
356.607865
 51
13.76281599999998
  0
ARC
  8
1
  6
CONTINUOUS
 62
     7
 10
28.905571191
 20
128.2506682059
 40
8.403535
 50
38.900011
 51
59.115946
  0
ARC
  8
1
  6
CONTINUOUS
 62
     7
 10
17.153116191
 20
121.4258482059
 40
8.40159
 50
188.900684
 51
209.117754
  0
ARC
  8
1
  6
CONTINUOUS
 62
     7
 10
34.683338191
 20
119.5725132059
 40
4.06241
 50
326.622779
 51
343.769381
  0
ARC
  8
1
  6
CONTINUOUS
 62
     7
 10
25.814422191
 20
137.9698142059
 40
0.499903
 50
351.825371
 51
82.761454
  0
ARC
  8
1
  6
CONTINUOUS
 62
     7
 10
14.972384191
 20
111.4639612059
 40
0.499903
 50
141.825396
 51
232.761455
  0
ARC
  8
1
  6
CONTINUOUS
 62
     7
 10
17.145690191
 20
125.0675622059
 40
8.403535
 50
158.900011
 51
179.115946
  0
ARC
  8
1
  6
CONTINUOUS
 62
     7
 10
26.117062191
 20
112.1130652059
 40
4.057178
 50
266.613572
 51
283.765005
  0
ARC
  8
1
  6
CONTINUOUS
 62
     7
 10
12.795547191
 20
121.0919442059
 40
4.059463
 50
176.617768
 51
193.766445
  0
ARC
  8
1
  6
CONTINUOUS
 62
     7
 10
12.144145191
 20
132.2364592059
 40
0.499903
 50
51.825396
 51
142.761454
  0
LINE
  8
1
  6
CONTINUOUS
 62
     7
 10
38.114618191
 20
117.5307372059
 11
38.075722191
 21
117.3375832059
  0
ARC
  8
1
  6
CONTINUOUS
 62
     7
 10
12.144478191
 20
114.2926872059
 40
0.500418
 50
217.259906
 51
269.915797
  0
ARC
  8
1
  6
CONTINUOUS
 62
     7
 10
32.515684191
 20
130.7215512059
 40
4.056983
 50
26.613262
 51
43.765084
  0
ARC
  8
1
  6
CONTINUOUS
 62
     7
 10
35.744882191
 20
114.2922002059
 40
0.499903
 50
231.82543
 51
322.761506
  0
ARC
  8
1
  6
CONTINUOUS
 62
     7
 10
22.074572191
 20
137.9697652059
 40
0.499903
 50
97.234
 51
188.169725
  0
ARC
  8
1
  6
CONTINUOUS
 62
     7
 10
21.772313191
 20
134.4101122059
 40
4.062631
 50
86.62301800000002
 51
103.769489
  0
ARC
  8
1
  6
CONTINUOUS
 62
     7
 10
27.637656191
 20
134.0058112059
 40
4.059463
 50
56.61776799999999
 51
73.766445
  0
ARC
  8
1
  6
CONTINUOUS
 62
     7
 10
37.614791191
 20
128.9976842059
 40
0.499903
 50
291.825347
 51
22.76147600000002
  0
ARC
  8
1
  6
CONTINUOUS
 62
     7
 10
38.649998191
 20
121.3944222059
 40
0.499903
 50
261.825372
 51
352.761454
  0
ARC
  8
1
  6
CONTINUOUS
 62
     7
 10
9.239079191
 20
121.3943882059
 40
0.499903
 50
187.233967
 51
278.169656
  0
LINE
  8
1
  6
CONTINUOUS
 62
     7
 10
18.210921191
 20
109.0942252059
 11
18.017767191
 21
109.1331212059
  0
LINE
  8
1
  6
CONTINUOUS
 62
     7
 10
12.453141191
 20
113.8991792059
 11
12.143742191
 21
113.7922692059
  0
ARC
  8
1
  6
CONTINUOUS
 62
     7
 10
22.105027191
 20
130.0583282059
 40
8.398829
 50
98.90207000000001
 51
119.120392
  0
ARC
  8
1
  6
CONTINUOUS
 62
     7
 10
18.211444191
 20
109.5938162059
 40
0.499591
 50
269.939947
 51
338.187777
  0
ARC
  8
1
  6
CONTINUOUS
 62
     7
 10
18.211391191
 20
136.9348692059
 40
0.499591
 50
21.807374
 51
90.06013200000002
  0
LINE
  8
1
  6
CONTINUOUS
 62
     7
 10
9.813265191
 20
117.3375662059
 11
9.774384191
 21
117.5306832059
  0
ARC
  8
1
  6
CONTINUOUS
 62
     7
 10
28.932406191
 20
118.3020302059
 40
8.401563
 50
308.900651
 51
329.117786
  0
LINE
  8
1
  6
CONTINUOUS
 62
     7
 10
18.017750191
 20
137.3955782059
 11
18.210867191
 21
137.4344592059
  0
ARC
  8
1
  6
CONTINUOUS
 62
     7
 10
25.814456191
 20
108.5588952059
 40
0.499903
 50
277.233968
 51
8.16965700000003
  0
ARC
  8
1
  6
CONTINUOUS
 62
     7
 10
38.649949191
 20
125.1342722059
 40
0.499903
 50
7.233968000000002
 51
98.169657
  0
ARC
  8
1
  6
CONTINUOUS
 62
     7
 10
18.960386191
 20
128.2235942059
 40
8.406351
 50
128.899128
 51
149.113197
  0
ARC
  8
1
  6
CONTINUOUS
 62
     7
 10
35.744823191
 20
132.2364652059
 40
0.499903
 50
37.233973
 51
128.169678
  0
LINE
  8
1
  6
CONTINUOUS
 62
     7
 10
33.309664191
 20
111.7729562059
 11
33.416574191
 21
111.4635582059
  0
ARC
  8
1
  6
CONTINUOUS
 62
     7
 10
32.455071191
 20
120.9839492059
 40
6.111943
 50
336.636929
 51
353.357743
  0
ARC
  8
1
  6
CONTINUOUS
 62
     7
 10
17.714364191
 20
117.0341592059
 40
6.111938
 50
216.636926
 51
233.357746
  0
ARC
  8
1
  6
CONTINUOUS
 62
     7
 10
21.617087191
 20
131.9507922059
 40
5.931891
 50
96.46012000000003
 51
113.545657
  0
ARC
  8
1
  6
CONTINUOUS
 62
     7
 10
16.485542191
 20
131.8381432059
 40
4.053835
 50
116.607867
 51
133.762808
  0
ARC
  8
1
  6
CONTINUOUS
 62
     7
 10
13.200786191
 20
126.9585702059
 40
4.056983
 50
146.613262
 51
163.765084
  0
ARC
  8
1
  6
CONTINUOUS
 62
     7
 10
25.748046191
 20
130.0651212059
 40
8.401563
 50
68.900652
 51
89.11778599999998
  0
ARC
  8
1
  6
CONTINUOUS
 62
     7
 10
10.273975191
 20
117.5312072059
 40
0.499591
 50
111.807374
 51
180.060132
  0
ARC
  8
1
  6
CONTINUOUS
 62
     7
 10
31.400351191
 20
114.6952172059
 40
4.059442
 50
296.617724
 51
313.766488
  0
ARC
  8
1
  6
CONTINUOUS
 62
     7
 10
30.731429191
 20
125.1010802059
 40
8.40635
 50
8.899125
 51
29.11319800000001
  0
ARC
  8
1
  6
CONTINUOUS
 62
     7
 10
15.377895191
 20
115.8101432059
 40
4.06241
 50
206.622778
 51
223.769381
  0
ARC
  8
1
  6
CONTINUOUS
 62
     7
 10
29.677868191
 20
109.5940532059
 40
0.499903
 50
201.82541
 51
292.761471
  0
ARC
  8
1
  6
CONTINUOUS
 62
     7
 10
22.074606191
 20
108.5588472059
 40
0.499903
 50
171.825451
 51
262.761492
  0
ARC
  8
1
  6
CONTINUOUS
 62
     7
 10
37.615027191
 20
117.5312602059
 40
0.499591
 50
359.939947
 51
68.187701
  0
ARC
  8
1
  6
CONTINUOUS
 62
     7
 10
26.215489191
 20
131.7397772059
 40
6.147906
 50
66.686254
 51
83.309289
  0
CIRCLE
  8
1
  6
CONTINUOUS
 62
     7
 10
23.944514191
 20
123.2643302059
 40
15.5
  0
ARC
  8
1
  6
CONTINUOUS
 62
     7
 10
14.972379191
 20
135.0646392059
 40
0.499903
 50
127.233973
 51
218.169679
  0
ARC
  8
1
  6
CONTINUOUS
 62
     7
 10
32.916157191
 20
111.4642932059
 40
0.500418
 50
307.259907
 51
359.915797
  0
ARC
  8
1
  6
CONTINUOUS
 62
     7
 10
29.677814191
 20
136.9345812059
 40
0.499903
 50
67.233977
 51
158.169659
  0
ARC
  8
1
  6
CONTINUOUS
 62
     7
 10
10.274263191
 20
128.9976302059
 40
0.499903
 50
157.233977
 51
248.169658
  0
ARC
  8
1
  6
CONTINUOUS
 62
     7
 10
9.239031191
 20
125.1342382059
 40
0.499903
 50
81.82545200000001
 51
172.761493
  0
ARC
  8
1
  6
CONTINUOUS
 62
     7
 10
30.748114191
 20
121.4603582059
 40
8.398748
 50
338.901584
 51
359.120491
  0
TEXT
  8
1
  6
CONTINUOUS
 62
     7
 10
84.47101255948324
 20
86.7118129090909
 40
3.5
  1
ＦＰＫ－２２Ｆ
 41
0.998774
 51
15.0
  0
LINE
  8
1
  6
CONTINUOUS
 62
     7
 10
70.8701639543
 20
145.2643282059
 11
82.6701639543
 21
145.2643282059
  0
LINE
  8
1
  6
CONTINUOUS
 62
     7
 10
70.8701639543
 20
101.2643282059
 11
82.6701639543
 21
101.2643282059
  0
LINE
  8
1
  6
CENTER
 62
     5
 10
53.3866348728
 20
123.2643282059
 11
120.2321023377
 21
123.2643282059
  0
LINE
  8
1
  6
CONTINUOUS
 62
     7
 10
74.6701639543
 20
113.25665206
 11
74.6701639543
 21
133.2720043518
  0
LINE
  8
1
  6
CONTINUOUS
 62
     7
 10
82.6701639543
 20
113.25665206
 11
74.6701639543
 21
113.25665206
  0
LINE
  8
1
  6
CONTINUOUS
 62
     7
 10
82.6701639543
 20
133.2720043518
 11
74.6701639543
 21
133.2720043518
  0
LINE
  8
1
  6
CENTER
 62
     5
 10
0.756524691
 20
123.2643286059
 11
47.1325246909
 21
123.2643286059
  0
LINE
  8
1
  6
CENTER
 62
     5
 10
23.944524691
 20
146.4523286059
 11
23.944524691
 21
100.0763286059
  0
CIRCLE
  8
1
  6
CONTINUOUS
 62
     7
 10
23.944514191
 20
123.2646232113
 40
13.2205
  0
CIRCLE
  8
1
  6
CONTINUOUS
 62
     7
 10
23.944514191
 20
123.2646232141
 40
11.4999999981
  0
CIRCLE
  8
1
  6
CONTINUOUS
 62
     7
 10
23.944514191
 20
123.2646232122
 40
10.55
  0
CIRCLE
  8
1
  6
CONTINUOUS
 62
     7
 10
23.944514191
 20
123.2643302059
 40
13.2205
  0
LINE
  8
1
  6
CONTINUOUS
 62
     7
 10
37.894212191
 20
121.5989902059
 11
37.993266191
 21
123.2643302059
  0
ARC
  8
1
  6
CONTINUOUS
 62
     7
 10
23.944514191
 20
123.2643302059
 40
14.048751
 50
113.192146
 51
126.807238
  0
ARC
  8
1
  6
CONTINUOUS
 62
     7
 10
23.944516191
 20
123.2643212059
 40
14.023764
 50
96.799336
 51
113.199928
  0
ARC
  8
1
  6
CONTINUOUS
 62
     7
 10
23.944514191
 20
123.2643302059
 40
14.048751
 50
83.19214899999999
 51
96.807238
  0
LINE
  8
1
  6
CONTINUOUS
 62
     7
 10
37.993265191
 20
123.2643302059
 11
38.992017191
 21
123.2643302059
  0
ARC
  8
1
  6
CONTINUOUS
 62
     7
 10
23.944512191
 20
123.2643212059
 40
14.023764
 50
66.79934000000002
 51
83.199938
  0
ARC
  8
1
  6
CONTINUOUS
 62
     7
 10
23.944514191
 20
123.2643302059
 40
14.048751
 50
53.19214900000001
 51
66.807236
  0
ARC
  8
1
  6
CONTINUOUS
 62
     7
 10
23.944508191
 20
123.2643242059
 40
14.023773
 50
36.799343
 51
53.199937
  0
ARC
  8
1
  6
CONTINUOUS
 62
     7
 10
23.944514191
 20
123.2643302059
 40
14.048751
 50
23.192146
 51
36.807239
  0
ARC
  8
1
  6
CONTINUOUS
 62
     7
 10
23.944505191
 20
123.2643282059
 40
14.023773
 50
6.799337
 51
23.199928
  0
LINE
  8
1
  6
CONTINUOUS
 62
     7
 10
37.993265191
 20
123.2643302059
 11
37.894229191
 21
124.9295202059
  0
ARC
  8
1
  6
CONTINUOUS
 62
     7
 10
23.944505191
 20
123.2643322059
 40
14.023773
 50
336.79933
 51
353.199921
  0
ARC
  8
1
  6
CONTINUOUS
 62
     7
 10
23.944514191
 20
123.2643302059
 40
14.048751
 50
323.192149
 51
336.807238
  0
CIRCLE
  8
1
  6
CONTINUOUS
 62
     7
 10
23.944514191
 20
123.2646232113
 40
12.0585
  0
LINE
  8
1
  6
CONTINUOUS
 62
     7
 10
10.403558191
 20
128.5143742059
 11
11.054844191
 21
128.7890282059
  0
LINE
  8
1
  6
CONTINUOUS
 62
     7
 10
10.356676191
 20
118.0668072059
 11
10.404069191
 21
118.0128962059
  0
LINE
  8
1
  6
CONTINUOUS
 62
     7
 10
29.194097191
 20
136.8054642059
 11
29.469211191
 21
136.1539972059
  0
LINE
  8
1
  6
CONTINUOUS
 62
     7
 10
26.237246191
 20
137.6305042059
 11
26.166862191
 21
137.6164162059
  0
LINE
  8
1
  6
CONTINUOUS
 62
     7
 10
18.747222191
 20
136.8523712059
 11
18.692801191
 21
136.8046742059
  0
LINE
  8
1
  6
CONTINUOUS
 62
     7
 10
12.626264191
 20
114.1638532059
 11
12.653082191
 21
114.0969332059
  0
ARC
  8
1
  6
CONTINUOUS
 62
     7
 10
23.944508191
 20
123.2643362059
 40
14.02377
 50
306.799344
 51
323.199942
  0
ARC
  8
1
  6
CONTINUOUS
 62
     7
 10
23.944516191
 20
123.2643382059
 40
14.02377
 50
246.799334
 51
263.1999260000001
  0
LINE
  8
1
  6
CONTINUOUS
 62
     7
 10
29.469043191
 20
110.3745932059
 11
29.194078191
 21
109.7231832059
  0
LINE
  8
1
  6
CONTINUOUS
 62
     7
 10
11.054779191
 20
117.7398042059
 11
10.403511191
 21
118.0144132059
  0
LINE
  8
1
  6
CONTINUOUS
 62
     7
 10
15.543937191
 20
112.0350832059
 11
14.842667191
 21
111.9472242059
  0
LINE
  8
1
  6
CONTINUOUS
 62
     7
 10
14.842692191
 20
134.5814522059
 11
15.544084191
 21
134.4936942059
  0
LINE
  8
1
  6
CONTINUOUS
 62
     7
 10
35.239620191
 20
114.0956782059
 11
35.262612191
 21
114.1636772059
  0
ARC
  8
1
  6
CONTINUOUS
 62
     7
 10
23.944520191
 20
123.2643362059
 40
14.023768
 50
216.7993260000001
 51
233.199918
  0
LINE
  8
1
  6
CONTINUOUS
 62
     7
 10
21.651782191
 20
108.8981552059
 11
21.722364191
 21
108.9122042059
  0
LINE
  8
1
  6
CONTINUOUS
 62
     7
 10
29.141968191
 20
109.6764312059
 11
29.195402191
 21
109.7236732059
  0
ARC
  8
1
  6
CONTINUOUS
 62
     7
 10
23.944520191
 20
123.2643242059
 40
14.023765
 50
126.799331
 51
143.199922
  0
LINE
  8
1
  6
CONTINUOUS
 62
     7
 10
12.627472191
 20
114.1624012059
 11
12.715147191
 21
114.8638992059
  0
ARC
  8
1
  6
CONTINUOUS
 62
     7
 10
23.944523191
 20
123.2643322059
 40
14.023767
 50
186.79933
 51
203.199927
  0
LINE
  8
1
  6
CONTINUOUS
 62
     7
 10
32.345090191
 20
134.4935832059
 11
33.046710191
 21
134.5811612059
  0
LINE
  8
1
  6
CONTINUOUS
 62
     7
 10
37.532352191
 20
128.4618532059
 11
37.484894191
 21
128.5159542059
  0
ARC
  8
1
  6
CONTINUOUS
 62
     7
 10
23.944514191
 20
123.2643302059
 40
14.048751
 50
293.192148
 51
306.807236
  0
ARC
  8
1
  6
CONTINUOUS
 62
     7
 10
23.944512191
 20
123.2643382059
 40
14.02377
 50
276.799341
 51
293.199935
  0
LINE
  8
1
  6
CONTINUOUS
 62
     7
 10
22.284026191
 20
109.3392262059
 11
21.720507191
 21
108.9125222059
  0
LINE
  8
1
  6
CONTINUOUS
 62
     7
 10
18.419989191
 20
136.1540622059
 11
18.694535191
 21
136.8053092059
  0
ARC
  8
1
  6
CONTINUOUS
 62
     7
 10
23.944523191
 20
123.2643282059
 40
14.023767
 50
156.799339
 51
173.199933
  0
LINE
  8
1
  6
CONTINUOUS
 62
     7
 10
21.720532191
 20
137.6161362059
 11
22.284209191
 21
137.1894582059
  0
LINE
  8
1
  6
CONTINUOUS
 62
     7
 10
25.604999191
 20
137.1894282059
 11
26.168451191
 21
137.6161392059
  0
LINE
  8
1
  6
CONTINUOUS
 62
     7
 10
9.578321191
 20
125.5571522059
 11
9.592517191
 21
125.4872552059
  0
LINE
  8
1
  6
CONTINUOUS
 62
     7
 10
37.485541191
 20
118.0144472059
 11
36.834189191
 21
117.7396272059
  0
LINE
  8
1
  6
CONTINUOUS
 62
     7
 10
12.626284191
 20
132.3648312059
 11
12.653082191
 21
132.4317252059
  0
LINE
  8
1
  6
CONTINUOUS
 62
     7
 10
26.168321191
 20
108.9124932059
 11
25.604821191
 21
109.3391962059
  0
LINE
  8
1
  6
CONTINUOUS
 62
     7
 10
18.747223191
 20
109.6762882059
 11
18.692771191
 21
109.7239972059
  0
LINE
  8
1
  6
CONTINUOUS
 62
     7
 10
33.046692191
 20
111.9474872059
 11
32.344949191
 21
112.0349642059
  0
LINE
  8
1
  6
CONTINUOUS
 62
     7
 10
36.834255191
 20
128.7888592059
 11
37.485550191
 21
128.5141892059
  0
LINE
  8
1
  6
CONTINUOUS
 62
     7
 10
18.694508191
 20
109.7233552059
 11
18.419813191
 21
110.3746572059
  0
LINE
  8
1
  6
CONTINUOUS
 62
     7
 10
38.296348191
 20
125.4881802059
 11
37.869651191
 21
124.9246362059
  0
LINE
  8
1
  6
CONTINUOUS
 62
     7
 10
35.261667191
 20
132.3661232059
 11
35.173882191
 21
131.6647662059
  0
LINE
  8
1
  6
CONTINUOUS
 62
     7
 10
33.113252191
 20
134.5594072059
 11
33.045622191
 21
134.5820612059
  0
ARC
  8
1
  6
CONTINUOUS
 62
     7
 10
23.944514191
 20
123.2643302059
 40
14.048751
 50
263.1921459999999
 51
276.8072379999999
  0
LINE
  8
1
  6
CONTINUOUS
 62
     7
 10
38.310748191
 20
120.9712962059
 11
38.296652191
 21
121.0422752059
  0
LINE
  8
1
  6
CONTINUOUS
 62
     7
 10
14.775571191
 20
111.9693232059
 11
14.844089191
 21
111.9460412059
  0
LINE
  8
1
  6
CONTINUOUS
 62
     7
 10
10.356676191
 20
128.4618532059
 11
10.404082191
 21
128.5157982059
  0
ARC
  8
1
  6
CONTINUOUS
 62
     7
 10
23.944514191
 20
123.2643302059
 40
14.048751
 50
203.192149
 51
216.807238
  0
LINE
  8
1
  6
CONTINUOUS
 62
     7
 10
14.844114191
 20
134.5826392059
 11
14.776703191
 21
134.5560032059
  0
ARC
  8
1
  6
CONTINUOUS
 62
     7
 10
23.944514191
 20
123.2643302059
 40
14.048751
 50
233.192146
 51
246.807238
  0
LINE
  8
1
  6
CONTINUOUS
 62
     7
 10
10.019413191
 20
124.9248162059
 11
9.592757191
 21
125.4886482059
  0
LINE
  8
1
  6
CONTINUOUS
 62
     7
 10
12.715269191
 20
131.6649042059
 11
12.627492191
 21
132.3662782059
  0
ARC
  8
1
  6
CONTINUOUS
 62
     7
 10
23.944514191
 20
123.2643302059
 40
14.048751
 50
173.19215
 51
186.807236
  0
LINE
  8
1
  6
CONTINUOUS
 62
     7
 10
35.173766191
 20
114.8637562059
 11
35.261581191
 21
114.1624372059
  0
ARC
  8
1
  6
CONTINUOUS
 62
     7
 10
23.944514191
 20
123.2643302059
 40
14.048751
 50
143.192146
 51
156.807239
  0
LINE
  8
1
  6
CONTINUOUS
 62
     7
 10
9.592753191
 20
121.0400372059
 11
10.019383191
 21
121.6040262059
  0
LINE
  8
1
  6
CONTINUOUS
 62
     7
 10
38.310748191
 20
125.5573652059
 11
38.296657191
 21
125.4863532059
  0
LINE
  8
1
  6
CONTINUOUS
 62
     7
 10
37.532352191
 20
118.0668072059
 11
37.484883191
 21
118.0126762059
  0
LINE
  8
1
  6
CONTINUOUS
 62
     7
 10
21.651782191
 20
137.6305042059
 11
21.722395191
 21
137.6164602059
  0
LINE
  8
1
  6
CONTINUOUS
 62
     7
 10
37.869621191
 20
121.6038402059
 11
38.296344191
 21
121.0404522059
  0
LINE
  8
1
  6
CONTINUOUS
 62
     7
 10
96.67016395430001
 20
111.2143282059
 11
85.6701639543
 21
111.2143282059
  0
LINE
  8
1
  6
CONTINUOUS
 62
     7
 10
96.67016395430001
 20
135.3143282059
 11
85.6701639543
 21
135.3143282059
  0
LINE
  8
1
  6
CONTINUOUS
 62
     7
 10
96.67016395430001
 20
139.3749342665
 11
85.6701639543
 21
139.3749342665
  0
LINE
  8
1
  6
CONTINUOUS
 62
     7
 10
85.6701639543
 20
113.8537221453
 11
96.67016395430001
 21
113.8537221453
  0
LINE
  8
1
  6
CONTINUOUS
 62
     7
 10
96.67016395430001
 20
106.4431160847
 11
85.6701639543
 21
106.4431160847
  0
LINE
  8
1
  6
CONTINUOUS
 62
     7
 10
96.67016395430001
 20
107.1537221453
 11
85.6701639543
 21
107.1537221453
  0
LINE
  8
1
  6
CONTINUOUS
 62
     7
 10
96.67016395430001
 20
114.8688736604
 11
85.6701639543
 21
114.8688736604
  0
LINE
  8
1
  6
CONTINUOUS
 62
     7
 10
96.67016395430001
 20
136.9385706301
 11
85.6701639543
 21
136.9385706301
  0
LINE
  8
1
  6
CONTINUOUS
 62
     7
 10
96.67016395430001
 20
141.3037221453
 11
85.6701639543
 21
141.3037221453
  0
LINE
  8
1
  6
CONTINUOUS
 62
     7
 10
96.67016395430001
 20
110.4022069938
 11
85.6701639543
 21
110.4022069938
  0
LINE
  8
1
  6
CONTINUOUS
 62
     7
 10
85.6701639543
 20
132.6749342664999
 11
96.67016395430001
 21
132.6749342664999
  0
LINE
  8
1
  6
CONTINUOUS
 62
     7
 10
96.67016395430001
 20
143.7400857817
 11
85.6701639543
 21
143.7400857817
  0
LINE
  8
1
  6
CONTINUOUS
 62
     7
 10
96.67016395430001
 20
144.9582675998
 11
85.6701639543
 21
144.9582675998
  0
LINE
  8
1
  6
CONTINUOUS
 62
     7
 10
96.67016395430001
 20
130.4416009332
 11
85.6701639543
 21
130.4416009332
  0
LINE
  8
1
  6
CONTINUOUS
 62
     7
 10
96.67016395430001
 20
112.026449418
 11
85.6701639543
 21
112.026449418
  0
LINE
  8
1
  6
CONTINUOUS
 62
     7
 10
96.67016395430001
 20
101.570388812
 11
85.6701639543
 21
101.570388812
  0
LINE
  8
1
  6
CONTINUOUS
 62
     7
 10
96.67016395430001
 20
117.3052372968
 11
85.6701639543
 21
117.3052372968
  0
LINE
  8
1
  6
CONTINUOUS
 62
     7
 10
96.67016395430001
 20
142.5219039635
 11
85.6701639543
 21
142.5219039635
  0
LINE
  8
1
  6
CONTINUOUS
 62
     7
 10
96.67016395430001
 20
123.723419115
 11
85.6701639543
 21
123.723419115
  0
LINE
  8
1
  6
CONTINUOUS
 62
     7
 10
96.67016395430001
 20
105.2249342665
 11
85.6701639543
 21
105.2249342665
  0
LINE
  8
1
  6
CONTINUOUS
 62
     7
 10
85.6701639543
 20
121.3052372968
 11
96.67016395430001
 21
121.3052372968
  0
LINE
  8
1
  6
CONTINUOUS
 62
     7
 10
85.6701639543
 20
126.623419115
 11
96.67016395430001
 21
126.623419115
  0
LINE
  8
1
  6
CONTINUOUS
 62
     7
 10
96.67016395430001
 20
138.5628130544
 11
85.6701639543
 21
138.5628130544
  0
LINE
  8
1
  6
CONTINUOUS
 62
     7
 10
96.67016395430001
 20
122.8052372968
 11
85.6701639543
 21
122.8052372968
  0
LINE
  8
1
  6
CONTINUOUS
 62
     7
 10
96.67016395430001
 20
104.0067524483
 11
85.6701639543
 21
104.0067524483
  0
LINE
  8
1
  6
CONTINUOUS
 62
     7
 10
96.67016395430001
 20
102.7885706301
 11
85.6701639543
 21
102.7885706301
  0
LINE
  8
1
  6
CONTINUOUS
 62
     7
 10
96.67016395430001
 20
102.179479721
 11
85.6701639543
 21
102.179479721
  0
LINE
  8
1
  6
CONTINUOUS
 62
     7
 10
96.67016395430001
 20
134.5022069938
 11
85.6701639543
 21
134.5022069938
  0
LINE
  8
1
  6
CONTINUOUS
 62
     7
 10
85.6701639543
 20
112.8385706301
 11
96.67016395430001
 21
112.8385706301
  0
LINE
  8
1
  6
CONTINUOUS
 62
     7
 10
96.67016395430001
 20
101.2643282059
 11
96.67016395430001
 21
145.2643282059
  0
LINE
  8
1
  6
CONTINUOUS
 62
     7
 10
96.67016395430001
 20
101.2643282059
 11
114.8304415610257
 21
104.2131362954869
  0
ARC
  8
1
  6
CONTINUOUS
 62
     7
 10
114.6701639543
 20
105.2002082729953
 40
1.000000000000001
 50
279.2230098697463
 51
0.0
  0
LINE
  8
1
  6
CONTINUOUS
 62
     7
 10
115.6701639543
 20
105.2002082729953
 11
115.6701639543
 21
141.3284481388046
  0
ARC
  8
1
  6
CONTINUOUS
 62
     7
 10
114.6701639543
 20
141.3284481388046
 40
1.000000000000001
 50
0.0
 51
80.77699013025381
  0
LINE
  8
1
  6
CONTINUOUS
 62
     7
 10
114.8304415610257
 20
142.315520116313
 11
96.67016395430001
 21
145.2643282059
  0
LINE
  8
1
  6
CONTINUOUS
 62
     7
 10
96.67016395430001
 20
137.7506918423
 11
85.6701639543
 21
137.7506918423
  0
LINE
  8
1
  6
CONTINUOUS
 62
     7
 10
96.67016395430001
 20
116.0870554786
 11
85.6701639543
 21
116.0870554786
  0
LINE
  8
1
  6
CONTINUOUS
 62
     7
 10
85.6701639543
 20
119.9052372968
 11
96.67016395430001
 21
119.9052372968
  0
LINE
  8
1
  6
CONTINUOUS
 62
     7
 10
85.6701639543
 20
133.6900857817
 11
96.67016395430001
 21
133.6900857817
  0
LINE
  8
1
  6
CONTINUOUS
 62
     7
 10
96.67016395430001
 20
129.223419115
 11
85.6701639543
 21
129.223419115
  0
LINE
  8
1
  6
CONTINUOUS
 62
     7
 10
96.67016395430001
 20
136.126449418
 11
85.6701639543
 21
136.126449418
  0
LINE
  8
1
  6
CONTINUOUS
 62
     7
 10
96.67016395430001
 20
103.3976615392
 11
85.6701639543
 21
103.3976615392
  0
LINE
  8
1
  6
CONTINUOUS
 62
     7
 10
96.67016395430001
 20
108.7779645695
 11
85.6701639543
 21
108.7779645695
  0
LINE
  8
1
  6
CONTINUOUS
 62
     7
 10
85.6701639543
 20
140.6946312362
 11
96.67016395430001
 21
140.6946312362
  0
LINE
  8
1
  6
CONTINUOUS
 62
     7
 10
96.67016395430001
 20
109.5900857817
 11
85.6701639543
 21
109.5900857817
  0
LINE
  8
1
  6
CONTINUOUS
 62
     7
 10
85.6701639543
 20
125.223419115
 11
96.67016395430001
 21
125.223419115
  0
LINE
  8
1
  6
CONTINUOUS
 62
     7
 10
96.67016395430001
 20
107.9658433574
 11
85.6701639543
 21
107.9658433574
  0
LINE
  8
1
  6
CONTINUOUS
 62
     7
 10
96.67016395430001
 20
143.1309948726
 11
85.6701639543
 21
143.1309948726
  0
LINE
  8
1
  6
CONTINUOUS
 62
     7
 10
96.67016395430001
 20
104.6158433574
 11
85.6701639543
 21
104.6158433574
  0
LINE
  8
1
  6
CONTINUOUS
 62
     7
 10
96.67016395430001
 20
144.3491766908
 11
85.6701639543
 21
144.3491766908
  0
LINE
  8
1
  6
CONTINUOUS
 62
     7
 10
96.67016395430001
 20
140.0855403271
 11
85.6701639543
 21
140.0855403271
  0
LINE
  8
1
  6
CONTINUOUS
 62
     7
 10
96.67016395430001
 20
141.9128130543999
 11
85.6701639543
 21
141.9128130543999
  0
LINE
  8
1
  6
CONTINUOUS
 62
     7
 10
96.67016395430001
 20
131.6597827514
 11
85.6701639543
 21
131.6597827514
  0
LINE
  8
1
  6
CONTINUOUS
 62
     7
 10
85.6701639543
 20
105.8340251756001
 11
96.67016395430001
 21
105.8340251756001
  0
LINE
  8
1
  6
CONTINUOUS
 62
     7
 10
85.6701639543
 20
118.5052372968
 11
96.67016395430001
 21
118.5052372968
  0
LINE
  8
1
  6
CONTINUOUS
 62
     7
 10
85.6701639543
 20
128.023419115
 11
96.67016395430001
 21
128.023419115
  0
LINE
  8
1
  6
CONTINUOUS
 62
     7
 10
82.6701639543
 20
101.2643282059
 11
82.6701639543
 21
145.2643282059
  0
LINE
  8
1
  6
CONTINUOUS
 62
     7
 10
21.579771191
 20
108.6299292059
 11
20.957103191
 21
108.6823912059
  0
LINE
  8
1
  6
CONTINUOUS
 62
     7
 10
35.079507191
 20
133.1420262059
 11
35.435905191
 21
132.6294582059
  0
LINE
  8
1
  6
CONTINUOUS
 62
     7
 10
33.309642191
 20
134.7557212059
 11
33.113166191
 21
134.5594362059
  0
LINE
  8
1
  6
CONTINUOUS
 62
     7
 10
33.113253191
 20
111.9692532059
 11
33.045596191
 21
111.9465772059
  0
LINE
  8
1
  6
CONTINUOUS
 62
     7
 10
21.579771191
 20
108.6299292059
 11
21.651782191
 21
108.8981552059
  0
LINE
  8
1
  6
CONTINUOUS
 62
     7
 10
29.213787191
 20
109.4081952059
 11
29.142037191
 21
109.6764922059
  0
LINE
  8
1
  6
CONTINUOUS
 62
     7
 10
14.579386191
 20
111.7729382059
 11
14.775862191
 21
111.9692242059
  0
LINE
  8
1
  6
CONTINUOUS
 62
     7
 10
35.435905191
 20
113.8992022059
 11
35.239620191
 21
114.0956782059
  0
LINE
  8
1
  6
CONTINUOUS
 62
     7
 10
37.532352191
 20
118.0668072059
 11
37.800648191
 21
117.9950572059
  0
LINE
  8
1
  6
CONTINUOUS
 62
     7
 10
18.675241191
 20
137.1204642059
 11
19.247327191
 21
137.3888362059
  0
LINE
  8
1
  6
CONTINUOUS
 62
     7
 10
29.142037191
 20
136.8521682059
 11
29.213787191
 21
137.1204642059
  0
LINE
  8
1
  6
CONTINUOUS
 62
     7
 10
26.309257191
 20
137.8987312059
 11
26.931754191
 21
137.8463032059
  0
LINE
  8
1
  6
CONTINUOUS
 62
     7
 10
35.435905191
 20
113.8992022059
 11
35.079253191
 21
113.3863172059
  0
LINE
  8
1
  6
CONTINUOUS
 62
     7
 10
35.239620191
 20
132.4329812059
 11
35.435905191
 21
132.6294582059
  0
LINE
  8
1
  6
CONTINUOUS
 62
     7
 10
29.213787191
 20
109.4081952059
 11
28.642085191
 21
109.1399662059
  0
LINE
  8
1
  6
CONTINUOUS
 62
     7
 10
10.088380191
 20
117.9950572059
 11
9.822535191
 21
118.5603702059
  0
LINE
  8
1
  6
CONTINUOUS
 62
     7
 10
9.578321191
 20
120.9715072059
 11
9.592512191
 21
121.0414382059
  0
LINE
  8
1
  6
CONTINUOUS
 62
     7
 10
33.822266191
 20
112.1293942059
 11
33.309642191
 21
111.7729382059
  0
LINE
  8
1
  6
CONTINUOUS
 62
     7
 10
9.822682191
 20
127.9686682059
 11
10.088380191
 21
128.5336032059
  0
LINE
  8
1
  6
CONTINUOUS
 62
     7
 10
10.356676191
 20
128.4618532059
 11
10.088380191
 21
128.5336032059
  0
LINE
  8
1
  6
CONTINUOUS
 62
     7
 10
9.310113191
 20
125.6290732059
 11
9.578340191
 21
125.5570622059
  0
LINE
  8
1
  6
CONTINUOUS
 62
     7
 10
38.310688191
 20
125.5570622059
 11
38.578915191
 21
125.6290732059
  0
LINE
  8
1
  6
CONTINUOUS
 62
     7
 10
12.809622191
 20
113.3865352059
 11
12.453123191
 21
113.8992022059
  0
LINE
  8
1
  6
CONTINUOUS
 62
     7
 10
9.310113191
 20
125.6290732059
 11
9.362567191
 21
126.2516832059
  0
ARC
  8
1
  6
CONTINUOUS
 62
     7
 10
22.141729191
 20
116.4683182059
 40
8.406354
 50
248.8990959999999
 51
269.113196
  0
ARC
  8
1
  6
CONTINUOUS
 62
     7
 10
20.248855191
 20
112.5177542059
 40
4.053824
 50
236.60786
 51
253.762773
  0
LINE
  8
1
  6
CONTINUOUS
 62
     7
 10
35.239620191
 20
132.4329812059
 11
35.262635191
 21
132.3649532059
  0
LINE
  8
1
  6
CONTINUOUS
 62
     7
 10
14.775862191
 20
134.5594362059
 11
14.579386191
 21
134.7557212059
  0
LINE
  8
1
  6
CONTINUOUS
 62
     7
 10
33.309642191
 20
134.7557212059
 11
33.822612191
 21
134.3989902059
  0
ARC
  8
1
  6
CONTINUOUS
 62
     7
 10
25.782347191
 20
116.4745732059
 40
8.40334
 50
278.899978
 51
299.116175
  0
LINE
  8
1
  6
CONTINUOUS
 62
     7
 10
18.746991191
 20
109.6764922059
 11
18.675241191
 21
109.4081962059
  0
LINE
  8
1
  6
CONTINUOUS
 62
     7
 10
37.800648191
 20
128.5336032059
 11
37.532352191
 21
128.4618532059
  0
LINE
  8
1
  6
CONTINUOUS
 62
     7
 10
38.066381191
 20
118.5601282059
 11
37.800648191
 21
117.9950572059
  0
LINE
  8
1
  6
CONTINUOUS
 62
     7
 10
38.578915191
 20
120.8995872059
 11
38.310688191
 21
120.9715982059
  0
LINE
  8
1
  6
CONTINUOUS
 62
     7
 10
21.651782191
 20
137.6305042059
 11
21.579771191
 21
137.8987312059
  0
LINE
  8
1
  6
CONTINUOUS
 62
     7
 10
19.240113191
 20
109.1425142059
 11
18.675241191
 21
109.4081952059
  0
LINE
  8
1
  6
CONTINUOUS
 62
     7
 10
12.649408191
 20
114.0956782059
 11
12.453123191
 21
113.8992022059
  0
LINE
  8
1
  6
CONTINUOUS
 62
     7
 10
14.579386191
 20
111.7729382059
 11
14.066448191
 21
112.1296342059
  0
LINE
  8
1
  6
CONTINUOUS
 62
     7
 10
12.809891191
 20
133.1424732059
 11
12.453123191
 21
132.6294582059
  0
LINE
  8
1
  6
CONTINUOUS
 62
     7
 10
9.362501191
 20
120.2774132059
 11
9.310113191
 21
120.8995872059
  0
LINE
  8
1
  6
CONTINUOUS
 62
     7
 10
20.956723191
 20
137.8461962059
 11
21.579771191
 21
137.8987312059
  0
LINE
  8
1
  6
CONTINUOUS
 62
     7
 10
26.932337191
 20
108.6824632059
 11
26.309257191
 21
108.6299292059
  0
LINE
  8
1
  6
CONTINUOUS
 62
     7
 10
9.578340191
 20
120.9715982059
 11
9.310113191
 21
120.8995872059
  0
LINE
  8
1
  6
CONTINUOUS
 62
     7
 10
26.237246191
 20
108.8981552059
 11
26.166825191
 21
108.9122382059
  0
LINE
  8
1
  6
CONTINUOUS
 62
     7
 10
12.453123191
 20
132.6294582059
 11
12.649408191
 21
132.4329812059
  0
LINE
  8
1
  6
CONTINUOUS
 62
     7
 10
10.088380191
 20
117.9950572059
 11
10.356676191
 21
118.0668072059
  0
LINE
  8
1
  6
CONTINUOUS
 62
     7
 10
33.113166191
 20
111.9692242059
 11
33.309642191
 21
111.7729382059
  0
LINE
  8
1
  6
CONTINUOUS
 62
     7
 10
28.648775191
 20
137.3861822059
 11
29.213787191
 21
137.1204642059
  0
LINE
  8
1
  6
CONTINUOUS
 62
     7
 10
29.141968191
 20
136.8522292059
 11
29.195434191
 21
136.8049742059
  0
LINE
  8
1
  6
CONTINUOUS
 62
     7
 10
38.578915191
 20
120.8995872059
 11
38.526477191
 21
120.2770212059
  0
LINE
  8
1
  6
CONTINUOUS
 62
     7
 10
26.309257191
 20
137.8987312059
 11
26.237246191
 21
137.6305042059
  0
LINE
  8
1
  6
CONTINUOUS
 62
     7
 10
38.526565191
 20
126.2511072059
 11
38.578915191
 21
125.6290732059
  0
LINE
  8
1
  6
CONTINUOUS
 62
     7
 10
37.800648191
 20
128.5336032059
 11
38.066549191
 21
127.9681252059
  0
LINE
  8
1
  6
CONTINUOUS
 62
     7
 10
18.675241191
 20
137.1204642059
 11
18.746991191
 21
136.8521682059
  0
LINE
  8
1
  6
CONTINUOUS
 62
     7
 10
14.579386191
 20
134.7557212059
 11
14.066863191
 21
134.3993682059
  0
LINE
  8
1
  6
CONTINUOUS
 62
     7
 10
26.237246191
 20
108.8981552059
 11
26.309257191
 21
108.6299292059
  0
LINE
  8
1
  6
CONTINUOUS
 62
     7
 10
70.8701639226
 20
145.2643282059
 11
70.8701639165803
 21
101.2643282059
  0
LINE
  8
1
  6
CONTINUOUS
 62
     7
 10
72.8701639543
 20
145.2643282059
 11
72.8701639543
 21
101.2643282059
  0
LINE
  8
1
  6
CONTINUOUS
 62
     7
 10
96.67016395430001
 20
145.2643282059
 11
82.6701639543
 21
145.2643282059
  0
LINE
  8
1
  6
CONTINUOUS
 62
     7
 10
85.6701639543
 20
101.2643282059
 11
85.6701639543
 21
145.2643282059
  0
LINE
  8
1
  6
CONTINUOUS
 62
     7
 10
82.6701639543
 20
101.2643282059
 11
96.67016395430001
 21
101.2643282059
  0
ARC
  8
1
  6
CONTINUOUS
 62
     7
 10
61.7693849028
 20
115.1749022047
 40
0.9885829999999999
 50
206.647473
 51
272.9479230000001
  0
LINE
  8
1
  6
CONTINUOUS
 62
     7
 10
60.8865209028
 20
111.8793432047
 11
60.8701639028
 21
112.0159132047
  0
LINE
  8
1
  6
CONTINUOUS
 62
     7
 10
61.8202259028
 20
132.3404432047
 11
67.3451949028
 21
132.5386462047
  0
ARC
  8
1
  6
CONTINUOUS
 62
     7
 10
21.673417191
 20
114.7884102059
 40
6.147423
 50
246.685528
 51
263.308824
  0
LINE
  8
1
  6
CONTINUOUS
 62
     7
 10
67.3451949028
 20
109.1328272047
 11
61.8202259028
 21
109.4026732047
  0
ARC
  8
1
  6
CONTINUOUS
 62
     7
 10
67.9259619028
 20
132.6495162047
 40
5.844802
 50
78.157051
 51
95.702586
  0
ARC
  8
1
  6
CONTINUOUS
 62
     7
 10
32.420422191
 20
125.5354622059
 40
6.147426
 50
6.68553
 51
23.308823
  0
LINE
  8
1
  6
CONTINUOUS
 62
     7
 10
60.8858679028
 20
131.7968872047
 11
60.8701639028
 21
131.6811102047
  0
LINE
  8
1
  6
CONTINUOUS
 62
     7
 10
61.0028689028
 20
121.2839472047
 11
60.8701569028
 21
121.6037312047
  0
ARC
  8
1
  6
CONTINUOUS
 62
     7
 10
67.3163779028
 20
127.2189702047
 40
2.02225
 50
270.816482
 51
49.73301099999997
  0
ARC
  8
1
  6
CONTINUOUS
 62
     7
 10
30.148975191
 20
117.0598902059
 40
6.147912
 50
306.686259
 51
323.309285
  0
ARC
  8
1
  6
CONTINUOUS
 62
     7
 10
68.2013319028
 20
134.1584412047
 40
1.143169
 50
344.047482
 51
72.07242900000001
  0
LINE
  8
1
  6
CONTINUOUS
 62
     7
 10
61.8202259028
 20
117.4082682047
 11
67.3451949028
 21
117.3372882047
  0
ARC
  8
1
  6
CONTINUOUS
 62
     7
 10
61.6844779028
 20
127.8158552047
 40
1.310993
 50
84.056588
 51
127.49103
  0
LINE
  8
1
  6
CONTINUOUS
 62
     7
 10
60.8701639028
 20
128.7967952047
 11
60.8865589028
 21
128.8560612047
  0
LINE
  8
1
  6
CONTINUOUS
 62
     7
 10
60.8701639028
 20
114.8470802047
 11
60.8858059028
 21
114.7315222047
  0
LINE
  8
1
  6
CONTINUOUS
 62
     7
 10
60.8701539028
 20
134.4933952047
 11
60.8701539028
 21
131.6646102047
  0
LINE
  8
1
  6
CONTINUOUS
 62
     7
 10
60.8744679028
 20
134.5128642047
 11
60.8701539028
 21
134.4933992047
  0
ARC
  8
1
  6
CONTINUOUS
 62
     7
 10
61.7791949028
 20
134.3131252047
 40
0.953716
 50
87.534257
 51
159.385912
  0
ARC
  8
1
  6
CONTINUOUS
 62
     7
 10
67.9350389028
 20
112.8481902047
 40
4.821728
 50
262.9733780000001
 51
285.5728539999999
  0
ARC
  8
1
  6
CONTINUOUS
 62
     7
 10
69.1330259028
 20
108.3946102047
 40
0.214107
 50
296.7807
 51
72.195604
  0
LINE
  8
1
  6
CONTINUOUS
 62
     7
 10
67.3451949028
 20
138.4653932047
 11
61.8202259028
 21
138.1962092047
  0
LINE
  8
1
  6
CONTINUOUS
 62
     7
 10
60.8701639028
 20
128.7887312047
 11
60.8701639028
 21
117.7395042047
  0
LINE
  8
1
  6
CONTINUOUS
 62
     7
 10
60.8701639028
 20
134.5122472047
 11
60.8865419028
 21
134.6489012047
  0
ARC
  8
1
  6
CONTINUOUS
 62
     7
 10
67.3322369028
 20
105.6068752047
 40
3.525976
 50
58.042653
 51
89.78942999999998
  0
ARC
  8
1
  6
CONTINUOUS
 62
     7
 10
67.3450729028
 20
119.4285722047
 40
1.902573
 50
53.260245
 51
89.99633500000003
  0
ARC
  8
1
  6
CONTINUOUS
 62
     7
 10
67.3633839028
 20
140.7386492047
 40
3.343456
 50
269.68829
 51
304.491891
  0
LINE
  8
1
  6
CONTINUOUS
 62
     7
 10
60.8701569028
 20
117.7395092047
 11
60.8759169028
 21
117.7678922047
  0
LINE
  8
1
  6
CONTINUOUS
 62
     7
 10
60.8961539028
 20
117.6568642047
 11
60.8865369028
 21
117.6721772047
  0
LINE
  8
1
  6
CONTINUOUS
 62
     7
 10
61.8202259028
 20
125.1234732047
 11
67.3451949028
 21
125.1969252047
  0
ARC
  8
1
  6
CONTINUOUS
 62
     7
 10
68.0598519028
 20
112.3930852047
 40
1.276845
 50
333.0895650000001
 51
56.83302199999996
  0
LINE
  8
1
  6
CONTINUOUS
 62
     7
 10
60.8865369028
 20
117.6721772047
 11
60.8701639028
 21
117.7314122047
  0
ARC
  8
1
  6
CONTINUOUS
 62
     7
 10
30.149110191
 20
129.4689482059
 40
6.147694
 50
36.685948
 51
53.309082
  0
LINE
  8
1
  6
CONTINUOUS
 62
     7
 10
60.8756009028
 20
128.7591722047
 11
60.8701569028
 21
128.7887332047
  0
ARC
  8
1
  6
CONTINUOUS
 62
     7
 10
69.1305799028
 20
138.1558932047
 40
0.214073
 50
306.112389
 51
91.36277200000002
  0
ARC
  8
1
  6
CONTINUOUS
 62
     7
 10
61.7792119028
 20
112.2149072047
 40
0.953678
 50
200.601294
 51
272.464826
  0
LINE
  8
1
  6
CONTINUOUS
 62
     7
 10
60.8701579028
 20
112.0347882047
 11
60.8744909028
 21
112.0152372047
  0
LINE
  8
1
  6
CONTINUOUS
 62
     7
 10
60.8701639028
 20
110.3506322047
 11
60.8852049028
 21
110.1869832047
  0
LINE
  8
1
  6
CONTINUOUS
 62
     7
 10
67.3451949028
 20
129.1907822047
 11
61.8202259028
 21
129.1198012047
  0
LINE
  8
1
  6
CONTINUOUS
 62
     7
 10
67.3451949028
 20
121.3311442047
 11
61.8202259028
 21
121.4045962047
  0
LINE
  8
1
  6
CONTINUOUS
 62
     7
 10
61.8202259028
 20
111.2621112047
 11
67.3451949028
 21
111.0657172047
  0
LINE
  8
1
  6
CONTINUOUS
 62
     7
 10
61.8202259028
 20
108.3318602047
 11
67.3451949028
 21
108.0626762047
  0
LINE
  8
1
  6
CONTINUOUS
 62
     7
 10
61.8202259028
 20
137.1253972047
 11
67.3451949028
 21
137.3952422047
  0
ARC
  8
1
  6
CONTINUOUS
 62
     7
 10
67.3564359028
 20
134.6387342047
 40
2.100118
 50
269.693316
 51
337.771358
  0
ARC
  8
1
  6
CONTINUOUS
 62
     7
 10
67.5078499028
 20
132.8886872047
 40
2.5788
 50
66.085747
 51
93.616265
  0
LINE
  8
1
  6
CONTINUOUS
 62
     7
 10
67.3451949028
 20
113.9894232047
 11
61.8202259028
 21
114.1876272047
  0
LINE
  8
1
  6
CONTINUOUS
 62
     7
 10
67.3451949028
 20
135.4623522047
 11
61.8202259028
 21
135.2659582047
  0
ARC
  8
1
  6
CONTINUOUS
 62
     7
 10
67.3899309028
 20
119.3102372047
 40
1.973457
 50
268.7010540000001
 51
56.36055399999999
  0
ARC
  8
1
  6
CONTINUOUS
 62
     7
 10
15.468858191
 20
125.5353592059
 40
6.147692
 50
156.685947
 51
173.3090829999999
  0
ARC
  8
1
  6
CONTINUOUS
 62
     7
 10
61.7243169028
 20
122.8880482047
 40
2.237482
 50
87.54327200000002
 51
112.017305
  0
ARC
  8
1
  6
CONTINUOUS
 62
     7
 10
17.739704191
 20
129.4691142059
 40
6.147428
 50
126.685532
 51
143.308821
  0
LINE
  8
1
  6
CONTINUOUS
 62
     7
 10
60.8701639028
 20
121.5988452047
 11
60.8856459028
 21
121.5657202047
  0
LINE
  8
1
  6
CONTINUOUS
 62
     7
 10
61.1032969028
 20
121.1889742047
 11
61.0028689028
 21
121.2839472047
  0
ARC
  8
1
  6
CONTINUOUS
 62
     7
 10
67.4094659028
 20
127.2625392047
 40
1.929314
 50
51.006221
 51
91.90904699999999
  0
ARC
  8
1
  6
CONTINUOUS
 62
     7
 10
61.7251849028
 20
123.6443492047
 40
2.241768
 50
248.00666
 51
272.429813
  0
ARC
  8
1
  6
CONTINUOUS
 62
     7
 10
67.5869599028
 20
113.1339132047
 40
2.082279
 50
263.3325849999999
 51
320.705362
  0
LINE
  8
1
  6
CONTINUOUS
 62
     7
 10
60.8855149028
 20
124.9623522047
 11
60.8701639028
 21
124.9293742047
  0
ARC
  8
1
  6
CONTINUOUS
 62
     7
 10
67.3055179028
 20
111.7264302047
 40
2.263341
 50
50.065251
 51
88.99552700000001
  0
ARC
  8
1
  6
CONTINUOUS
 62
     7
 10
15.469078191
 20
120.9933292059
 40
6.14791
 50
186.686257
 51
203.309287
  0
ARC
  8
1
  6
CONTINUOUS
 62
     7
 10
61.7089629028
 20
118.8364532047
 40
1.432512
 50
235.430765
 51
274.454641
  0
LINE
  8
1
  6
CONTINUOUS
 62
     7
 10
60.8701639028
 20
117.7314122047
 11
60.8701639028
 21
112.0347822047
  0
ARC
  8
1
  6
CONTINUOUS
 62
     7
 10
61.7691979028
 20
131.3533122047
 40
0.9884489999999999
 50
87.040851
 51
153.335966
  0
LINE
  8
1
  6
CONTINUOUS
 62
     7
 10
60.8701639028
 20
131.6811102047
 11
60.8701639028
 21
128.7967952047
  0
ARC
  8
1
  6
CONTINUOUS
 62
     7
 10
26.271929191
 20
114.5778962059
 40
5.931921
 50
276.460249
 51
293.549545
  0
LINE
  8
1
  6
CONTINUOUS
 62
     7
 10
60.8701639028
 20
135.3228282064
 11
59.3701639028
 21
135.3228282064
  0
LINE
  8
1
  6
CONTINUOUS
 62
     7
 10
59.3701639028
 20
111.2058282064
 11
60.8701639028
 21
111.2058282064
  0
LINE
  8
1
  6
CONTINUOUS
 62
     7
 10
61.0623489028
 20
121.2194382047
 11
61.0028069028
 21
121.2838782047
  0
LINE
  8
1
  6
CONTINUOUS
 62
     7
 10
59.3701639027
 20
111.2058282064
 11
60.5321639028
 21
110.0438282064
  0
LINE
  8
1
  6
CONTINUOUS
 62
     7
 10
60.8852079028
 20
134.6431922047
 11
60.8863529028
 21
134.6494712047
  0
CIRCLE
  8
1
  6
CONTINUOUS
 62
     7
 10
23.944512191
 20
123.2643212059
 40
21.9279731017
  0
LINE
  8
1
  6
CONTINUOUS
 62
     7
 10
60.8701639028
 20
137.2137502047
 11
60.8895509028
 21
137.4066762047
  0
LINE
  8
1
  6
CONTINUOUS
 62
     7
 10
60.8701639028
 20
109.3143382047
 11
60.8701639028
 21
109.2414882047
  0
LINE
  8
1
  6
CONTINUOUS
 62
     7
 10
61.8199959028
 20
138.3115262047
 11
70.8853369028
 21
138.7647932047
  0
LINE
  8
1
  6
CONTINUOUS
 62
     7
 10
59.3701639028
 20
111.2058282064
 11
59.3701639028
 21
135.3228282064
  0
LINE
  8
1
  6
CONTINUOUS
 62
     7
 10
70.8701639028
 20
107.7640352047
 11
61.8199959028
 21
108.2165432047
  0
ARC
  8
1
  6
CONTINUOUS
 62
     7
 10
61.8624669028
 20
137.2031272047
 40
0.99398
 50
92.435613
 51
168.183259
  0
LINE
  8
1
  6
CONTINUOUS
 62
     7
 10
60.8857429028
 20
117.6705392047
 11
60.8844659028
 21
117.6761592047
  0
LINE
  8
1
  6
CONTINUOUS
 62
     7
 10
60.8863149028
 20
111.8784652047
 11
60.8848639028
 21
111.8864602047
  0
LINE
  8
1
  6
CONTINUOUS
 62
     7
 10
60.8848639028
 20
111.8864602047
 11
60.8736999028
 21
112.0152222047
  0
LINE
  8
1
  6
CONTINUOUS
 62
     7
 10
60.8854089028
 20
124.9586282047
 11
60.8855759028
 21
124.9623072047
  0
LINE
  8
1
  6
CONTINUOUS
 62
     7
 10
59.3701639028
 20
135.3228282064
 11
60.5321639028
 21
136.4848282064
  0
LINE
  8
1
  6
CONTINUOUS
 62
     7
 10
60.8701639028
 20
110.0438282064
 11
60.5321639028
 21
110.0438282064
  0
LINE
  8
1
  6
CONTINUOUS
 62
     7
 10
60.8701639028
 20
136.4848282064
 11
60.5321639028
 21
136.4848282064
  0
LINE
  8
1
  6
CONTINUOUS
 62
     7
 10
60.5321639028
 20
136.4848282064
 11
60.5321639028
 21
110.0438282064
  0
ARC
  8
1
  6
CONTINUOUS
 62
     7
 10
61.8550299028
 20
110.3936662047
 40
0.991604
 50
192.030527
 51
267.988612
  0
ARC
  8
1
  6
CONTINUOUS
 62
     7
 10
61.8549489028
 20
136.1344782047
 40
0.9915259999999999
 50
92.00691200000001
 51
167.959205
  0
LINE
  8
1
  6
CONTINUOUS
 62
     7
 10
60.8750189028
 20
128.7591402047
 11
60.8845419028
 21
128.8521852047
  0
LINE
  8
1
  6
CONTINUOUS
 62
     7
 10
60.8701639028
 20
112.0159132047
 11
60.8701639028
 21
109.3389252047
  0
LINE
  8
1
  6
CONTINUOUS
 62
     7
 10
60.8844659028
 20
117.6761592047
 11
60.8750059028
 21
117.7679742047
  0
LINE
  8
1
  6
CONTINUOUS
 62
     7
 10
60.8845419028
 20
128.8521852047
 11
60.8857729028
 21
128.8575872047
  0
LINE
  8
1
  6
CONTINUOUS
 62
     7
 10
60.8894899028
 20
109.1217142047
 11
60.8701639028
 21
109.3143382047
  0
LINE
  8
1
  6
CONTINUOUS
 62
     7
 10
60.8701639028
 20
137.2865882047
 11
60.8701639028
 21
137.2137502047
  0
LINE
  8
1
  6
CONTINUOUS
 62
     7
 10
60.8701639028
 20
136.1774972047
 11
60.8701639028
 21
134.4934443252
  0
ARC
  8
1
  6
CONTINUOUS
 62
     7
 10
61.8701639028
 20
109.2152842047
 40
1.0
 50
180.0
 51
267.130641
  0
LINE
  8
1
  6
CONTINUOUS
 62
     7
 10
60.8737669028
 20
137.2482642047
 11
60.8917089028
 21
137.4169152047
  0
LINE
  8
1
  6
CONTINUOUS
 62
     7
 10
60.8852369028
 20
136.3413192047
 11
60.8701639028
 21
136.1774972047
  0
LINE
  8
1
  6
CONTINUOUS
 62
     7
 10
60.8701609028
 20
109.3389312047
 11
60.8745679028
 21
109.2798432047
  0
LINE
  8
1
  6
CONTINUOUS
 62
     7
 10
60.8701529028
 20
137.1891602047
 11
60.8701529028
 21
136.1537712047
  0
ARC
  8
1
  6
CONTINUOUS
 62
     7
 10
61.8624809028
 20
109.3249532047
 40
0.9939910000000001
 50
191.798342
 51
267.563577
  0
LINE
  8
1
  6
CONTINUOUS
 62
     7
 10
60.8745649028
 20
137.2482722047
 11
60.8701529028
 21
137.1891632047
  0
LINE
  8
1
  6
CONTINUOUS
 62
     7
 10
60.8738309028
 20
137.2483482047
 11
60.8919029028
 21
137.4174082047
  0
ARC
  8
1
  6
CONTINUOUS
 62
     7
 10
61.8701639028
 20
137.3127862047
 40
1.0
 50
92.869359
 51
180.0
  0
ENDSEC
  0
EOF
